  0
SECTION
  2
HEADER
  9
$ACADVER
  1
AC1009
  9
$INSBASE
 10
5365.6140273751980203
 20
291.7914538552000749
 30
0.0
  9
$EXTMIN
 10
5358.7641291497156999
 20
291.7779532641454807
 30
-0.0015258207003583
  9
$EXTMAX
 10
5367.3639613837331126
 20
299.3375589067417195
 30
0.0000000349246037
  9
$LIMMIN
 10
0.0
 20
0.0
  9
$LIMMAX
 10
11.6929133858000007
 20
8.2677165353999982
  9
$ORTHOMODE
 70
     0
  9
$REGENMODE
 70
     1
  9
$FILLMODE
 70
     1
  9
$QTEXTMODE
 70
     0
  9
$MIRRTEXT
 70
     0
  9
$DRAGMODE
 70
     2
  9
$LTSCALE
 40
0.6431102362
  9
$OSMODE
 70
  4095
  9
$ATTMODE
 70
     1
  9
$TEXTSIZE
 40
0.2
  9
$TRACEWID
 40
0.05
  9
$TEXTSTYLE
  7
STANDARD
  9
$CLAYER
  8
0
  9
$CELTYPE
  6
BYLAYER
  9
$CECOLOR
 62
   256
  9
$DIMSCALE
 40
1.0
  9
$DIMASZ
 40
0.1875
  9
$DIMEXO
 40
0.0625
  9
$DIMDLI
 40
0.4443307087
  9
$DIMRND
 40
0.0
  9
$DIMDLE
 40
0.0
  9
$DIMEXE
 40
0.125
  9
$DIMTP
 40
0.01
  9
$DIMTM
 40
0.01
  9
$DIMTXT
 40
2.0
  9
$DIMCEN
 40
0.1052362205
  9
$DIMTSZ
 40
0.0
  9
$DIMTOL
 70
     1
  9
$DIMLIM
 70
     0
  9
$DIMTIH
 70
     1
  9
$DIMTOH
 70
     1
  9
$DIMSE1
 70
     0
  9
$DIMSE2
 70
     0
  9
$DIMTAD
 70
     0
  9
$DIMZIN
 70
     0
  9
$DIMBLK
  1

  9
$DIMASO
 70
     1
  9
$DIMSHO
 70
     1
  9
$DIMPOST
  1
\X
  9
$DIMAPOST
  1

  9
$DIMALT
 70
     1
  9
$DIMALTD
 70
     2
  9
$DIMALTF
 40
25.3999999999999986
  9
$DIMLFAC
 40
1.0
  9
$DIMTOFL
 70
     0
  9
$DIMTVP
 40
0.0
  9
$DIMTIX
 70
     0
  9
$DIMSOXD
 70
     0
  9
$DIMSAH
 70
     0
  9
$DIMBLK1
  1

  9
$DIMBLK2
  1

  9
$DIMSTYLE
  2
STANDARD
  9
$DIMCLRD
 70
     0
  9
$DIMCLRE
 70
     0
  9
$DIMCLRT
 70
     0
  9
$DIMTFAC
 40
1.0
  9
$DIMGAP
 40
0.09
  9
$LUNITS
 70
     2
  9
$LUPREC
 70
     4
  9
$SKETCHINC
 40
0.1
  9
$FILLETRAD
 40
0.0
  9
$AUNITS
 70
     0
  9
$AUPREC
 70
     0
  9
$MENU
  1
.
  9
$ELEVATION
 40
0.0
  9
$PELEVATION
 40
0.0
  9
$THICKNESS
 40
0.0
  9
$LIMCHECK
 70
     0
  9
$BLIPMODE
 70
     0
  9
$CHAMFERA
 40
0.0
  9
$CHAMFERB
 40
0.0
  9
$SKPOLY
 70
     0
  9
$TDCREATE
 40
2458060.468368056230247
  9
$TDUPDATE
 40
2460199.7736458331346512
  9
$TDINDWG
 40
0.6962454861
  9
$TDUSRTIMER
 40
0.6962454861
  9
$USRTIMER
 70
     1
  9
$ANGBASE
 50
0.0
  9
$ANGDIR
 70
     0
  9
$PDMODE
 70
     0
  9
$PDSIZE
 40
0.3125
  9
$PLINEWID
 40
0.0
  9
$COORDS
 70
     1
  9
$SPLFRAME
 70
     0
  9
$SPLINETYPE
 70
     6
  9
$SPLINESEGS
 70
     8
  9
$ATTDIA
 70
     1
  9
$ATTREQ
 70
     1
  9
$HANDLING
 70
     1
  9
$HANDSEED
  5
2AADE
  9
$SURFTAB1
 70
     6
  9
$SURFTAB2
 70
     6
  9
$SURFTYPE
 70
     6
  9
$SURFU
 70
     6
  9
$SURFV
 70
     6
  9
$UCSNAME
  2

  9
$UCSORG
 10
0.0
 20
0.0
 30
0.0
  9
$UCSXDIR
 10
1.0
 20
0.0
 30
0.0
  9
$UCSYDIR
 10
0.0
 20
1.0
 30
0.0
  9
$PUCSNAME
  2

  9
$PUCSORG
 10
0.0
 20
0.0
 30
0.0
  9
$PUCSXDIR
 10
1.0
 20
0.0
 30
0.0
  9
$PUCSYDIR
 10
0.0
 20
1.0
 30
0.0
  9
$USERI1
 70
     0
  9
$USERI2
 70
     0
  9
$USERI3
 70
     0
  9
$USERI4
 70
     0
  9
$USERI5
 70
     0
  9
$USERR1
 40
0.0
  9
$USERR2
 40
0.0
  9
$USERR3
 40
0.0
  9
$USERR4
 40
0.0
  9
$USERR5
 40
0.0
  9
$WORLDVIEW
 70
     1
  9
$SHADEDGE
 70
     3
  9
$SHADEDIF
 70
    70
  9
$TILEMODE
 70
     1
  9
$MAXACTVP
 70
    64
  9
$PLIMCHECK
 70
     0
  9
$PEXTMIN
 10
1.0000000000000000E+20
 20
1.0000000000000000E+20
 30
1.0000000000000000E+20
  9
$PEXTMAX
 10
-1.0000000000000000E+20
 20
-1.0000000000000000E+20
 30
-1.0000000000000000E+20
  9
$PLIMMIN
 10
0.0
 20
0.0
  9
$PLIMMAX
 10
12.0
 20
9.0
  9
$UNITMODE
 70
     0
  9
$VISRETAIN
 70
     1
  9
$PLINEGEN
 70
     0
  9
$PSLTSCALE
 70
     1
  0
ENDSEC
  0
SECTION
  2
TABLES
  0
TABLE
  2
VPORT
 70
     1
  0
VPORT
  2
*ACTIVE
 70
     0
 10
0.0
 20
0.0
 11
1.0
 21
1.0
 12
1451.6986888214119062
 22
162.9781509829045092
 13
0.0
 23
0.0
 14
1.0
 24
1.0
 15
0.0
 25
0.0
 16
0.0
 26
0.0
 36
60.4960186965801583
 17
3911.3653564453120453
 27
132.5796051025390057
 37
0.0
 40
7.6176819983652422
 41
1.4307692307692299
 42
50.0
 43
0.0
 44
0.0
 50
0.0
 51
0.0
 71
     0
 72
   100
 73
     1
 74
     1
 75
     0
 76
     0
 77
     0
 78
     0
  0
ENDTAB
  0
TABLE
  2
LTYPE
 70
     2
  0
LTYPE
  2
CONTINUOUS
 70
     0
  3
Solid line
 72
    65
 73
     0
 40
0.0
  0
LTYPE
  2
PHANTOM2
 70
     0
  3
___ _ _ ___ _ _ ___ _ _ ___ _ _
 72
    65
 73
     6
 40
1.25
 49
0.625
 49
-0.125
 49
0.125
 49
-0.125
 49
0.125
 49
-0.125
  0
ENDTAB
  0
TABLE
  2
LAYER
 70
     2
  0
LAYER
  2
0
 70
     0
 62
   255
  6
CONTINUOUS
  0
LAYER
  2
DEFPOINTS
 70
     0
 62
     7
  6
CONTINUOUS
  0
ENDTAB
  0
TABLE
  2
STYLE
 70
     1
  0
STYLE
  2
STANDARD
 70
     0
 40
0.0
 41
0.8
 50
0.0
 71
     0
 42
0.2
  3
txt
  4

  0
ENDTAB
  0
TABLE
  2
VIEW
 70
     0
  0
ENDTAB
  0
TABLE
  2
UCS
 70
     0
  0
ENDTAB
  0
TABLE
  2
APPID
 70
    11
  0
APPID
  2
ACAD
 70
     0
  0
APPID
  2
ACAD_MLEADERVER
 70
     0
  0
APPID
  2
ACAD_EXEMPT_FROM_CAD_STANDARDS
 70
     0
  0
APPID
  2
ACAD_NAV_VCDISPLAY
 70
     0
  0
APPID
  2
ACAECLAYERSTANDARD
 70
     0
  0
APPID
  2
ACCMTRANSPARENCY
 70
     0
  0
APPID
  2
ACAD_DSTYLE_DIMJAG
 70
     0
  0
APPID
  2
ACAD_DSTYLE_DIMTALN
 70
     0
  0
APPID
  2
ACDBATTR
 70
     0
  0
APPID
  2
ACADANNOTATIVE
 70
     0
  0
APPID
  2
DCO15
 70
     0
  0
ENDTAB
  0
TABLE
  2
DIMSTYLE
 70
     1
  0
DIMSTYLE
  2
STANDARD
 70
     0
  3

  4

  5

  6

  7

 40
1.0
 41
0.1875
 42
0.0625
 43
0.38
 44
0.125
 45
0.0
 46
0.0
 47
0.01
 48
0.01
140
0.15625
141
0.09
142
0.0
143
25.3999999999999986
144
1.0
145
0.0
146
1.0
147
0.09
 71
     1
 72
     0
 73
     1
 74
     1
 75
     0
 76
     0
 77
     0
 78
     4
170
     0
171
     2
172
     0
173
     0
174
     0
175
     0
176
     0
177
     0
178
     0
  0
ENDTAB
  0
ENDSEC
  0
SECTION
  2
BLOCKS
  0
BLOCK
  8
0
  2
$MODEL_SPACE
 70
     0
 10
0.0
 20
0.0
 30
0.0
  3
$MODEL_SPACE
  1

  0
ENDBLK
  5
21
  8
0
  0
BLOCK
 67
     1
  8
0
  2
$PAPER_SPACE
 70
     0
 10
0.0
 20
0.0
 30
0.0
  3
$PAPER_SPACE
  1

  0
ENDBLK
  5
1D
 67
     1
  8
0
  0
ENDSEC
  0
SECTION
  2
ENTITIES
  0
ATTDEF
  5
26A5B
  8
DEFPOINTS
 10
5365.6101829587632892
 20
291.7962015025569258
 30
0.0
 40
0.001
  1
P32705-WC
  3

  2
MODELNUMBER
 70
     0
1001
ACDBATTR
1070
     0
1070
     1
  0
ATTDEF
  5
26A5C
  8
DEFPOINTS
 10
5365.6100571491060691
 20
291.7945346621776821
 30
0.0
 40
0.001
  1
002
  3

  2
TRADENAME
 70
     0
1001
ACDBATTR
1070
     0
1070
     1
  0
ATTDEF
  5
26A5D
  8
DEFPOINTS
 10
5365.6101829587632892
 20
291.7928681692234818
 30
0.0
 40
0.001
  1
BATHROOM SINK FAUCET
  3

  2
PRODUCT
 70
     0
1001
ACDBATTR
1070
     0
1070
     1
  0
LINE
  5
2A927
  8
0
 10
5359.0140332521214077
 20
299.2307255742672965
 30
0.0
 11
5365.6182433024887359
 21
299.2307255742672965
 31
0.0
  0
LINE
  5
2A928
  8
0
 10
5359.6140319043988711
 20
299.3362638551924988
 30
0.0
 11
5365.6665281809528096
 21
299.3362638551924988
 31
0.0
  0
LINE
  5
2A929
  8
0
 10
5365.0140374502489067
 20
297.9532539657212737
 30
0.0
 11
5365.0140374502489067
 21
294.9618549309000741
 31
0.0
  0
LINE
  5
2A92A
  8
0
 10
5365.0140374502489067
 20
294.2721824639281181
 30
0.0
 11
5365.0140374502489067
 21
291.9894538552002246
 31
0.0
  0
LINE
  5
2A92B
  8
0
 10
5364.6690273751992208
 20
291.9794538552001768
 30
0.0
 11
5366.5590273751986388
 21
291.9794538552001768
 31
0.0
  0
LINE
  5
2A92C
  8
0
 10
5364.6450273751988789
 20
291.7914538552000749
 30
0.0
 11
5366.5830273751989807
 21
291.7914538552000749
 31
0.0
  0
LINE
  5
2A92D
  8
0
 10
5364.6300273751985515
 20
291.9404538552000759
 30
0.0
 11
5364.6300273751985515
 21
291.806453855200175
 31
0.0
  0
ARC
  5
2A92E
  8
0
 10
5364.6690273751992208
 20
291.9404538552000759
 30
0.0
 40
0.039
 50
90.0
 51
180.0
  0
ARC
  5
2A92F
  8
0
 10
5364.6450273751988789
 20
291.806453855200175
 30
0.0
 40
0.015
 50
180.0
 51
270.0
  0
ARC
  5
2A930
  8
0
 10
5365.0240374502482155
 20
291.9894538552002246
 30
0.0
 40
0.01
 50
180.0
 51
270.0
  0
LINE
  5
2A931
  8
0
 10
5366.5980273751983987
 20
291.9404538552000759
 30
0.0
 11
5366.5980273751983987
 21
291.806453855200175
 31
0.0
  0
ARC
  5
2A932
  8
0
 10
5366.5590273751986388
 20
291.9404538552000759
 30
0.0
 40
0.039
 50
0.0
 51
90.0
  0
ARC
  5
2A933
  8
0
 10
5366.5830273751989807
 20
291.806453855200175
 30
0.0
 40
0.015
 50
270.0
 51
0.0
  0
LINE
  5
2A934
  8
0
 10
5366.2140374473883639
 20
299.2612539126657225
 30
0.0
 11
5366.2140374480532046
 21
297.5688538552003024
 31
0.0
  0
LINE
  5
2A935
  8
0
 10
5366.2140374487917143
 20
295.6900538552000057
 30
0.0
 11
5366.2140374490791146
 21
294.9618549309000741
 31
0.0
  0
LINE
  5
2A936
  8
0
 10
5366.214037449350144
 20
294.2721881898237939
 30
0.0
 11
5366.2140374502478153
 21
291.9894538552002246
 31
0.0
  0
ARC
  5
2A937
  8
0
 10
5366.204037450247597
 20
291.9894538552002246
 30
0.0
 40
0.01
 50
270.0
 51
0.0
  0
LINE
  5
2A938
  8
0
 10
5366.1121706817975792
 20
293.7544538552002109
 30
0.0
 11
5365.1158931263989871
 21
293.7544538552002109
 31
0.0
  0
LINE
  5
2A939
  8
0
 10
5366.1221706818987514
 20
294.1245217655614965
 30
0.0
 11
5366.1221706818987514
 21
293.7644538552000881
 31
0.0
  0
LINE
  5
2A93A
  8
0
 10
5366.1221706818987514
 20
293.7194538552001859
 30
0.0
 11
5366.1221706818987514
 21
291.9894538552002246
 31
0.0
  0
LINE
  5
2A93B
  8
0
 10
5366.2909066815982442
 20
294.291098635700223
 30
0.0
 11
5366.8011606765976467
 21
294.291098635700223
 31
0.0
  0
LINE
  5
2A93C
  8
0
 10
5367.2213481208991652
 20
294.7094538552000813
 30
0.0
 11
5364.0067156873983549
 21
294.7094538552000813
 31
0.0
  0
LINE
  5
2A93D
  8
0
 10
5367.1822251469975527
 20
294.7581494677777982
 30
0.0
 11
5367.1822251469975527
 21
294.7351307116002204
 31
0.0
  0
LINE
  5
2A93E
  8
0
 10
5366.978941251998549
 20
294.9618549309000741
 30
0.0
 11
5364.2491225562989712
 21
294.9618549309000741
 31
0.0
  0
ARC
  5
2A93F
  8
0
 10
5366.2919098353777372
 20
294.1213324865207142
 30
0.0
 40
0.169769112987963
 50
90.3385587120294957
 51
178.9235793524534017
  0
ARC
  5
2A940
  8
0
 10
5366.8011606749978455
 20
294.7335986374683898
 30
0.0
 40
0.4425000017682184
 50
270.0000002072944199
 51
354.0025217662241062
  0
LINE
  5
2A941
  8
0
 10
5367.180883847811856
 20
294.7301280223001072
 30
0.0
 11
5367.168939049826804
 21
294.7094538552000813
 31
0.0
  0
ARC
  5
2A942
  8
0
 10
5366.738790528302161
 20
294.5308417789834152
 30
0.0
 40
0.5000000081275383
 50
27.9483636986251192
 51
57.3658453122360825
  0
ARC
  5
2A943
  8
0
 10
5367.1672251469990442
 20
294.7581494677777982
 30
0.0
 40
0.015
 50
359.9999999999445777
 51
27.9483636986610513
  0
ARC
  5
2A944
  8
0
 10
5367.1722251469982439
 20
294.7351307116002204
 30
0.0
 40
0.01
 50
329.9822067427365937
 51
359.9999999999902229
  0
ARC
  5
2A945
  8
0
 10
5366.9732942302753145
 20
294.8964434205643101
 30
0.0
 40
0.0656548135231346
 50
57.6484241639390405
 51
85.0658488231253642
  0
ARC
  5
2A946
  8
0
 10
5367.2213481208991652
 20
294.6894538552002132
 30
0.0
 40
0.02
 50
354.0025217563364208
 51
90.0000000000521254
  0
LINE
  5
2A947
  8
0
 10
5367.180475701992691
 20
294.765179602364924
 30
0.0
 11
5364.0475881063030101
 21
294.765179602364924
 31
0.0
  0
LINE
  5
2A948
  8
0
 10
5367.180883847811856
 20
294.7301280223001072
 30
0.0
 11
5364.0471799604856642
 21
294.7301280223001072
 31
0.0
  0
ARC
  5
2A949
  8
0
 10
5365.6018511383399527
 20
294.7397344990794181
 30
0.0
 40
0.4503331643126183
 50
271.5499449185747949
 51
353.3211488817694885
  0
ARC
  5
2A94A
  8
0
 10
5366.0292262246894097
 20
294.6894430688462876
 30
0.0
 40
0.0200107905019936
 50
354.0216482109817093
 51
89.9631083798850426
  0
LINE
  5
2A94B
  8
0
 10
5365.1058931263987688
 20
294.1245217655614965
 30
0.0
 11
5365.1058931263987688
 21
293.7644538552000881
 31
0.0
  0
ARC
  5
2A94C
  8
0
 10
5365.1158931263989871
 20
293.7644538552000881
 30
0.0
 40
0.01
 50
180.0
 51
270.0
  0
LINE
  5
2A94D
  8
0
 10
5365.1058931263987688
 20
293.7194538552001859
 30
0.0
 11
5365.1058931263987688
 21
291.9894538552002246
 31
0.0
  0
LINE
  5
2A94E
  8
0
 10
5364.9371571266983665
 20
294.291098635700223
 30
0.0
 11
5364.426903131698964
 21
294.291098635700223
 31
0.0
  0
LINE
  5
2A94F
  8
0
 10
5364.0458386612981485
 20
294.7581494677777982
 30
0.0
 11
5364.0458386612981485
 21
294.7351307116002204
 31
0.0
  0
LINE
  5
2A950
  8
0
 10
5365.1580819040982533
 20
293.7544538552002109
 30
0.0
 11
5365.1580819040982533
 21
293.7394538552002246
 31
0.0
  0
ARC
  5
2A951
  8
0
 10
5364.9361539729188735
 20
294.1213324865207142
 30
0.0
 40
0.169769112987963
 50
1.0764206475466209
 51
89.6614412879705043
  0
ARC
  5
2A952
  8
0
 10
5364.4269031332987652
 20
294.7335986374683898
 30
0.0
 40
0.4425000017682184
 50
185.9974782337760075
 51
269.9999997927055801
  0
LINE
  5
2A953
  8
0
 10
5364.0471799604856642
 20
294.7301280223001072
 30
0.0
 11
5364.0591247584707162
 21
294.7094538552000813
 31
0.0
  0
ARC
  5
2A954
  8
0
 10
5364.4892732799962687
 20
294.5308417789834152
 30
0.0
 40
0.5000000081275383
 50
122.6341546877638962
 51
152.0516363013749128
  0
ARC
  5
2A955
  8
0
 10
5364.0608386612975664
 20
294.7581494677777982
 30
0.0
 40
0.015
 50
152.0516363013389025
 51
180.0000000000553086
  0
ARC
  5
2A956
  8
0
 10
5364.0558386612992763
 20
294.7351307116002204
 30
0.0
 40
0.01
 50
180.0000000000098055
 51
210.0177932572634063
  0
ARC
  5
2A957
  8
0
 10
5364.2547695780222057
 20
294.8964434205643101
 30
0.0
 40
0.0656548135231346
 50
94.93415117687465
 51
122.3515758360609027
  0
ARC
  5
2A958
  8
0
 10
5364.0067156873983549
 20
294.6894538552002132
 30
0.0
 40
0.02
 50
89.9999999999478888
 51
185.9974782436634939
  0
ARC
  5
2A959
  8
0
 10
5365.6262126699566579
 20
294.7397344990794181
 30
0.0
 40
0.4503331643126183
 50
186.6788511182305115
 51
268.4500550814253188
  0
ARC
  5
2A95A
  8
0
 10
5365.1988375836090199
 20
294.6894430688462876
 30
0.0
 40
0.0200107905019936
 50
90.0368916201149432
 51
185.9783517890182054
  0
ARC
  5
2A95B
  8
0
 10
5365.1158931263989871
 20
291.9894538552002246
 30
0.0
 40
0.01
 50
180.0
 51
270.0
  0
LINE
  5
2A95C
  8
0
 10
5365.1158931263989871
 20
293.7294538552001768
 30
0.0
 11
5366.1121706817975792
 21
293.7294538552001768
 31
0.0
  0
ARC
  5
2A95D
  8
0
 10
5365.1158931263989871
 20
293.7194538552001859
 30
0.0
 40
0.01
 50
90.0
 51
179.9999999999934914
  0
ARC
  5
2A95E
  8
0
 10
5365.1480819040989445
 20
293.7394538552002246
 30
0.0
 40
0.01
 50
270.0
 51
359.9999999999968168
  0
ARC
  5
2A95F
  8
0
 10
5366.1121706817975792
 20
293.7644538552000881
 30
0.0
 40
0.01
 50
270.0
 51
0.0
  0
LINE
  5
2A960
  8
0
 10
5366.069981904098313
 20
293.7544538552002109
 30
0.0
 11
5366.069981904098313
 21
293.7394538552002246
 31
0.0
  0
ARC
  5
2A961
  8
0
 10
5366.1121706817975792
 20
291.9894538552002246
 30
0.0
 40
0.01
 50
270.0
 51
0.0
  0
ARC
  5
2A962
  8
0
 10
5366.1121706817975792
 20
293.7194538552001859
 30
0.0
 40
0.01
 50
0.0000000000065138
 51
90.0
  0
ARC
  5
2A963
  8
0
 10
5366.0799819040994407
 20
293.7394538552002246
 30
0.0
 40
0.01
 50
180.0000000000032117
 51
270.0
  0
ARC
  5
2A964
  8
0
 10
5366.6866276484788614
 20
297.2898193558813773
 30
0.0
 40
0.5416555619170721
 50
158.0418040403706925
 51
178.9808186241419037
  0
ARC
  5
2A965
  8
0
 10
5367.3864705186570063
 20
297.0076582773434097
 30
0.0
 40
1.2962381731542909
 50
154.9957779768944022
 51
158.0418040403706925
  0
ARC
  5
2A966
  8
0
 10
5366.1710865558889054
 20
297.5694906204806216
 30
0.0
 40
0.0429556120632698
 50
341.0749283290074914
 51
359.1506278764545073
  0
LINE
  5
2A967
  8
0
 10
5366.5600222305383795
 20
295.9697884406002117
 30
0.0
 11
5366.1450577778032311
 21
295.9697884406002117
 31
0.0
  0
LINE
  5
2A968
  8
0
 10
5366.5370319043986456
 20
295.7461438552002164
 30
0.0
 11
5366.192422728557176
 21
295.7461438552002164
 31
0.0
  0
ARC
  5
2A969
  8
0
 10
5366.5370319043986456
 20
295.9594538552000813
 30
0.0
 40
0.2133100000000025
 50
270.0
 51
349.7796638854824209
  0
ARC
  5
2A96A
  8
0
 10
5366.7272745952650439
 20
295.9251540786415831
 30
0.0
 40
0.02
 50
349.7796638854824209
 51
75.3228911755767712
  0
ARC
  5
2A96B
  8
0
 10
5366.5321851570051876
 20
295.1803050937219268
 30
0.0
 40
0.7899739601157409
 50
75.3228911755775954
 51
87.9805953479945941
  0
LINE
  5
2A96C
  8
0
 10
5366.1450577783989502
 20
297.2994538552002268
 30
0.0
 11
5366.1450577777986837
 21
295.9594538497000826
 31
0.0
  0
ARC
  5
2A96D
  8
0
 10
5366.6318470983624138
 20
295.961388881538312
 30
0.0
 40
0.4867931660871235
 50
180.2277421430260063
 51
196.3675785578789998
  0
ARC
  5
2A96E
  8
0
 10
5366.8925053912380463
 20
296.0379445429690008
 30
0.0
 40
0.7584611894929743
 50
196.3675785578789998
 51
206.0937883345551995
  0
ARC
  5
2A96F
  8
0
 10
5366.1740706918853903
 20
295.6899333511998975
 30
0.0
 40
0.0399669385735578
 50
0.172752313166287
 51
21.1311658791089094
  0
ARC
  5
2A970
  8
0
 10
5359.6140319043988711
 20
296.8990328026000043
 30
0.0
 40
2.4372310526001502
 50
90.0
 51
103.5280759192912967
  0
ARC
  5
2A971
  8
0
 10
5359.6140319096939493
 20
299.2294538572745068
 30
0.0
 40
0.6000000052966999
 50
179.8785598827687124
 51
267.4526813304324264
  0
ARC
  5
2A972
  8
0
 10
5359.0530334720033352
 20
299.2307257253165744
 30
0.0
 40
0.0390002198825561
 50
103.528187687788801
 51
180.0002219085976094
  0
ARC
  5
2A973
  8
0
 10
5359.5869718111525799
 20
298.6474806718676973
 30
0.0
 40
0.0174383727442318
 50
271.2927578544092739
 51
317.5031545963499866
  0
ARC
  5
2A974
  8
0
 10
5359.6660363216842597
 20
298.3834373170478216
 30
0.0
 40
0.2608062805236686
 50
99.6340558595583445
 51
104.7057408798299036
  0
ARC
  5
2A975
  8
0
 10
5359.6198997952442369
 20
298.6552302758090036
 30
0.0
 40
0.0148746791092542
 50
279.6340558595583161
 51
326.4517235611588717
  0
ARC
  5
2A976
  8
0
 10
5359.7127082537308524
 20
298.564303542069581
 30
0.0
 40
0.1153532548999183
 50
116.983759528219295
 51
134.1939952309668058
  0
LINE
  5
2A977
  8
0
 10
5360.9400319042515548
 20
298.6294538552493236
 30
0.0
 11
5364.3378362411522176
 21
298.6294538552493236
 31
0.0
  0
LINE
  5
2A978
  8
0
 10
5359.6686734819613775
 20
298.641673786300089
 30
0.0
 11
5359.7525639233981565
 21
298.641673786300089
 31
0.0
  0
LINE
  5
2A979
  8
0
 10
5360.6180027253813023
 20
298.663687047872088
 30
0.0
 11
5359.910131950898176
 21
298.6636873296001795
 31
0.0
  0
ARC
  5
2A97A
  8
0
 10
5359.9124586766220091
 20
298.0721079961564897
 30
0.0
 40
0.5915839090190542
 50
90.2253474201948364
 51
105.6810754520652011
  0
LINE
  5
2A97B
  8
0
 10
5359.6606747003997953
 20
298.6495341670424182
 30
0.0
 11
5359.660368107098293
 21
298.6670988847001809
 31
0.0
  0
ARC
  5
2A97C
  8
0
 10
5359.6686734819613775
 20
298.649673786300184
 30
0.0
 40
0.008
 50
181.0000000448856952
 51
270.0
  0
ARC
  5
2A97D
  8
0
 10
5359.8299902993312571
 20
298.3516056198862998
 30
0.0
 40
0.3582006256970074
 50
102.1950169870356007
 51
118.2643080884915037
  0
ARC
  5
2A97E
  8
0
 10
5359.831413528118901
 20
298.3450201532419896
 30
0.0
 40
0.3649381290255777
 50
93.7976215081551032
 51
102.1950169870356007
  0
ARC
  5
2A97F
  8
0
 10
5359.8284207096039609
 20
298.3901075028338141
 30
0.0
 40
0.3197515596063699
 50
89.8904808985183337
 51
93.7976215081551032
  0
LINE
  5
2A980
  8
0
 10
5359.8290319043990166
 20
298.7098584782000898
 30
0.0
 11
5360.6990321590046733
 21
298.7098584782000898
 31
0.0
  0
ARC
  5
2A981
  8
0
 10
5360.9400319042515548
 20
298.6444538550308039
 30
0.0
 40
0.0149999997815714
 50
216.8548024307301887
 51
270.0000005578918945
  0
ARC
  5
2A982
  8
0
 10
5360.8799935383403863
 20
298.4767147698239
 30
0.0
 40
0.1658510111237973
 50
73.163989386315194
 51
81.0921114177291571
  0
ARC
  5
2A983
  8
0
 10
5360.9081643204726788
 20
298.6552302758090036
 30
0.0
 40
0.0148746791092542
 50
213.5482764388410999
 51
260.3659441404416839
  0
ARC
  5
2A984
  8
0
 10
5360.8153558619869727
 20
298.564303542069581
 30
0.0
 40
0.1153532548999183
 50
45.8060047690331587
 51
63.0162404717806481
  0
LINE
  5
2A985
  8
0
 10
5360.8593906337564476
 20
298.641673786300089
 30
0.0
 11
5360.7755001923178497
 21
298.641673786300089
 31
0.0
  0
ARC
  5
2A986
  8
0
 10
5360.6156054390958161
 20
298.0721079961564897
 30
0.0
 40
0.5915839090190542
 50
74.3189245479347989
 51
89.774652579805192
  0
LINE
  5
2A987
  8
0
 10
5360.8673894153171204
 20
298.6495341670424182
 30
0.0
 11
5360.8676960086177132
 21
298.6670988847001809
 31
0.0
  0
ARC
  5
2A988
  8
0
 10
5360.8593906337564476
 20
298.649673786300184
 30
0.0
 40
0.008
 50
270.0
 51
358.9999999551142764
  0
ARC
  5
2A989
  8
0
 10
5360.6980738163856586
 20
298.3516056198862998
 30
0.0
 40
0.3582006256970074
 50
61.7356919115085319
 51
77.8049830129643709
  0
ARC
  5
2A98A
  8
0
 10
5360.6966505875980147
 20
298.3450201532419896
 30
0.0
 40
0.3649381290255777
 50
77.8049830129643709
 51
86.2023784918448968
  0
ARC
  5
2A98B
  8
0
 10
5360.6996434061129548
 20
298.3901075028338141
 30
0.0
 40
0.3197515596063699
 50
86.2023784918448968
 51
90.1095191014816805
  0
ARC
  5
2A98C
  8
0
 10
5365.6063468748880041
 20
296.8613083941145874
 30
0.0
 40
2.4756870407865712
 50
75.790778789306998
 51
88.6070636254179931
  0
ARC
  5
2A98D
  8
0
 10
5365.8312785766429442
 20
298.5176333409511926
 30
0.0
 40
0.7442342112868316
 50
92.3245127278536586
 51
106.6334394623064981
  0
LINE
  5
2A98E
  8
0
 10
5365.8010929788388239
 20
299.261255147338602
 30
0.0
 11
5366.2140374473883639
 21
299.2612539126657225
 31
0.0
  0
ARC
  5
2A98F
  8
0
 10
5364.3377348968670049
 20
297.9531513016688109
 30
0.0
 40
0.6763025611737042
 50
0.008697609714856
 51
89.9914141980918032
  0
ENDSEC
  0
EOF
