  0
SECTION
  2
HEADER
  9
$ACADVER
  1
AC1009
  9
$INSBASE
 10
5369.2887065996137608
 20
296.999085884199701
 30
0.0
  9
$EXTMIN
 10
5363.5980015657123658
 20
296.9786280411997836
 30
-0.0015258207003583
  9
$EXTMAX
 10
5375.0800546752443552
 20
304.5531905356245943
 30
0.0000000349246037
  9
$LIMMIN
 10
0.0
 20
0.0
  9
$LIMMAX
 10
11.6929133858000007
 20
8.2677165353999982
  9
$ORTHOMODE
 70
     0
  9
$REGENMODE
 70
     1
  9
$FILLMODE
 70
     1
  9
$QTEXTMODE
 70
     0
  9
$MIRRTEXT
 70
     0
  9
$DRAGMODE
 70
     2
  9
$LTSCALE
 40
0.6431102362
  9
$OSMODE
 70
  4095
  9
$ATTMODE
 70
     1
  9
$TEXTSIZE
 40
0.2
  9
$TRACEWID
 40
0.05
  9
$TEXTSTYLE
  7
STANDARD
  9
$CLAYER
  8
0
  9
$CELTYPE
  6
BYLAYER
  9
$CECOLOR
 62
   256
  9
$DIMSCALE
 40
1.0
  9
$DIMASZ
 40
0.1875
  9
$DIMEXO
 40
0.0625
  9
$DIMDLI
 40
0.4443307087
  9
$DIMRND
 40
0.0
  9
$DIMDLE
 40
0.0
  9
$DIMEXE
 40
0.125
  9
$DIMTP
 40
0.01
  9
$DIMTM
 40
0.01
  9
$DIMTXT
 40
2.0
  9
$DIMCEN
 40
0.1052362205
  9
$DIMTSZ
 40
0.0
  9
$DIMTOL
 70
     1
  9
$DIMLIM
 70
     0
  9
$DIMTIH
 70
     1
  9
$DIMTOH
 70
     1
  9
$DIMSE1
 70
     0
  9
$DIMSE2
 70
     0
  9
$DIMTAD
 70
     0
  9
$DIMZIN
 70
     0
  9
$DIMBLK
  1

  9
$DIMASO
 70
     1
  9
$DIMSHO
 70
     1
  9
$DIMPOST
  1
\X
  9
$DIMAPOST
  1

  9
$DIMALT
 70
     1
  9
$DIMALTD
 70
     2
  9
$DIMALTF
 40
25.3999999999999986
  9
$DIMLFAC
 40
1.0
  9
$DIMTOFL
 70
     0
  9
$DIMTVP
 40
0.0
  9
$DIMTIX
 70
     0
  9
$DIMSOXD
 70
     0
  9
$DIMSAH
 70
     0
  9
$DIMBLK1
  1

  9
$DIMBLK2
  1

  9
$DIMSTYLE
  2
STANDARD
  9
$DIMCLRD
 70
     0
  9
$DIMCLRE
 70
     0
  9
$DIMCLRT
 70
     0
  9
$DIMTFAC
 40
1.0
  9
$DIMGAP
 40
0.09
  9
$LUNITS
 70
     2
  9
$LUPREC
 70
     4
  9
$SKETCHINC
 40
0.1
  9
$FILLETRAD
 40
0.0
  9
$AUNITS
 70
     0
  9
$AUPREC
 70
     0
  9
$MENU
  1
.
  9
$ELEVATION
 40
0.0
  9
$PELEVATION
 40
0.0
  9
$THICKNESS
 40
0.0
  9
$LIMCHECK
 70
     0
  9
$BLIPMODE
 70
     0
  9
$CHAMFERA
 40
0.0
  9
$CHAMFERB
 40
0.0
  9
$SKPOLY
 70
     0
  9
$TDCREATE
 40
2458060.468368056230247
  9
$TDUPDATE
 40
2460199.773865741211921
  9
$TDINDWG
 40
0.6969052083
  9
$TDUSRTIMER
 40
0.6969052083
  9
$USRTIMER
 70
     1
  9
$ANGBASE
 50
0.0
  9
$ANGDIR
 70
     0
  9
$PDMODE
 70
     0
  9
$PDSIZE
 40
0.3125
  9
$PLINEWID
 40
0.0
  9
$COORDS
 70
     1
  9
$SPLFRAME
 70
     0
  9
$SPLINETYPE
 70
     6
  9
$SPLINESEGS
 70
     8
  9
$ATTDIA
 70
     1
  9
$ATTREQ
 70
     1
  9
$HANDLING
 70
     1
  9
$HANDSEED
  5
2AB37
  9
$SURFTAB1
 70
     6
  9
$SURFTAB2
 70
     6
  9
$SURFTYPE
 70
     6
  9
$SURFU
 70
     6
  9
$SURFV
 70
     6
  9
$UCSNAME
  2

  9
$UCSORG
 10
0.0
 20
0.0
 30
0.0
  9
$UCSXDIR
 10
1.0
 20
0.0
 30
0.0
  9
$UCSYDIR
 10
0.0
 20
1.0
 30
0.0
  9
$PUCSNAME
  2

  9
$PUCSORG
 10
0.0
 20
0.0
 30
0.0
  9
$PUCSXDIR
 10
1.0
 20
0.0
 30
0.0
  9
$PUCSYDIR
 10
0.0
 20
1.0
 30
0.0
  9
$USERI1
 70
     0
  9
$USERI2
 70
     0
  9
$USERI3
 70
     0
  9
$USERI4
 70
     0
  9
$USERI5
 70
     0
  9
$USERR1
 40
0.0
  9
$USERR2
 40
0.0
  9
$USERR3
 40
0.0
  9
$USERR4
 40
0.0
  9
$USERR5
 40
0.0
  9
$WORLDVIEW
 70
     1
  9
$SHADEDGE
 70
     3
  9
$SHADEDIF
 70
    70
  9
$TILEMODE
 70
     1
  9
$MAXACTVP
 70
    64
  9
$PLIMCHECK
 70
     0
  9
$PEXTMIN
 10
1.0000000000000000E+20
 20
1.0000000000000000E+20
 30
1.0000000000000000E+20
  9
$PEXTMAX
 10
-1.0000000000000000E+20
 20
-1.0000000000000000E+20
 30
-1.0000000000000000E+20
  9
$PLIMMIN
 10
0.0
 20
0.0
  9
$PLIMMAX
 10
12.0
 20
9.0
  9
$UNITMODE
 70
     0
  9
$VISRETAIN
 70
     1
  9
$PLINEGEN
 70
     0
  9
$PSLTSCALE
 70
     1
  0
ENDSEC
  0
SECTION
  2
TABLES
  0
TABLE
  2
VPORT
 70
     1
  0
VPORT
  2
*ACTIVE
 70
     0
 10
0.0
 20
0.0
 11
1.0
 21
1.0
 12
1457.973671675164951
 22
168.186304185873098
 13
0.0
 23
0.0
 14
1.0
 24
1.0
 15
0.0
 25
0.0
 16
0.0
 26
0.0
 36
60.4960186965801583
 17
3911.3653564453120453
 27
132.5796051025390057
 37
0.0
 40
8.0681812888048121
 41
1.4307692307692299
 42
50.0
 43
0.0
 44
0.0
 50
0.0
 51
0.0
 71
     0
 72
   100
 73
     1
 74
     1
 75
     0
 76
     0
 77
     0
 78
     0
  0
ENDTAB
  0
TABLE
  2
LTYPE
 70
     2
  0
LTYPE
  2
CONTINUOUS
 70
     0
  3
Solid line
 72
    65
 73
     0
 40
0.0
  0
LTYPE
  2
PHANTOM2
 70
     0
  3
___ _ _ ___ _ _ ___ _ _ ___ _ _
 72
    65
 73
     6
 40
1.25
 49
0.625
 49
-0.125
 49
0.125
 49
-0.125
 49
0.125
 49
-0.125
  0
ENDTAB
  0
TABLE
  2
LAYER
 70
     2
  0
LAYER
  2
0
 70
     0
 62
   255
  6
CONTINUOUS
  0
LAYER
  2
DEFPOINTS
 70
     0
 62
     7
  6
CONTINUOUS
  0
ENDTAB
  0
TABLE
  2
STYLE
 70
     1
  0
STYLE
  2
STANDARD
 70
     0
 40
0.0
 41
0.8
 50
0.0
 71
     0
 42
0.2
  3
txt
  4

  0
ENDTAB
  0
TABLE
  2
VIEW
 70
     0
  0
ENDTAB
  0
TABLE
  2
UCS
 70
     0
  0
ENDTAB
  0
TABLE
  2
APPID
 70
    11
  0
APPID
  2
ACAD
 70
     0
  0
APPID
  2
ACAD_MLEADERVER
 70
     0
  0
APPID
  2
ACAD_EXEMPT_FROM_CAD_STANDARDS
 70
     0
  0
APPID
  2
ACAD_NAV_VCDISPLAY
 70
     0
  0
APPID
  2
ACAECLAYERSTANDARD
 70
     0
  0
APPID
  2
ACCMTRANSPARENCY
 70
     0
  0
APPID
  2
ACAD_DSTYLE_DIMJAG
 70
     0
  0
APPID
  2
ACAD_DSTYLE_DIMTALN
 70
     0
  0
APPID
  2
ACDBATTR
 70
     0
  0
APPID
  2
ACADANNOTATIVE
 70
     0
  0
APPID
  2
DCO15
 70
     0
  0
ENDTAB
  0
TABLE
  2
DIMSTYLE
 70
     1
  0
DIMSTYLE
  2
STANDARD
 70
     0
  3

  4

  5

  6

  7

 40
1.0
 41
0.1875
 42
0.0625
 43
0.38
 44
0.125
 45
0.0
 46
0.0
 47
0.01
 48
0.01
140
0.15625
141
0.09
142
0.0
143
25.3999999999999986
144
1.0
145
0.0
146
1.0
147
0.09
 71
     1
 72
     0
 73
     1
 74
     1
 75
     0
 76
     0
 77
     0
 78
     4
170
     0
171
     2
172
     0
173
     0
174
     0
175
     0
176
     0
177
     0
178
     0
  0
ENDTAB
  0
ENDSEC
  0
SECTION
  2
BLOCKS
  0
BLOCK
  8
0
  2
$MODEL_SPACE
 70
     0
 10
0.0
 20
0.0
 30
0.0
  3
$MODEL_SPACE
  1

  0
ENDBLK
  5
21
  8
0
  0
BLOCK
 67
     1
  8
0
  2
$PAPER_SPACE
 70
     0
 10
0.0
 20
0.0
 30
0.0
  3
$PAPER_SPACE
  1

  0
ENDBLK
  5
1D
 67
     1
  8
0
  0
ENDSEC
  0
SECTION
  2
ENTITIES
  0
ATTDEF
  5
26A5B
  8
DEFPOINTS
 10
5369.2841762648477015
 20
297.0032095869469799
 30
0.0
 40
0.001
  1
P32705-WC
  3

  2
MODELNUMBER
 70
     0
1001
ACDBATTR
1070
     0
1070
     1
  0
ATTDEF
  5
26A5C
  8
DEFPOINTS
 10
5369.2840504551895719
 20
297.0015427465677931
 30
0.0
 40
0.001
  1
002
  3

  2
TRADENAME
 70
     0
1001
ACDBATTR
1070
     0
1070
     1
  0
ATTDEF
  5
26A5D
  8
DEFPOINTS
 10
5369.2841762648477015
 20
296.9998762536135928
 30
0.0
 40
0.001
  1
BATHROOM SINK FAUCET
  3

  2
PRODUCT
 70
     0
1001
ACDBATTR
1070
     0
1070
     1
  0
LINE
  5
2A9B3
  8
0
 10
5365.7868554523638522
 20
298.9620858841997233
 30
0.0
 11
5364.7905778969652602
 21
298.9620858841997233
 31
0.0
  0
LINE
  5
2A9B4
  8
0
 10
5365.7968554524641149
 20
299.3321537945610089
 30
0.0
 11
5365.7968554524641149
 21
298.9720858841997142
 31
0.0
  0
LINE
  5
2A9B5
  8
0
 10
5365.7968554524641149
 20
298.9270858841996983
 30
0.0
 11
5365.7968554524641149
 21
297.1970858841996801
 31
0.0
  0
LINE
  5
2A9B6
  8
0
 10
5365.9655914521636078
 20
299.4987306646996785
 30
0.0
 11
5366.4758454471639197
 21
299.4987306646996785
 31
0.0
  0
LINE
  5
2A9B7
  8
0
 10
5366.8960328914636193
 20
299.9170858841997074
 30
0.0
 11
5363.681400457964628
 21
299.9170858841997074
 31
0.0
  0
LINE
  5
2A9B8
  8
0
 10
5366.8569099175638257
 20
299.9657814967773106
 30
0.0
 11
5366.8569099175638257
 21
299.9427627405996759
 31
0.0
  0
LINE
  5
2A9B9
  8
0
 10
5366.6536260225639126
 20
300.1694869598997002
 30
0.0
 11
5363.9238073268643348
 21
300.1694869598997002
 31
0.0
  0
ARC
  5
2A9BA
  8
0
 10
5365.9665946059440103
 20
299.3289645155202265
 30
0.0
 40
0.169769112987963
 50
90.3385587120294957
 51
178.9235793524534017
  0
ARC
  5
2A9BB
  8
0
 10
5366.4758454455632091
 20
299.9412306664679022
 30
0.0
 40
0.4425000017682184
 50
270.0000002072944199
 51
354.0025217662241062
  0
LINE
  5
2A9BC
  8
0
 10
5366.8555686183772195
 20
299.9377600512996196
 30
0.0
 11
5366.8436238203921675
 21
299.9170858841997074
 31
0.0
  0
ARC
  5
2A9BD
  8
0
 10
5366.4134752988657056
 20
299.7384738079828139
 30
0.0
 40
0.5000000081275383
 50
27.9483636986251192
 51
57.3658453122360825
  0
ARC
  5
2A9BE
  8
0
 10
5366.8419099175644078
 20
299.9657814967773106
 30
0.0
 40
0.015
 50
359.9999999999445777
 51
27.9483636986610513
  0
ARC
  5
2A9BF
  8
0
 10
5366.8469099175654264
 20
299.9427627405996759
 30
0.0
 40
0.01
 50
329.9822067427365937
 51
359.9999999999902229
  0
ARC
  5
2A9C0
  8
0
 10
5366.6479790008406781
 20
300.1040754495638794
 30
0.0
 40
0.0656548135231346
 50
57.6484241639390405
 51
85.0658488231253642
  0
ARC
  5
2A9C1
  8
0
 10
5366.8960328914636193
 20
299.8970858841997256
 30
0.0
 40
0.02
 50
354.0025217563364208
 51
90.0000000000521254
  0
LINE
  5
2A9C2
  8
0
 10
5366.8551604725598736
 20
299.9728116313644932
 30
0.0
 11
5363.7222728768683737
 21
299.9728116313644932
 31
0.0
  0
LINE
  5
2A9C3
  8
0
 10
5366.8555686183772195
 20
299.9377600512996196
 30
0.0
 11
5363.7218647310510278
 21
299.9377600512996196
 31
0.0
  0
ARC
  5
2A9C4
  8
0
 10
5365.2765359089053163
 20
299.9473665280788737
 30
0.0
 40
0.4503331643126183
 50
271.5499449185747949
 51
353.3211488817694885
  0
ARC
  5
2A9C5
  8
0
 10
5365.7039109952547733
 20
299.8970750978456863
 30
0.0
 40
0.0200107905019936
 50
354.0216482109817093
 51
89.9631083798850426
  0
LINE
  5
2A9C6
  8
0
 10
5364.7805778969641324
 20
299.3321537945610089
 30
0.0
 11
5364.7805778969641324
 21
298.9720858841997142
 31
0.0
  0
ARC
  5
2A9C7
  8
0
 10
5364.7905778969652602
 20
298.9720858841997142
 30
0.0
 40
0.01
 50
180.0
 51
270.0
  0
LINE
  5
2A9C8
  8
0
 10
5364.7805778969641324
 20
298.9270858841996983
 30
0.0
 11
5364.7805778969641324
 21
297.1970858841996801
 31
0.0
  0
LINE
  5
2A9C9
  8
0
 10
5364.6118418972637301
 20
299.4987306646996785
 30
0.0
 11
5364.1015879022652371
 21
299.4987306646996785
 31
0.0
  0
LINE
  5
2A9CA
  8
0
 10
5363.7205234318644216
 20
299.9657814967773106
 30
0.0
 11
5363.7205234318644216
 21
299.9427627405996759
 31
0.0
  0
LINE
  5
2A9CB
  8
0
 10
5364.8327666746636169
 20
298.9620858841997233
 30
0.0
 11
5364.8327666746636169
 21
298.9470858841996801
 31
0.0
  0
ARC
  5
2A9CC
  8
0
 10
5364.6108387434851466
 20
299.3289645155202265
 30
0.0
 40
0.169769112987963
 50
1.0764206475433651
 51
89.6614412879705043
  0
ARC
  5
2A9CD
  8
0
 10
5364.1015879038650382
 20
299.9412306664679022
 30
0.0
 40
0.4425000017682184
 50
185.9974782337760075
 51
269.9999997927055801
  0
LINE
  5
2A9CE
  8
0
 10
5363.7218647310510278
 20
299.9377600512996196
 30
0.0
 11
5363.7338095290360798
 21
299.9170858841997074
 31
0.0
  0
ARC
  5
2A9CF
  8
0
 10
5364.1639580505616323
 20
299.7384738079828139
 30
0.0
 40
0.5000000081275383
 50
122.6341546877638962
 51
152.0516363013749128
  0
ARC
  5
2A9D0
  8
0
 10
5363.7355234318638395
 20
299.9657814967773106
 30
0.0
 40
0.015
 50
152.0516363013389025
 51
180.0000000000553086
  0
ARC
  5
2A9D1
  8
0
 10
5363.7305234318646399
 20
299.9427627405996759
 30
0.0
 40
0.01
 50
180.0000000000098055
 51
210.0177932572634063
  0
ARC
  5
2A9D2
  8
0
 10
5363.9294543485866598
 20
300.1040754495638794
 30
0.0
 40
0.0656548135231346
 50
94.93415117687465
 51
122.3515758360609027
  0
ARC
  5
2A9D3
  8
0
 10
5363.681400457964628
 20
299.8970858841997256
 30
0.0
 40
0.02
 50
89.9999999999478888
 51
185.9974782436634939
  0
ARC
  5
2A9D4
  8
0
 10
5365.3008974405238405
 20
299.9473665280788737
 30
0.0
 40
0.4503331643126183
 50
186.6788511182305115
 51
268.4500550814253188
  0
ARC
  5
2A9D5
  8
0
 10
5364.8735223541725645
 20
299.8970750978456863
 30
0.0
 40
0.0200107905019936
 50
90.0368916201149432
 51
185.9783517890182054
  0
LINE
  5
2A9D7
  8
0
 10
5364.3437166746643925
 20
297.1870858841996892
 30
0.0
 11
5366.2337166746629009
 21
297.1870858841996892
 31
0.0
  0
LINE
  5
2A9D8
  8
0
 10
5364.3197166746640505
 20
296.999085884199701
 30
0.0
 11
5366.2577166746641524
 21
296.999085884199701
 31
0.0
  0
LINE
  5
2A9D9
  8
0
 10
5364.3047166746646326
 20
297.1480858841997019
 30
0.0
 11
5364.3047166746646326
 21
297.0140858841996874
 31
0.0
  0
ARC
  5
2A9DA
  8
0
 10
5364.3437166746643925
 20
297.1480858841997019
 30
0.0
 40
0.039
 50
90.0
 51
180.0
  0
ARC
  5
2A9DB
  8
0
 10
5364.3197166746640505
 20
297.0140858841996874
 30
0.0
 40
0.015
 50
180.0
 51
270.0
  0
ARC
  5
2A9DC
  8
0
 10
5364.7905778969652602
 20
297.1970858841996801
 30
0.0
 40
0.01
 50
180.0
 51
270.0
  0
LINE
  5
2A9DD
  8
0
 10
5364.7905778969652602
 20
298.9370858841996892
 30
0.0
 11
5365.7868554523638522
 21
298.9370858841996892
 31
0.0
  0
ARC
  5
2A9DE
  8
0
 10
5364.7905778969652602
 20
298.9270858841996983
 30
0.0
 40
0.01
 50
90.0
 51
179.9999999999934914
  0
ARC
  5
2A9DF
  8
0
 10
5364.8227666746643081
 20
298.9470858841996801
 30
0.0
 40
0.01
 50
270.0
 51
359.9999999999968168
  0
ARC
  5
2A9E0
  8
0
 10
5365.7868554523638522
 20
298.9720858841997142
 30
0.0
 40
0.01
 50
270.0
 51
0.0
  0
LINE
  5
2A9E1
  8
0
 10
5365.744666674664586
 20
298.9620858841997233
 30
0.0
 11
5365.744666674664586
 21
298.9470858841996801
 31
0.0
  0
LINE
  5
2A9E2
  8
0
 10
5366.2727166746635703
 20
297.1480858841997019
 30
0.0
 11
5366.2727166746635703
 21
297.0140858841996874
 31
0.0
  0
ARC
  5
2A9E3
  8
0
 10
5366.2337166746629009
 20
297.1480858841997019
 30
0.0
 40
0.039
 50
0.0
 51
90.0
  0
ARC
  5
2A9E4
  8
0
 10
5366.2577166746641524
 20
297.0140858841996874
 30
0.0
 40
0.015
 50
270.0
 51
0.0
  0
ARC
  5
2A9E5
  8
0
 10
5365.7868554523638522
 20
297.1970858841996801
 30
0.0
 40
0.01
 50
270.0
 51
0.0
  0
ARC
  5
2A9E6
  8
0
 10
5365.7868554523638522
 20
298.9270858841996983
 30
0.0
 40
0.01
 50
0.0000000000065138
 51
90.0
  0
ARC
  5
2A9E7
  8
0
 10
5365.7546666746638948
 20
298.9470858841996801
 30
0.0
 40
0.01
 50
180.0000000000032117
 51
270.0
  0
LINE
  5
2A9E8
  8
0
 10
5368.6887166746646471
 20
304.4383576032668088
 30
0.0
 11
5368.6887166746646471
 21
297.1970858841996801
 31
0.0
  0
LINE
  5
2A9E9
  8
0
 10
5368.3437065996140518
 20
297.1870858841996892
 30
0.0
 11
5370.2337065996152887
 21
297.1870858841996892
 31
0.0
  0
LINE
  5
2A9EA
  8
0
 10
5368.3197065996137098
 20
296.999085884199701
 30
0.0
 11
5370.2577065996129022
 21
296.999085884199701
 31
0.0
  0
LINE
  5
2A9EB
  8
0
 10
5368.3047065996142919
 20
297.1480858841997019
 30
0.0
 11
5368.3047065996142919
 21
297.0140858841996874
 31
0.0
  0
ARC
  5
2A9EC
  8
0
 10
5368.3437065996140518
 20
297.1480858841997019
 30
0.0
 40
0.039
 50
90.0
 51
180.0
  0
ARC
  5
2A9ED
  8
0
 10
5368.3197065996137098
 20
297.0140858841996874
 30
0.0
 40
0.015
 50
180.0
 51
270.0
  0
ARC
  5
2A9EE
  8
0
 10
5368.6987166746639559
 20
297.1970858841996801
 30
0.0
 40
0.01
 50
180.0
 51
270.0
  0
LINE
  5
2A9EF
  8
0
 10
5370.2727065996141391
 20
297.1480858841997019
 30
0.0
 11
5370.2727065996141391
 21
297.0140858841996874
 31
0.0
  0
ARC
  5
2A9F0
  8
0
 10
5370.2337065996152887
 20
297.1480858841997019
 30
0.0
 40
0.039
 50
0.0
 51
90.0
  0
ARC
  5
2A9F1
  8
0
 10
5370.2577065996129022
 20
297.0140858841996874
 30
0.0
 40
0.015
 50
270.0
 51
0.0
  0
LINE
  5
2A9F2
  8
0
 10
5369.8887166718150183
 20
304.4383576032668088
 30
0.0
 11
5369.8887166746635558
 21
297.1970858841996801
 31
0.0
  0
ARC
  5
2A9F3
  8
0
 10
5369.878716674664247
 20
297.1970858841996801
 30
0.0
 40
0.01
 50
270.0
 51
0.0
  0
ARC
  5
2A9F4
  8
0
 10
5369.2886856979512231
 20
302.1069260054429719
 30
0.0
 40
2.4369698789640291
 50
76.469625958084066
 51
103.5288515090817043
  0
ARC
  5
2A9F5
  8
0
 10
5369.8497166746637959
 20
304.4383426956953258
 30
0.0
 40
0.0390000000000029
 50
0.021901050142826
 51
76.469625958084066
  0
ARC
  5
2A9F6
  8
0
 10
5368.7277166746653165
 20
304.4383576032668088
 30
0.0
 40
0.039
 50
103.5288515090817043
 51
180.0
  0
LINE
  5
2A9F7
  8
0
 10
5368.6887166746646471
 20
304.4383576032668088
 30
0.0
 11
5369.8887166718150183
 21
304.4383576032668088
 31
0.0
  0
ARC
  5
2A9F8
  8
0
 10
5369.2887166732389232
 20
304.4370872277011131
 30
0.0
 40
0.6000013434523047
 50
179.8786882504603
 51
0.1213117495396252
  0
ARC
  5
2A9F9
  8
0
 10
5369.2887691352307229
 20
304.4777560981863758
 30
0.0
 40
0.6400773314568833
 50
260.4451526228992861
 51
279.4070267477054017
  0
LINE
  5
2A9FA
  8
0
 10
5372.7905577468636693
 20
298.9620858841997233
 30
0.0
 11
5373.7868353022640804
 21
298.9620858841997233
 31
0.0
  0
LINE
  5
2A9FB
  8
0
 10
5372.7805577467643161
 20
299.3321537945610089
 30
0.0
 11
5372.7805577467643161
 21
298.9720858841997142
 31
0.0
  0
LINE
  5
2A9FC
  8
0
 10
5372.7805577467643161
 20
298.9270858841996983
 30
0.0
 11
5372.7805577467643161
 21
297.1970858841996801
 31
0.0
  0
LINE
  5
2A9FD
  8
0
 10
5372.6118217470639138
 20
299.4987306646996785
 30
0.0
 11
5372.1015677520636018
 21
299.4987306646996785
 31
0.0
  0
LINE
  5
2A9FE
  8
0
 10
5371.6813803077639022
 20
299.9170858841997074
 30
0.0
 11
5374.8960127412628935
 21
299.9170858841997074
 31
0.0
  0
LINE
  5
2A9FF
  8
0
 10
5371.7205032816646053
 20
299.9657814967773106
 30
0.0
 11
5371.7205032816646053
 21
299.9427627405996759
 31
0.0
  0
LINE
  5
2AA00
  8
0
 10
5371.923787176663609
 20
300.1694869598997002
 30
0.0
 11
5374.6536058723640963
 21
300.1694869598997002
 31
0.0
  0
ARC
  5
2AA01
  8
0
 10
5372.6108185932844208
 20
299.3289645155202265
 30
0.0
 40
0.169769112987963
 50
1.0764206475433651
 51
89.6614412879705043
  0
ARC
  5
2AA02
  8
0
 10
5372.1015677536661315
 20
299.9412306664679022
 30
0.0
 40
0.4425000017682184
 50
185.9974782337760075
 51
269.9999997927055801
  0
LINE
  5
2AA03
  8
0
 10
5371.7218445808512115
 20
299.9377600512996196
 30
0.0
 11
5371.7337893788362635
 21
299.9170858841997074
 31
0.0
  0
ARC
  5
2AA04
  8
0
 10
5372.163937900361816
 20
299.7384738079828139
 30
0.0
 40
0.5000000081275383
 50
122.6341546877638962
 51
152.0516363013749128
  0
ARC
  5
2AA05
  8
0
 10
5371.7355032816640232
 20
299.9657814967773106
 30
0.0
 40
0.015
 50
152.0516363013389025
 51
180.0000000000553086
  0
ARC
  5
2AA06
  8
0
 10
5371.7305032816639141
 20
299.9427627405996759
 30
0.0
 40
0.01
 50
180.0000000000098055
 51
210.0177932572634063
  0
ARC
  5
2AA07
  8
0
 10
5371.929434198387753
 20
300.1040754495638794
 30
0.0
 40
0.0656548135231346
 50
94.93415117687465
 51
122.3515758360609027
  0
ARC
  5
2AA08
  8
0
 10
5371.6813803077639022
 20
299.8970858841997256
 30
0.0
 40
0.02
 50
89.9999999999478888
 51
185.9974782436634939
  0
LINE
  5
2AA09
  8
0
 10
5371.7222527266685574
 20
299.9728116313644932
 30
0.0
 11
5374.8551403223600573
 21
299.9728116313644932
 31
0.0
  0
LINE
  5
2AA0A
  8
0
 10
5371.7218445808512115
 20
299.9377600512996196
 30
0.0
 11
5374.8555484681774033
 21
299.9377600512996196
 31
0.0
  0
ARC
  5
2AA0B
  8
0
 10
5373.3008772903231147
 20
299.9473665280788737
 30
0.0
 40
0.4503331643126183
 50
186.6788511182305115
 51
268.4500550814253188
  0
ARC
  5
2AA0C
  8
0
 10
5372.8735022039727482
 20
299.8970750978456863
 30
0.0
 40
0.0200107905019936
 50
90.0368916201149432
 51
185.9783517890182054
  0
LINE
  5
2AA0D
  8
0
 10
5373.7968353022652082
 20
299.3321537945610089
 30
0.0
 11
5373.7968353022652082
 21
298.9720858841997142
 31
0.0
  0
ARC
  5
2AA0E
  8
0
 10
5373.7868353022640804
 20
298.9720858841997142
 30
0.0
 40
0.01
 50
270.0
 51
0.0
  0
LINE
  5
2AA0F
  8
0
 10
5373.7968353022652082
 20
298.9270858841996983
 30
0.0
 11
5373.7968353022652082
 21
297.1970858841996801
 31
0.0
  0
LINE
  5
2AA10
  8
0
 10
5373.9655713019637915
 20
299.4987306646996785
 30
0.0
 11
5374.4758252969641035
 21
299.4987306646996785
 31
0.0
  0
LINE
  5
2AA11
  8
0
 10
5374.8568897673640095
 20
299.9657814967773106
 30
0.0
 11
5374.8568897673640095
 21
299.9427627405996759
 31
0.0
  0
LINE
  5
2AA12
  8
0
 10
5373.7446465245629952
 20
298.9620858841997233
 30
0.0
 11
5373.7446465245629952
 21
298.9470858841996801
 31
0.0
  0
ARC
  5
2AA13
  8
0
 10
5373.9665744557432845
 20
299.3289645155202265
 30
0.0
 40
0.169769112987963
 50
90.3385587120294957
 51
178.9235793524534017
  0
ARC
  5
2AA14
  8
0
 10
5374.4758252953633928
 20
299.9412306664679022
 30
0.0
 40
0.4425000017682184
 50
270.0000002072944199
 51
354.0025217662241062
  0
LINE
  5
2AA15
  8
0
 10
5374.8555484681774033
 20
299.9377600512996196
 30
0.0
 11
5374.8436036701932608
 21
299.9170858841997074
 31
0.0
  0
ARC
  5
2AA16
  8
0
 10
5374.4134551486658893
 20
299.7384738079828139
 30
0.0
 40
0.5000000081275383
 50
27.9483636986251192
 51
57.3658453122360825
  0
ARC
  5
2AA17
  8
0
 10
5374.841889767363682
 20
299.9657814967773106
 30
0.0
 40
0.015
 50
359.9999999999445777
 51
27.9483636986610513
  0
ARC
  5
2AA18
  8
0
 10
5374.8468897673637912
 20
299.9427627405996759
 30
0.0
 40
0.01
 50
329.9822067427365937
 51
359.9999999999902229
  0
ARC
  5
2AA19
  8
0
 10
5374.6479588506408618
 20
300.1040754495638794
 30
0.0
 40
0.0656548135231346
 50
57.6484241639390405
 51
85.0658488231253642
  0
ARC
  5
2AA1A
  8
0
 10
5374.8960127412628935
 20
299.8970858841997256
 30
0.0
 40
0.02
 50
354.0025217563364208
 51
90.0000000000521254
  0
ARC
  5
2AA1B
  8
0
 10
5373.2765157587036811
 20
299.9473665280788737
 30
0.0
 40
0.4503331643126183
 50
271.5499449185747949
 51
353.3211488817694885
  0
ARC
  5
2AA1C
  8
0
 10
5373.703890845054957
 20
299.8970750978456863
 30
0.0
 40
0.0200107905019936
 50
354.0216482109817093
 51
89.9631083798850426
  0
LINE
  5
2AA1D
  8
0
 10
5374.2336965245640386
 20
297.1870858841996892
 30
0.0
 11
5372.3436965245646206
 21
297.1870858841996892
 31
0.0
  0
LINE
  5
2AA1E
  8
0
 10
5374.25769652456529
 20
296.999085884199701
 30
0.0
 11
5372.3196965245642787
 21
296.999085884199701
 31
0.0
  0
LINE
  5
2AA1F
  8
0
 10
5374.272696524562889
 20
297.1480858841997019
 30
0.0
 11
5374.272696524562889
 21
297.0140858841996874
 31
0.0
  0
ARC
  5
2AA20
  8
0
 10
5374.2336965245640386
 20
297.1480858841997019
 30
0.0
 40
0.039
 50
0.0
 51
90.0
  0
ARC
  5
2AA21
  8
0
 10
5374.25769652456529
 20
297.0140858841996874
 30
0.0
 40
0.015
 50
270.0
 51
0.0
  0
ARC
  5
2AA22
  8
0
 10
5373.7868353022640804
 20
297.1970858841996801
 30
0.0
 40
0.01
 50
270.0
 51
0.0
  0
LINE
  5
2AA23
  8
0
 10
5373.7868353022640804
 20
298.9370858841996892
 30
0.0
 11
5372.7905577468636693
 21
298.9370858841996892
 31
0.0
  0
ARC
  5
2AA24
  8
0
 10
5373.7868353022640804
 20
298.9270858841996983
 30
0.0
 40
0.01
 50
0.0000000000065138
 51
90.0
  0
ARC
  5
2AA25
  8
0
 10
5373.754646524564123
 20
298.9470858841996801
 30
0.0
 40
0.01
 50
180.0000000000032117
 51
270.0
  0
ARC
  5
2AA26
  8
0
 10
5372.7905577468636693
 20
298.9720858841997142
 30
0.0
 40
0.01
 50
180.0
 51
270.0
  0
LINE
  5
2AA27
  8
0
 10
5372.832746524563845
 20
298.9620858841997233
 30
0.0
 11
5372.832746524563845
 21
298.9470858841996801
 31
0.0
  0
LINE
  5
2AA28
  8
0
 10
5372.3046965245639512
 20
297.1480858841997019
 30
0.0
 11
5372.3046965245639512
 21
297.0140858841996874
 31
0.0
  0
ARC
  5
2AA29
  8
0
 10
5372.3436965245646206
 20
297.1480858841997019
 30
0.0
 40
0.039
 50
90.0
 51
180.0
  0
ARC
  5
2AA2A
  8
0
 10
5372.3196965245642787
 20
297.0140858841996874
 30
0.0
 40
0.015
 50
180.0
 51
270.0
  0
ARC
  5
2AA2B
  8
0
 10
5372.7905577468636693
 20
297.1970858841996801
 30
0.0
 40
0.01
 50
180.0
 51
270.0
  0
ARC
  5
2AA2C
  8
0
 10
5372.7905577468636693
 20
298.9270858841996983
 30
0.0
 40
0.01
 50
90.0
 51
179.9999999999934914
  0
ARC
  5
2AA2D
  8
0
 10
5372.8227465245654457
 20
298.9470858841996801
 30
0.0
 40
0.01
 50
270.0
 51
359.9999999999968168
  0
ENDSEC
  0
EOF
