  0
SECTION
  2
HEADER
  9
$ACADVER
  1
AC1009
  9
$INSBASE
 10
5376.1322070674850693
 20
295.2661324698706267
 30
0.0
  9
$EXTMIN
 10
5370.306178577641731
 20
288.6635395785544915
 30
-0.0000000000112498
  9
$EXTMAX
 10
5382.1660278627596199
 20
296.9042124684931991
 30
0.0000000000002956
  9
$LIMMIN
 10
0.0
 20
0.0
  9
$LIMMAX
 10
11.6929133858000007
 20
8.2677165353999982
  9
$ORTHOMODE
 70
     0
  9
$REGENMODE
 70
     1
  9
$FILLMODE
 70
     1
  9
$QTEXTMODE
 70
     0
  9
$MIRRTEXT
 70
     0
  9
$DRAGMODE
 70
     2
  9
$LTSCALE
 40
0.6431102362
  9
$OSMODE
 70
  4095
  9
$ATTMODE
 70
     1
  9
$TEXTSIZE
 40
0.2
  9
$TRACEWID
 40
0.05
  9
$TEXTSTYLE
  7
STANDARD
  9
$CLAYER
  8
0
  9
$CELTYPE
  6
BYLAYER
  9
$CECOLOR
 62
   256
  9
$DIMSCALE
 40
1.0
  9
$DIMASZ
 40
0.1875
  9
$DIMEXO
 40
0.0625
  9
$DIMDLI
 40
0.4443307087
  9
$DIMRND
 40
0.0
  9
$DIMDLE
 40
0.0
  9
$DIMEXE
 40
0.125
  9
$DIMTP
 40
0.01
  9
$DIMTM
 40
0.01
  9
$DIMTXT
 40
2.0
  9
$DIMCEN
 40
0.1052362205
  9
$DIMTSZ
 40
0.0
  9
$DIMTOL
 70
     1
  9
$DIMLIM
 70
     0
  9
$DIMTIH
 70
     1
  9
$DIMTOH
 70
     1
  9
$DIMSE1
 70
     0
  9
$DIMSE2
 70
     0
  9
$DIMTAD
 70
     0
  9
$DIMZIN
 70
     0
  9
$DIMBLK
  1

  9
$DIMASO
 70
     1
  9
$DIMSHO
 70
     1
  9
$DIMPOST
  1
\X
  9
$DIMAPOST
  1

  9
$DIMALT
 70
     1
  9
$DIMALTD
 70
     2
  9
$DIMALTF
 40
25.3999999999999986
  9
$DIMLFAC
 40
1.0
  9
$DIMTOFL
 70
     0
  9
$DIMTVP
 40
0.0
  9
$DIMTIX
 70
     0
  9
$DIMSOXD
 70
     0
  9
$DIMSAH
 70
     0
  9
$DIMBLK1
  1

  9
$DIMBLK2
  1

  9
$DIMSTYLE
  2
STANDARD
  9
$DIMCLRD
 70
     0
  9
$DIMCLRE
 70
     0
  9
$DIMCLRT
 70
     0
  9
$DIMTFAC
 40
1.0
  9
$DIMGAP
 40
0.09
  9
$LUNITS
 70
     2
  9
$LUPREC
 70
     4
  9
$SKETCHINC
 40
0.1
  9
$FILLETRAD
 40
0.0
  9
$AUNITS
 70
     0
  9
$AUPREC
 70
     0
  9
$MENU
  1
.
  9
$ELEVATION
 40
0.0
  9
$PELEVATION
 40
0.0
  9
$THICKNESS
 40
0.0
  9
$LIMCHECK
 70
     0
  9
$BLIPMODE
 70
     0
  9
$CHAMFERA
 40
0.0
  9
$CHAMFERB
 40
0.0
  9
$SKPOLY
 70
     0
  9
$TDCREATE
 40
2458060.468368056230247
  9
$TDUPDATE
 40
2460199.7447569449432194
  9
$TDINDWG
 40
0.679509375
  9
$TDUSRTIMER
 40
0.679509375
  9
$USRTIMER
 70
     1
  9
$ANGBASE
 50
0.0
  9
$ANGDIR
 70
     0
  9
$PDMODE
 70
     0
  9
$PDSIZE
 40
0.3125
  9
$PLINEWID
 40
0.0
  9
$COORDS
 70
     1
  9
$SPLFRAME
 70
     0
  9
$SPLINETYPE
 70
     6
  9
$SPLINESEGS
 70
     8
  9
$ATTDIA
 70
     1
  9
$ATTREQ
 70
     1
  9
$HANDLING
 70
     1
  9
$HANDSEED
  5
2AAA9
  9
$SURFTAB1
 70
     6
  9
$SURFTAB2
 70
     6
  9
$SURFTYPE
 70
     6
  9
$SURFU
 70
     6
  9
$SURFV
 70
     6
  9
$UCSNAME
  2

  9
$UCSORG
 10
0.0
 20
0.0
 30
0.0
  9
$UCSXDIR
 10
1.0
 20
0.0
 30
0.0
  9
$UCSYDIR
 10
0.0
 20
1.0
 30
0.0
  9
$PUCSNAME
  2

  9
$PUCSORG
 10
0.0
 20
0.0
 30
0.0
  9
$PUCSXDIR
 10
1.0
 20
0.0
 30
0.0
  9
$PUCSYDIR
 10
0.0
 20
1.0
 30
0.0
  9
$USERI1
 70
     0
  9
$USERI2
 70
     0
  9
$USERI3
 70
     0
  9
$USERI4
 70
     0
  9
$USERI5
 70
     0
  9
$USERR1
 40
0.0
  9
$USERR2
 40
0.0
  9
$USERR3
 40
0.0
  9
$USERR4
 40
0.0
  9
$USERR5
 40
0.0
  9
$WORLDVIEW
 70
     1
  9
$SHADEDGE
 70
     3
  9
$SHADEDIF
 70
    70
  9
$TILEMODE
 70
     1
  9
$MAXACTVP
 70
    64
  9
$PLIMCHECK
 70
     0
  9
$PEXTMIN
 10
1.0000000000000000E+20
 20
1.0000000000000000E+20
 30
1.0000000000000000E+20
  9
$PEXTMAX
 10
-1.0000000000000000E+20
 20
-1.0000000000000000E+20
 30
-1.0000000000000000E+20
  9
$PLIMMIN
 10
0.0
 20
0.0
  9
$PLIMMAX
 10
12.0
 20
9.0
  9
$UNITMODE
 70
     0
  9
$VISRETAIN
 70
     1
  9
$PLINEGEN
 70
     0
  9
$PSLTSCALE
 70
     1
  0
ENDSEC
  0
SECTION
  2
TABLES
  0
TABLE
  2
VPORT
 70
     1
  0
VPORT
  2
*ACTIVE
 70
     0
 10
0.0
 20
0.0
 11
1.0
 21
1.0
 12
1464.8707467748890849
 22
160.2042709209848113
 13
0.0
 23
0.0
 14
1.0
 24
1.0
 15
0.0
 25
0.0
 16
0.0
 26
0.0
 36
60.4960186965801583
 17
3911.3653564453120453
 27
132.5796051025390057
 37
0.0
 40
8.3336501910793803
 41
1.4307692307692299
 42
50.0
 43
0.0
 44
0.0
 50
0.0
 51
0.0
 71
     0
 72
   100
 73
     1
 74
     1
 75
     0
 76
     0
 77
     0
 78
     0
  0
ENDTAB
  0
TABLE
  2
LTYPE
 70
     2
  0
LTYPE
  2
CONTINUOUS
 70
     0
  3
Solid line
 72
    65
 73
     0
 40
0.0
  0
LTYPE
  2
PHANTOM2
 70
     0
  3
___ _ _ ___ _ _ ___ _ _ ___ _ _
 72
    65
 73
     6
 40
1.25
 49
0.625
 49
-0.125
 49
0.125
 49
-0.125
 49
0.125
 49
-0.125
  0
ENDTAB
  0
TABLE
  2
LAYER
 70
     2
  0
LAYER
  2
0
 70
     0
 62
   255
  6
CONTINUOUS
  0
LAYER
  2
DEFPOINTS
 70
     0
 62
     7
  6
CONTINUOUS
  0
ENDTAB
  0
TABLE
  2
STYLE
 70
     1
  0
STYLE
  2
STANDARD
 70
     0
 40
0.0
 41
0.8
 50
0.0
 71
     0
 42
0.2
  3
txt
  4

  0
ENDTAB
  0
TABLE
  2
VIEW
 70
     0
  0
ENDTAB
  0
TABLE
  2
UCS
 70
     0
  0
ENDTAB
  0
TABLE
  2
APPID
 70
    11
  0
APPID
  2
ACAD
 70
     0
  0
APPID
  2
ACAD_MLEADERVER
 70
     0
  0
APPID
  2
ACAD_EXEMPT_FROM_CAD_STANDARDS
 70
     0
  0
APPID
  2
ACAD_NAV_VCDISPLAY
 70
     0
  0
APPID
  2
ACAECLAYERSTANDARD
 70
     0
  0
APPID
  2
ACCMTRANSPARENCY
 70
     0
  0
APPID
  2
ACAD_DSTYLE_DIMJAG
 70
     0
  0
APPID
  2
ACAD_DSTYLE_DIMTALN
 70
     0
  0
APPID
  2
ACDBATTR
 70
     0
  0
APPID
  2
ACADANNOTATIVE
 70
     0
  0
APPID
  2
DCO15
 70
     0
  0
ENDTAB
  0
TABLE
  2
DIMSTYLE
 70
     1
  0
DIMSTYLE
  2
STANDARD
 70
     0
  3

  4

  5

  6

  7

 40
1.0
 41
0.1875
 42
0.0625
 43
0.38
 44
0.125
 45
0.0
 46
0.0
 47
0.01
 48
0.01
140
0.15625
141
0.09
142
0.0
143
25.3999999999999986
144
1.0
145
0.0
146
1.0
147
0.09
 71
     1
 72
     0
 73
     1
 74
     1
 75
     0
 76
     0
 77
     0
 78
     4
170
     0
171
     2
172
     0
173
     0
174
     0
175
     0
176
     0
177
     0
178
     0
  0
ENDTAB
  0
ENDSEC
  0
SECTION
  2
BLOCKS
  0
BLOCK
  8
0
  2
$MODEL_SPACE
 70
     0
 10
0.0
 20
0.0
 30
0.0
  3
$MODEL_SPACE
  1

  0
ENDBLK
  5
21
  8
0
  0
BLOCK
 67
     1
  8
0
  2
$PAPER_SPACE
 70
     0
 10
0.0
 20
0.0
 30
0.0
  3
$PAPER_SPACE
  1

  0
ENDBLK
  5
1D
 67
     1
  8
0
  0
ENDSEC
  0
SECTION
  2
ENTITIES
  0
ATTDEF
  5
26A5B
  8
DEFPOINTS
 10
5376.1270145166181464
 20
295.2644111342477231
 30
0.0
 40
0.001
  1
P32705-JST
  3

  2
MODELNUMBER
 70
     0
1001
ACDBATTR
1070
     0
1070
     1
  0
ATTDEF
  5
26A5C
  8
DEFPOINTS
 10
5376.1268887069609264
 20
295.2627442938685931
 30
0.0
 40
0.001
  1
002
  3

  2
TRADENAME
 70
     0
1001
ACDBATTR
1070
     0
1070
     1
  0
ATTDEF
  5
26A5D
  8
DEFPOINTS
 10
5376.1270145166181464
 20
295.2610778009143928
 30
0.0
 40
0.001
  1
BATHROOM SINK FAUCET
  3

  2
PRODUCT
 70
     0
1001
ACDBATTR
1070
     0
1070
     1
  0
ARC
  5
2A997
  8
0
 10
5372.1345177398297892
 20
296.450969966225216
 30
0.0
 40
0.3833545072015324
 50
0.3448773009335453
 51
179.6551149631661133
  0
ARC
  5
2A998
  8
0
 10
5370.9468085077623982
 20
295.2644149423786075
 30
0.0
 40
0.3827884557105049
 50
90.3852582352028548
 51
179.7431051062498
  0
ARC
  5
2A999
  8
0
 10
5370.9491267406510815
 20
295.2701605637900002
 30
0.0
 40
0.3851239198564615
 50
180.5994641918977948
 51
269.2721724666512273
  0
LINE
  5
2A99A
  8
0
 10
5371.7511701776356858
 20
296.4532775085269805
 30
0.0
 11
5371.7511701776356858
 21
295.9928728391150798
 31
0.0
  0
LINE
  5
2A99B
  8
0
 10
5371.7511701776356858
 20
294.4828677164446731
 30
0.0
 11
5371.7511701776356858
 21
294.0789849526262856
 31
0.0
  0
LINE
  5
2A99C
  8
0
 10
5370.9442346481346249
 20
295.6471947447087132
 30
0.0
 11
5371.41137759513731
 21
295.6471947447087132
 31
0.0
  0
LINE
  5
2A99D
  8
0
 10
5372.305490223335255
 20
296.4532774567683191
 30
0.0
 11
5372.305490223335255
 21
296.0087603236066229
 31
0.0
  0
LINE
  5
2A99E
  8
0
 10
5372.305490223335255
 20
294.4915038830267235
 30
0.0
 11
5372.305490223335255
 21
294.078984827880106
 31
0.0
  0
ARC
  5
2A99F
  8
0
 10
5372.9059902233357207
 20
294.4915038830267235
 30
0.0
 40
0.6005000000000001
 50
90.0
 51
180.0
  0
LINE
  5
2A9A0
  8
0
 10
5370.9442346481346249
 20
295.4385505893267236
 30
0.0
 11
5371.3853574558488617
 21
295.4385505893267236
 31
0.0
  0
LINE
  5
2A9A1
  8
0
 10
5372.8790768292210487
 20
295.4385505893267236
 30
0.0
 11
5373.3201996369352855
 21
295.4385505893267236
 31
0.0
  0
LINE
  5
2A9A2
  8
0
 10
5370.9442346481346249
 20
295.0920038830266776
 30
0.0
 11
5371.3584445017013422
 21
295.0920038830266776
 31
0.0
  0
LINE
  5
2A9A3
  8
0
 10
5372.9059902233357207
 20
295.0920038830266776
 30
0.0
 11
5373.3202166955361463
 21
295.0920038830266776
 31
0.0
  0
ARC
  5
2A9A4
  8
0
 10
5371.3584445017013422
 20
294.4915038830267235
 30
0.0
 40
0.6005000000000001
 50
0.0000000000032569
 51
90.0
  0
LINE
  5
2A9A5
  8
0
 10
5371.6984854395359434
 20
296.0266374914249923
 30
0.0
 11
5371.6984854395359434
 21
296.4532774567683759
 31
0.0
  0
LINE
  5
2A9A6
  8
0
 10
5371.6984854395359434
 20
294.5086912399859216
 30
0.0
 11
5371.6984854395359434
 21
294.0789850043850038
 31
0.0
  0
LINE
  5
2A9A7
  8
0
 10
5370.9338132709581259
 20
295.7119077215261882
 30
0.0
 11
5371.3852858348527661
 21
295.7119077215261882
 31
0.0
  0
LINE
  5
2A9A8
  8
0
 10
5372.8791484502189633
 20
295.7119077215261882
 30
0.0
 11
5373.3201996369352855
 21
295.7119077215261882
 31
0.0
  0
LINE
  5
2A9A9
  8
0
 10
5370.9338132709581259
 20
294.8315458055266731
 30
0.0
 11
5371.3804854395348229
 21
294.8315458055266731
 31
0.0
  0
ARC
  5
2A9AA
  8
0
 10
5371.3804854395348229
 20
294.5135458055266895
 30
0.0
 40
0.318
 50
0.0
 51
90.0
  0
LINE
  5
2A9AB
  8
0
 10
5372.5788473555339806
 20
294.5135458055266895
 30
0.0
 11
5372.5788473555339806
 21
294.0789850043851175
 31
0.0
  0
ARC
  5
2A9AC
  8
0
 10
5372.1322173625194409
 20
296.4532776332733874
 30
0.0
 40
0.173272860816936
 50
359.9999416354402797
 51
180.000058364556395
  0
ARC
  5
2A9AD
  8
0
 10
5372.1264805504479227
 20
296.440949041042586
 30
0.0
 40
0.4525347679222496
 50
1.561103463996343
 51
89.2736661527604838
  0
ARC
  5
2A9AE
  8
0
 10
5372.1515398971796458
 20
296.4406285343113723
 30
0.0
 40
0.4532309972094521
 50
92.4434514691207454
 51
178.4007625501419056
  0
ARC
  5
2A9AF
  8
0
 10
5370.9691512081981273
 20
295.2479709975892774
 30
0.0
 40
0.4646053365843144
 50
93.0742198571082184
 51
177.7598840186537927
  0
ARC
  5
2A9B0
  8
0
 10
5370.9436220169573062
 20
295.2701758814927189
 30
0.0
 40
0.4387397349682171
 50
180.5282054284427034
 51
268.7189521939246788
  0
LINE
  5
2A9B1
  8
0
 10
5370.9442346481346249
 20
294.8850677164447234
 30
0.0
 11
5371.3489701776352376
 21
294.8850677164447234
 31
0.0
  0
ARC
  5
2A9B2
  8
0
 10
5371.3489701776352376
 20
294.4828677164446731
 30
0.0
 40
0.4022000000000001
 50
0.0
 51
90.0
  0
ARC
  5
2A9B3
  8
0
 10
5370.9452330982639978
 20
295.2652771866086141
 30
0.0
 40
0.1732762793695829
 50
90.330150758153124
 51
269.6642085258098973
  0
LINE
  5
2A9B4
  8
0
 10
5371.9589445017018079
 20
296.4532774567683191
 30
0.0
 11
5371.9589445017018079
 21
296.0087692106267809
 31
0.0
  0
ARC
  5
2A9B5
  8
0
 10
5371.3804870432441021
 20
296.0298865065773271
 30
0.0
 40
0.3180149935828
 50
270.8646162823886243
 51
359.4146247877412748
  0
ARC
  5
2A9B6
  8
0
 10
5371.3592036411728259
 20
296.0384558960697063
 30
0.0
 40
0.6004751444319826
 50
272.496318804496525
 51
357.1662183588468906
  0
LINE
  5
2A9B7
  8
0
 10
5372.5178653023358493
 20
296.4532774567683191
 30
0.0
 11
5372.5178653023358493
 21
296.0493947447087066
 31
0.0
  0
ARC
  5
2A9B8
  8
0
 10
5372.920065302335388
 20
296.0493947447087066
 30
0.0
 40
0.4022000000000001
 50
180.0
 51
270.0
  0
LINE
  5
2A9B9
  8
0
 10
5372.5178653023358493
 20
294.4828677164446731
 30
0.0
 11
5372.5178653023358493
 21
294.0789850043851175
 31
0.0
  0
ARC
  5
2A9BA
  8
0
 10
5372.920065302335388
 20
294.4828677164446731
 30
0.0
 40
0.4022000000000001
 50
90.0
 51
180.0
  0
ARC
  5
2A9BB
  8
0
 10
5371.3523645983632377
 20
296.0450456726009065
 30
0.0
 40
0.4022037973626575
 50
278.4371317234624144
 51
352.5467373689107262
  0
ARC
  5
2A9BC
  8
0
 10
5373.3173146093959076
 20
295.2681579903390912
 30
0.0
 40
0.3831011372162048
 50
270.4314825726096956
 51
359.6968807688451193
  0
ARC
  5
2A9BD
  8
0
 10
5373.319780100619937
 20
295.2665644446220199
 30
0.0
 40
0.3806305312962041
 50
359.9347888838713061
 51
89.9368477746674984
  0
LINE
  5
2A9BE
  8
0
 10
5373.3201996369352855
 20
294.8315458055266731
 30
0.0
 11
5372.8968473555351011
 21
294.8315458055266731
 31
0.0
  0
ARC
  5
2A9BF
  8
0
 10
5372.8968473555351011
 20
294.5135458055266895
 30
0.0
 40
0.318
 50
90.0
 51
180.0
  0
ARC
  5
2A9C0
  8
0
 10
5373.313418281369195
 20
295.2777609168392132
 30
0.0
 40
0.4462666381738131
 50
270.8706857622511848
 51
358.5067057988262036
  0
ARC
  5
2A9C1
  8
0
 10
5373.3004406297013702
 20
295.2530540087576014
 30
0.0
 40
0.4592789436589128
 50
1.631624763645487
 51
87.5342713606116263
  0
LINE
  5
2A9C2
  8
0
 10
5373.3201996369352855
 20
294.8850677164447234
 30
0.0
 11
5372.920065302335388
 21
294.8850677164447234
 31
0.0
  0
ARC
  5
2A9C3
  8
0
 10
5373.3192011868068221
 20
295.2652771866086141
 30
0.0
 40
0.1732762793695829
 50
270.335791474189989
 51
89.6698492418468334
  0
ARC
  5
2A9C4
  8
0
 10
5372.905230643897994
 20
296.0384558960697063
 30
0.0
 40
0.6004751444319826
 50
182.8337816411531094
 51
267.503681195503475
  0
ARC
  5
2A9C5
  8
0
 10
5372.1353826661197672
 20
294.0821504762108134
 30
0.0
 40
0.3842255286243817
 50
180.472048782991692
 51
269.5279512169888108
  0
ARC
  5
2A9C6
  8
0
 10
5372.1318739761827601
 20
294.0839612370173768
 30
0.0
 40
0.3860234018243742
 50
270.05093470024201
 51
359.2613789121210175
  0
LINE
  5
2A9C7
  8
0
 10
5371.7511701776356858
 20
294.0789849526263993
 30
0.0
 11
5371.7511701776356858
 21
294.4828677164446731
 31
0.0
  0
LINE
  5
2A9C8
  8
0
 10
5371.6984854395359434
 20
294.5135458055266895
 30
0.0
 11
5371.6984854395359434
 21
294.0789850043850038
 31
0.0
  0
ARC
  5
2A9C9
  8
0
 10
5372.1322173625194409
 20
294.078984827880106
 30
0.0
 40
0.173272860816936
 50
179.9999416354403081
 51
0.0000583645597325
  0
ARC
  5
2A9CA
  8
0
 10
5372.1513587474164524
 20
294.0914554267221206
 30
0.0
 40
0.4530449695377504
 50
181.5773110255908875
 51
267.5784749551040136
  0
ARC
  5
2A9CB
  8
0
 10
5372.1263247401229819
 20
294.0914715172102092
 30
0.0
 40
0.4526948535841301
 50
270.7457988988099942
 51
358.4194314843799134
  0
LINE
  5
2A9CC
  8
0
 10
5371.9589445017018079
 20
294.0789850043851175
 30
0.0
 11
5371.9589445017018079
 21
294.4915038830267804
 31
0.0
  0
LINE
  5
2A9CD
  8
0
 10
5372.5788473555339806
 20
296.4532774567683191
 30
0.0
 11
5372.5788473555339806
 21
296.0299077215261718
 31
0.0
  0
ARC
  5
2A9CE
  8
0
 10
5372.897776436841923
 20
296.030292559603879
 30
0.0
 40
0.3189293134903125
 50
180.0691363323105065
 51
266.6515690119624082
  0
ARC
  5
2A9CF
  8
0
 10
5372.1322171425354099
 20
295.2661312305767183
 30
0.0
 40
0.9840000000000007
 50
206.2093235458673917
 51
243.846069855271196
  0
ARC
  5
2A9D0
  8
0
 10
5372.1322171425354099
 20
295.2661312305767183
 30
0.0
 40
0.9840000000000007
 50
296.9936978892964135
 51
333.7906764541326083
  0
ARC
  5
2A9D1
  8
0
 10
5372.1322171425354099
 20
295.2661312305767183
 30
0.0
 40
0.9840000000000007
 50
26.9379239627908298
 51
63.0063021107036008
  0
ARC
  5
2A9D2
  8
0
 10
5372.1322171425354099
 20
295.2661312305767183
 30
0.0
 40
0.9840000000000007
 50
116.153930144728804
 51
153.0620760372092093
  0
ARC
  5
2A9D3
  8
0
 10
5372.1322171425354099
 20
295.2661312305767183
 30
0.0
 40
0.9449999999999995
 50
207.3792841693359037
 51
242.6789917328682122
  0
ARC
  5
2A9D4
  8
0
 10
5372.1322171425354099
 20
295.2661312305767183
 30
0.0
 40
0.9449999999999995
 50
298.2047979783056917
 51
332.62071583066421
  0
ARC
  5
2A9D5
  8
0
 10
5372.1322171425354099
 20
295.2661312305767183
 30
0.0
 40
0.9449999999999995
 50
28.1460785125829105
 51
61.7952020216943509
  0
ARC
  5
2A9D6
  8
0
 10
5372.1322171425354099
 20
295.2661312305767183
 30
0.0
 40
0.9449999999999995
 50
117.321008267131802
 51
151.8539214874170966
  0
LINE
  5
2A9D7
  8
0
 10
5375.5322171425341367
 20
295.2661312305767183
 30
0.0
 11
5375.5322171425341367
 21
289.2644829002628057
 31
0.0
  0
ARC
  5
2A9D8
  8
0
 10
5376.1322171425363194
 20
295.2661312305767183
 30
0.0
 40
0.9840100750499995
 50
307.5714180075478907
 51
77.8814459072308836
  0
ARC
  5
2A9D9
  8
0
 10
5376.1322171425363194
 20
295.2661312305767183
 30
0.0
 40
0.9840100750499995
 50
102.1185540927691022
 51
232.4285819924521093
  0
ARC
  5
2A9DA
  8
0
 10
5376.1322171425363194
 20
295.2661312305767183
 30
0.0
 40
0.5999999999999996
 50
0.0
 51
180.0
  0
LINE
  5
2A9DB
  8
0
 10
5375.921974448335277
 20
296.1891312305767201
 30
0.0
 11
5375.921974448335277
 21
295.8280903123038001
 31
0.0
  0
LINE
  5
2A9DC
  8
0
 10
5376.7322171425348643
 20
295.2661312305767183
 30
0.0
 11
5376.7322171425348643
 21
289.2644829002626921
 31
0.0
  0
ARC
  5
2A9DD
  8
0
 10
5376.1322171425363194
 20
296.1891312305767201
 30
0.0
 40
0.2102426941999997
 50
0.0
 51
180.0
  0
LINE
  5
2A9DE
  8
0
 10
5376.3424598367346334
 20
296.1891312305767201
 30
0.0
 11
5376.3424598367346334
 21
295.8280903123038001
 31
0.0
  0
ARC
  5
2A9DF
  8
0
 10
5376.1322171425363194
 20
289.2661325784649193
 30
0.0
 40
0.6000000000015137
 50
180.0001287138354087
 51
359.9998712861612944
  0
ARC
  5
2A9E1
  8
0
 10
5380.1298963951412588
 20
296.450969966225216
 30
0.0
 40
0.3833545072015324
 50
0.3448850368338707
 51
179.65512269906651
  0
ARC
  5
2A9E2
  8
0
 10
5381.3176056272086498
 20
295.2644149423786075
 30
0.0
 40
0.3827884557105049
 50
0.2568948937501621
 51
89.6147417647971736
  0
ARC
  5
2A9E3
  8
0
 10
5381.3152873943199666
 20
295.2701605637900002
 30
0.0
 40
0.3851239198564615
 50
270.7278275333487727
 51
359.40053580810212
  0
LINE
  5
2A9E4
  8
0
 10
5380.5132439573353622
 20
296.4532775085269805
 30
0.0
 11
5380.5132439573353622
 21
295.9928728391150798
 31
0.0
  0
LINE
  5
2A9E5
  8
0
 10
5380.5132439573353622
 20
294.4828677164446731
 30
0.0
 11
5380.5132439573353622
 21
294.0789849526262856
 31
0.0
  0
LINE
  5
2A9E6
  8
0
 10
5381.3201794868346042
 20
295.6471947447087132
 30
0.0
 11
5380.8530365398337381
 21
295.6471947447087132
 31
0.0
  0
LINE
  5
2A9E7
  8
0
 10
5379.3443488326356601
 20
295.6471947447087132
 30
0.0
 11
5378.944214498034853
 21
295.6471947447087132
 31
0.0
  0
LINE
  5
2A9E8
  8
0
 10
5379.958923911635793
 20
296.4532774567683191
 30
0.0
 11
5379.958923911635793
 21
296.0087603236066229
 31
0.0
  0
LINE
  5
2A9E9
  8
0
 10
5379.958923911635793
 20
294.4915038830267235
 30
0.0
 11
5379.958923911635793
 21
294.078984827880106
 31
0.0
  0
ARC
  5
2A9EA
  8
0
 10
5379.3584239116362369
 20
294.4915038830267235
 30
0.0
 40
0.6005000000000001
 50
0.0
 51
90.0
  0
LINE
  5
2A9EB
  8
0
 10
5381.3201794868346042
 20
295.4385505893267236
 30
0.0
 11
5380.8790566791221863
 21
295.4385505893267236
 31
0.0
  0
LINE
  5
2A9EC
  8
0
 10
5379.3853373057499994
 20
295.4385505893267236
 30
0.0
 11
5378.944214498034853
 21
295.4385505893267236
 31
0.0
  0
LINE
  5
2A9ED
  8
0
 10
5381.3201794868346042
 20
295.0920038830266776
 30
0.0
 11
5380.9059696332687963
 21
295.0920038830266776
 31
0.0
  0
LINE
  5
2A9EE
  8
0
 10
5379.3584239116362369
 20
295.0920038830266776
 30
0.0
 11
5378.9441974394349018
 21
295.0920038830266776
 31
0.0
  0
ARC
  5
2A9EF
  8
0
 10
5380.9059696332687963
 20
294.4915038830267235
 30
0.0
 40
0.6005000000000001
 50
90.0
 51
179.9999999999967031
  0
LINE
  5
2A9F0
  8
0
 10
5380.5659286954351046
 20
296.0266374914249923
 30
0.0
 11
5380.5659286954351046
 21
296.4532774567683759
 31
0.0
  0
LINE
  5
2A9F1
  8
0
 10
5380.5659286954351046
 20
294.5086912399859216
 30
0.0
 11
5380.5659286954351046
 21
294.0789850043850038
 31
0.0
  0
LINE
  5
2A9F2
  8
0
 10
5381.3306008640120126
 20
295.7119077215261882
 30
0.0
 11
5380.8791283001191914
 21
295.7119077215261882
 31
0.0
  0
LINE
  5
2A9F3
  8
0
 10
5379.367566779435947
 20
295.7119077215261882
 30
0.0
 11
5378.944214498034853
 21
295.7119077215261882
 31
0.0
  0
LINE
  5
2A9F4
  8
0
 10
5381.3201794868346042
 20
294.8315458055266731
 30
0.0
 11
5380.8839286954353156
 21
294.8315458055266731
 31
0.0
  0
ARC
  5
2A9F5
  8
0
 10
5380.8839286954353156
 20
294.5135458055266895
 30
0.0
 40
0.318
 50
90.0
 51
180.0
  0
LINE
  5
2A9F6
  8
0
 10
5379.685566779436158
 20
294.5135458055266895
 30
0.0
 11
5379.685566779436158
 21
294.0789850043851175
 31
0.0
  0
ARC
  5
2A9F7
  8
0
 10
5380.1321967724534261
 20
296.4532776332733874
 30
0.0
 40
0.173272860816936
 50
359.9999416354435198
 51
180.000058364556395
  0
ARC
  5
2A9F8
  8
0
 10
5380.1379335845222158
 20
296.440949041042586
 30
0.0
 40
0.4525347679222496
 50
90.7263338471874334
 51
178.4388965360037105
  0
ARC
  5
2A9F9
  8
0
 10
5380.1128742377914023
 20
296.4406285343113723
 30
0.0
 40
0.4532309972094521
 50
1.5992374498580251
 51
87.5565485308792688
  0
ARC
  5
2A9FA
  8
0
 10
5381.2939319985853217
 20
295.2473947354632173
 30
0.0
 40
0.4659580666892284
 50
2.3045241118517161
 51
85.4864053269122763
  0
ARC
  5
2A9FB
  8
0
 10
5381.3209795716802546
 20
295.2700966413144101
 30
0.0
 40
0.438551565617841
 50
269.8954706495732125
 51
359.4819209115016747
  0
LINE
  5
2A9FC
  8
0
 10
5381.3201794868346042
 20
294.8850677164447234
 30
0.0
 11
5380.9154439573358104
 21
294.8850677164447234
 31
0.0
  0
ARC
  5
2A9FD
  8
0
 10
5380.9154439573358104
 20
294.4828677164446731
 30
0.0
 40
0.4022000000000001
 50
90.0
 51
180.0
  0
ARC
  5
2A9FE
  8
0
 10
5381.3191810367070502
 20
295.2652771866086141
 30
0.0
 40
0.1732762793695829
 50
270.335791474189989
 51
89.6698492418468334
  0
LINE
  5
2A9FF
  8
0
 10
5380.3054696332692401
 20
296.4532774567683191
 30
0.0
 11
5380.3054696332692401
 21
296.0087692106267809
 31
0.0
  0
ARC
  5
2AA00
  8
0
 10
5380.8839270917260365
 20
296.0298865065773271
 30
0.0
 40
0.3180149935828
 50
180.5853752122586968
 51
269.1353837176113757
  0
ARC
  5
2AA01
  8
0
 10
5380.9052104937982222
 20
296.0384558960697063
 30
0.0
 40
0.6004751444319826
 50
182.8337816411531094
 51
267.503681195503475
  0
LINE
  5
2AA02
  8
0
 10
5379.7465488326351988
 20
296.4532774567683191
 30
0.0
 11
5379.7465488326351988
 21
296.0493947447087066
 31
0.0
  0
ARC
  5
2AA03
  8
0
 10
5379.3443488326356601
 20
296.0493947447087066
 30
0.0
 40
0.4022000000000001
 50
270.0
 51
0.0
  0
LINE
  5
2AA04
  8
0
 10
5379.7465488326351988
 20
294.4828677164446731
 30
0.0
 11
5379.7465488326351988
 21
294.0789850043851175
 31
0.0
  0
ARC
  5
2AA05
  8
0
 10
5379.3443488326356601
 20
294.4828677164446731
 30
0.0
 40
0.4022000000000001
 50
0.0
 51
90.0
  0
ARC
  5
2AA06
  8
0
 10
5380.9120495366078103
 20
296.0450456726009065
 30
0.0
 40
0.4022037973626575
 50
187.4532626310893022
 51
261.5628682765375856
  0
ARC
  5
2AA07
  8
0
 10
5378.9470995255751404
 20
295.2681579903390912
 30
0.0
 40
0.3831011372162048
 50
180.3031192311549091
 51
269.5685174273903044
  0
ARC
  5
2AA08
  8
0
 10
5378.9446340343502015
 20
295.2665644446220199
 30
0.0
 40
0.3806305312962041
 50
90.0631522253324874
 51
180.0652111161286086
  0
LINE
  5
2AA09
  8
0
 10
5378.944214498034853
 20
295.4385505893267236
 30
0.0
 11
5379.3853373057499994
 21
295.4385505893267236
 31
0.0
  0
LINE
  5
2AA0A
  8
0
 10
5378.944214498034853
 20
295.7119077215261882
 30
0.0
 11
5379.367566779435947
 21
295.7119077215261882
 31
0.0
  0
LINE
  5
2AA0B
  8
0
 10
5378.944214498034853
 20
294.8315458055266731
 30
0.0
 11
5379.367566779435947
 21
294.8315458055266731
 31
0.0
  0
ARC
  5
2AA0C
  8
0
 10
5379.367566779435947
 20
294.5135458055266895
 30
0.0
 40
0.318
 50
0.0
 51
90.0
  0
ARC
  5
2AA0D
  8
0
 10
5378.950995853601853
 20
295.2777609168392132
 30
0.0
 40
0.4462666381738131
 50
181.4932942011737964
 51
269.1293142377488152
  0
ARC
  5
2AA0E
  8
0
 10
5378.9639735052705873
 20
295.2530540087576014
 30
0.0
 40
0.4592789436589128
 50
92.4657286393883879
 51
178.3683752363544954
  0
LINE
  5
2AA0F
  8
0
 10
5378.944214498034853
 20
294.8850677164447234
 30
0.0
 11
5379.3443488326356601
 21
294.8850677164447234
 31
0.0
  0
ARC
  5
2AA10
  8
0
 10
5378.945212948164226
 20
295.2652771866086141
 30
0.0
 40
0.1732762793695829
 50
90.330150758153124
 51
269.6642085258098973
  0
ARC
  5
2AA11
  8
0
 10
5379.359183491073054
 20
296.0384558960697063
 30
0.0
 40
0.6004751444319826
 50
272.496318804496525
 51
357.1662183588468906
  0
ARC
  5
2AA12
  8
0
 10
5380.1290314688512808
 20
294.0821504762108134
 30
0.0
 40
0.3842255286243817
 50
270.4720487830111892
 51
359.5279512170081944
  0
ARC
  5
2AA13
  8
0
 10
5380.132540158788288
 20
294.0839612370173768
 30
0.0
 40
0.3860234018243742
 50
180.7386210878790109
 51
269.9490652997578763
  0
LINE
  5
2AA14
  8
0
 10
5380.5132439573353622
 20
294.0789849526263993
 30
0.0
 11
5380.5132439573353622
 21
294.4828677164446731
 31
0.0
  0
LINE
  5
2AA15
  8
0
 10
5380.5659286954351046
 20
294.5135458055266895
 30
0.0
 11
5380.5659286954351046
 21
294.0789850043850038
 31
0.0
  0
ARC
  5
2AA16
  8
0
 10
5380.1321967724534261
 20
294.078984827880106
 30
0.0
 40
0.173272860816936
 50
179.9999416354403081
 51
0.0000583645597325
  0
ARC
  5
2AA17
  8
0
 10
5380.1130553875564146
 20
294.0914554267221206
 30
0.0
 40
0.4530449695377504
 50
272.4215250448959864
 51
358.422688974409084
  0
ARC
  5
2AA18
  8
0
 10
5380.1380893948480661
 20
294.0914715172102092
 30
0.0
 40
0.4526948535841301
 50
181.5805685156200866
 51
269.2542011011901195
  0
LINE
  5
2AA19
  8
0
 10
5380.3054696332692401
 20
294.0789850043851175
 30
0.0
 11
5380.3054696332692401
 21
294.4915038830267804
 31
0.0
  0
LINE
  5
2AA1A
  8
0
 10
5379.685566779436158
 20
296.4532774567683191
 30
0.0
 11
5379.685566779436158
 21
296.0299077215261718
 31
0.0
  0
ARC
  5
2AA1B
  8
0
 10
5379.367566779435947
 20
296.0299077215261718
 30
0.0
 40
0.318
 50
270.0
 51
0.0
  0
ARC
  5
2AA1C
  8
0
 10
5380.1321969924356381
 20
295.2661312305767183
 30
0.0
 40
0.9840000000000007
 50
296.153930144728804
 51
333.7906764541326083
  0
ARC
  5
2AA1D
  8
0
 10
5380.1321969924356381
 20
295.2661312305767183
 30
0.0
 40
0.9840000000000007
 50
206.2093235458673917
 51
243.0063021107035865
  0
ARC
  5
2AA1E
  8
0
 10
5380.1321969924356381
 20
295.2661312305767183
 30
0.0
 40
0.9840000000000007
 50
116.9936978892963992
 51
153.0620760372092093
  0
ARC
  5
2AA1F
  8
0
 10
5380.1321969924356381
 20
295.2661312305767183
 30
0.0
 40
0.9840000000000007
 50
26.9379239627908298
 51
63.8460698552712103
  0
ARC
  5
2AA20
  8
0
 10
5380.1321969924356381
 20
295.2661312305767183
 30
0.0
 40
0.9449999999999995
 50
297.3210082671317878
 51
332.62071583066421
  0
ARC
  5
2AA21
  8
0
 10
5380.1321969924356381
 20
295.2661312305767183
 30
0.0
 40
0.9449999999999995
 50
207.3792841693359037
 51
241.7952020216943936
  0
ARC
  5
2AA22
  8
0
 10
5380.1321969924356381
 20
295.2661312305767183
 30
0.0
 40
0.9449999999999995
 50
118.2047979783056064
 51
151.8539214874170966
  0
ARC
  5
2AA23
  8
0
 10
5380.1321969924356381
 20
295.2661312305767183
 30
0.0
 40
0.9449999999999995
 50
28.1460785125829105
 51
62.6789917328682122
  0
LINE
  5
2AA24
  8
0
 10
5372.920065302335388
 20
295.6471947447087132
 30
0.0
 11
5373.3201996369352855
 21
295.6471947447087132
 31
0.0
  0
ENDSEC
  0
EOF
