  0
SECTION
  2
HEADER
  9
$ACADVER
  1
AC1009
  9
$INSBASE
 10
1041.9687911290079683
 20
140.5416357498594095
 30
0.0
  9
$EXTMIN
 10
1035.3687964112750706
 20
140.5343584806101092
 30
0.0
  9
$EXTMAX
 10
1043.5961118747070486
 20
145.0864457498618947
 30
0.0
  9
$LIMMIN
 10
0.0
 20
0.0
  9
$LIMMAX
 10
11.6929133858000007
 20
8.2677165353999982
  9
$ORTHOMODE
 70
     1
  9
$REGENMODE
 70
     1
  9
$FILLMODE
 70
     1
  9
$QTEXTMODE
 70
     0
  9
$MIRRTEXT
 70
     0
  9
$DRAGMODE
 70
     2
  9
$LTSCALE
 40
0.6431102362
  9
$OSMODE
 70
  3999
  9
$ATTMODE
 70
     1
  9
$TEXTSIZE
 40
0.2
  9
$TRACEWID
 40
0.05
  9
$TEXTSTYLE
  7
STANDARD
  9
$CLAYER
  8
0
  9
$CELTYPE
  6
BYLAYER
  9
$CECOLOR
 62
   256
  9
$DIMSCALE
 40
1.0
  9
$DIMASZ
 40
0.1875
  9
$DIMEXO
 40
0.0625
  9
$DIMDLI
 40
0.4443307087
  9
$DIMRND
 40
0.0
  9
$DIMDLE
 40
0.0
  9
$DIMEXE
 40
0.125
  9
$DIMTP
 40
0.01
  9
$DIMTM
 40
0.01
  9
$DIMTXT
 40
1.0
  9
$DIMCEN
 40
0.1052362205
  9
$DIMTSZ
 40
0.0
  9
$DIMTOL
 70
     1
  9
$DIMLIM
 70
     0
  9
$DIMTIH
 70
     0
  9
$DIMTOH
 70
     1
  9
$DIMSE1
 70
     0
  9
$DIMSE2
 70
     0
  9
$DIMTAD
 70
     0
  9
$DIMZIN
 70
     0
  9
$DIMBLK
  1

  9
$DIMASO
 70
     1
  9
$DIMSHO
 70
     1
  9
$DIMPOST
  1
\X
  9
$DIMAPOST
  1

  9
$DIMALT
 70
     1
  9
$DIMALTD
 70
     2
  9
$DIMALTF
 40
25.3999999999999986
  9
$DIMLFAC
 40
1.0
  9
$DIMTOFL
 70
     0
  9
$DIMTVP
 40
0.0
  9
$DIMTIX
 70
     0
  9
$DIMSOXD
 70
     0
  9
$DIMSAH
 70
     0
  9
$DIMBLK1
  1

  9
$DIMBLK2
  1

  9
$DIMSTYLE
  2
STANDARD
  9
$DIMCLRD
 70
     0
  9
$DIMCLRE
 70
     0
  9
$DIMCLRT
 70
     0
  9
$DIMTFAC
 40
1.0
  9
$DIMGAP
 40
0.09
  9
$LUNITS
 70
     2
  9
$LUPREC
 70
     4
  9
$SKETCHINC
 40
0.1
  9
$FILLETRAD
 40
0.0
  9
$AUNITS
 70
     0
  9
$AUPREC
 70
     0
  9
$MENU
  1
.
  9
$ELEVATION
 40
0.0
  9
$PELEVATION
 40
0.0
  9
$THICKNESS
 40
0.0
  9
$LIMCHECK
 70
     0
  9
$BLIPMODE
 70
     0
  9
$CHAMFERA
 40
0.0
  9
$CHAMFERB
 40
0.0
  9
$SKPOLY
 70
     0
  9
$TDCREATE
 40
2458172.5207638889551163
  9
$TDUPDATE
 40
2460203.6575925932265818
  9
$TDINDWG
 40
0.4899428472
  9
$TDUSRTIMER
 40
0.4899428472
  9
$USRTIMER
 70
     1
  9
$ANGBASE
 50
0.0
  9
$ANGDIR
 70
     0
  9
$PDMODE
 70
     0
  9
$PDSIZE
 40
0.3125
  9
$PLINEWID
 40
0.0
  9
$COORDS
 70
     1
  9
$SPLFRAME
 70
     0
  9
$SPLINETYPE
 70
     6
  9
$SPLINESEGS
 70
     8
  9
$ATTDIA
 70
     1
  9
$ATTREQ
 70
     1
  9
$HANDLING
 70
     1
  9
$HANDSEED
  5
E1FC
  9
$SURFTAB1
 70
     6
  9
$SURFTAB2
 70
     6
  9
$SURFTYPE
 70
     6
  9
$SURFU
 70
     6
  9
$SURFV
 70
     6
  9
$UCSNAME
  2

  9
$UCSORG
 10
0.0
 20
0.0
 30
0.0
  9
$UCSXDIR
 10
1.0
 20
0.0
 30
0.0
  9
$UCSYDIR
 10
0.0
 20
1.0
 30
0.0
  9
$PUCSNAME
  2

  9
$PUCSORG
 10
0.0
 20
0.0
 30
0.0
  9
$PUCSXDIR
 10
1.0
 20
0.0
 30
0.0
  9
$PUCSYDIR
 10
0.0
 20
1.0
 30
0.0
  9
$USERI1
 70
     0
  9
$USERI2
 70
     0
  9
$USERI3
 70
     0
  9
$USERI4
 70
     0
  9
$USERI5
 70
     0
  9
$USERR1
 40
0.0
  9
$USERR2
 40
0.0
  9
$USERR3
 40
0.0
  9
$USERR4
 40
0.0
  9
$USERR5
 40
0.0
  9
$WORLDVIEW
 70
     1
  9
$SHADEDGE
 70
     3
  9
$SHADEDIF
 70
    70
  9
$TILEMODE
 70
     1
  9
$MAXACTVP
 70
    64
  9
$PLIMCHECK
 70
     0
  9
$PEXTMIN
 10
1.0000000000000000E+20
 20
1.0000000000000000E+20
 30
1.0000000000000000E+20
  9
$PEXTMAX
 10
-1.0000000000000000E+20
 20
-1.0000000000000000E+20
 30
-1.0000000000000000E+20
  9
$PLIMMIN
 10
0.0
 20
0.0
  9
$PLIMMAX
 10
12.0
 20
9.0
  9
$UNITMODE
 70
     0
  9
$VISRETAIN
 70
     1
  9
$PLINEGEN
 70
     0
  9
$PSLTSCALE
 70
     1
  0
ENDSEC
  0
SECTION
  2
TABLES
  0
TABLE
  2
VPORT
 70
     1
  0
VPORT
  2
*ACTIVE
 70
     0
 10
0.0
 20
0.0
 11
1.0
 21
1.0
 12
572.7417853783878172
 22
53.6781735177952726
 13
0.0
 23
0.0
 14
1.0
 24
1.0
 15
0.0
 25
0.0
 16
0.0
 26
0.0
 36
24.1179433675886514
 17
466.74220170783002
 27
89.133147119929788
 37
0.0
 40
4.599798512297383
 41
2.193965517241379
 42
50.0
 43
0.0
 44
0.0
 50
0.0
 51
0.0
 71
     0
 72
   100
 73
     1
 74
     1
 75
     0
 76
     0
 77
     0
 78
     0
  0
ENDTAB
  0
TABLE
  2
LTYPE
 70
     2
  0
LTYPE
  2
CONTINUOUS
 70
     0
  3
Solid line
 72
    65
 73
     0
 40
0.0
  0
LTYPE
  2
PHANTOM2
 70
     0
  3
___ _ _ ___ _ _ ___ _ _ ___ _ _
 72
    65
 73
     6
 40
1.25
 49
0.625
 49
-0.125
 49
0.125
 49
-0.125
 49
0.125
 49
-0.125
  0
ENDTAB
  0
TABLE
  2
LAYER
 70
     2
  0
LAYER
  2
0
 70
     0
 62
   255
  6
CONTINUOUS
  0
LAYER
  2
DEFPOINTS
 70
     0
 62
     7
  6
CONTINUOUS
  0
ENDTAB
  0
TABLE
  2
STYLE
 70
     1
  0
STYLE
  2
STANDARD
 70
     0
 40
0.0
 41
0.8
 50
0.0
 71
     0
 42
0.2
  3
txt
  4

  0
ENDTAB
  0
TABLE
  2
VIEW
 70
     0
  0
ENDTAB
  0
TABLE
  2
UCS
 70
     0
  0
ENDTAB
  0
TABLE
  2
APPID
 70
    11
  0
APPID
  2
ACAD
 70
     0
  0
APPID
  2
ACAD_MLEADERVER
 70
     0
  0
APPID
  2
ACAD_EXEMPT_FROM_CAD_STANDARDS
 70
     0
  0
APPID
  2
ACAD_DSTYLE_DIMJAG
 70
     0
  0
APPID
  2
ACAD_DSTYLE_DIMTALN
 70
     0
  0
APPID
  2
ACAD_NAV_VCDISPLAY
 70
     0
  0
APPID
  2
ACAECLAYERSTANDARD
 70
     0
  0
APPID
  2
ACCMTRANSPARENCY
 70
     0
  0
APPID
  2
DCO15
 70
     0
  0
APPID
  2
ACDBATTR
 70
     0
  0
APPID
  2
ACADANNOTATIVE
 70
     0
  0
ENDTAB
  0
TABLE
  2
DIMSTYLE
 70
     1
  0
DIMSTYLE
  2
STANDARD
 70
     0
  3

  4

  5

  6

  7

 40
1.0
 41
0.1875
 42
0.0625
 43
0.38
 44
0.125
 45
0.0
 46
0.0
 47
0.01
 48
0.01
140
0.15625
141
0.09
142
0.0
143
25.3999999999999986
144
1.0
145
0.0
146
1.0
147
0.09
 71
     1
 72
     0
 73
     1
 74
     1
 75
     0
 76
     0
 77
     0
 78
     4
170
     0
171
     2
172
     0
173
     0
174
     0
175
     0
176
     0
177
     0
178
     0
  0
ENDTAB
  0
ENDSEC
  0
SECTION
  2
BLOCKS
  0
BLOCK
  8
0
  2
$MODEL_SPACE
 70
     0
 10
0.0
 20
0.0
 30
0.0
  3
$MODEL_SPACE
  1

  0
ENDBLK
  5
21
  8
0
  0
BLOCK
 67
     1
  8
0
  2
$PAPER_SPACE
 70
     0
 10
0.0
 20
0.0
 30
0.0
  3
$PAPER_SPACE
  1

  0
ENDBLK
  5
1D
 67
     1
  8
0
  0
ENDSEC
  0
SECTION
  2
ENTITIES
  0
LINE
  5
DD5A
  8
0
 10
1035.3687970059290819
 20
144.9809074689343902
 30
0.0
 11
1042.568801201208089
 21
144.9809074689343902
 31
0.0
  0
LINE
  5
DD5B
  8
0
 10
1035.9687956582070001
 20
145.0864457498593936
 30
0.0
 11
1042.0212919347620755
 21
145.0864457498593936
 31
0.0
  0
LINE
  5
DD5C
  8
0
 10
1041.3688012040579451
 20
143.0223643585873106
 30
0.0
 11
1041.3688012040579451
 21
140.7396357498595023
 31
0.0
  0
LINE
  5
DD5D
  8
0
 10
1041.0237911290068951
 20
140.7296357498593977
 30
0.0
 11
1042.9137911290079046
 21
140.7296357498593977
 31
0.0
  0
LINE
  5
DD5E
  8
0
 10
1040.9997911290070078
 20
140.5416357498594095
 30
0.0
 11
1042.9377911290071097
 21
140.5416357498594095
 31
0.0
  0
LINE
  5
DD5F
  8
0
 10
1040.9847911290069078
 20
140.6906357498594105
 30
0.0
 11
1040.9847911290069078
 21
140.5566357498593959
 31
0.0
  0
ARC
  5
DD60
  8
0
 10
1041.0237911290068951
 20
140.6906357498594105
 30
0.0
 40
0.039
 50
90.0
 51
180.0
  0
ARC
  5
DD61
  8
0
 10
1040.9997911290070078
 20
140.5566357498593959
 30
0.0
 40
0.015
 50
180.0
 51
270.0
  0
ARC
  5
DD62
  8
0
 10
1041.3788012040570266
 20
140.7396357498595023
 30
0.0
 40
0.01
 50
180.0
 51
270.0
  0
LINE
  5
DD63
  8
0
 10
1042.9527911290069824
 20
140.6906357498594105
 30
0.0
 11
1042.9527911290069824
 21
140.5566357498593959
 31
0.0
  0
ARC
  5
DD64
  8
0
 10
1042.9137911290079046
 20
140.6906357498594105
 30
0.0
 40
0.039
 50
0.0
 51
90.0
  0
ARC
  5
DD65
  8
0
 10
1042.9377911290071097
 20
140.5566357498593959
 30
0.0
 40
0.015
 50
270.0
 51
0.0
  0
LINE
  5
DD66
  8
0
 10
1042.568801201208089
 20
144.9809074689594013
 30
0.0
 11
1042.5688012016969424
 21
143.7120368255594087
 31
0.0
  0
ARC
  5
DD67
  8
0
 10
1042.5596001705450817
 20
140.7396607029492088
 30
0.0
 40
0.0100567406201244
 50
265.443285072732408
 51
359.8578358284167962
  0
LINE
  5
DD68
  8
0
 10
1042.4669344356070724
 20
142.5046357498594034
 30
0.0
 11
1041.4706568802068887
 21
142.5046357498594034
 31
0.0
  0
LINE
  5
DD69
  8
0
 10
1042.4769344357071077
 20
142.874703660220689
 30
0.0
 11
1042.4769344357071077
 21
142.5146357498593943
 31
0.0
  0
LINE
  5
DD6A
  8
0
 10
1042.4769344357071077
 20
142.4696357498594068
 30
0.0
 11
1042.4769344357071077
 21
140.7396357498595023
 31
0.0
  0
LINE
  5
DD6B
  8
0
 10
1042.6456704354070553
 20
143.0412805303593871
 30
0.0
 11
1043.1559244304069125
 21
143.0412805303593871
 31
0.0
  0
LINE
  5
DD6C
  8
0
 10
1043.5761118747079763
 20
143.4596357498593875
 30
0.0
 11
1040.3614794412069386
 21
143.4596357498593875
 31
0.0
  0
LINE
  5
DD6D
  8
0
 10
1043.5369889008070459
 20
143.5083313624371044
 30
0.0
 11
1043.5369889008070459
 21
143.4853126062594129
 31
0.0
  0
LINE
  5
DD6E
  8
0
 10
1043.3337050058080422
 20
143.7120368255594087
 30
0.0
 11
1040.6038863101071001
 21
143.7120368255594087
 31
0.0
  0
ARC
  5
DD6F
  8
0
 10
1042.646673589187003
 20
142.8715143811799919
 30
0.0
 40
0.169769112987963
 50
90.3385587120555584
 51
178.9235793524549933
  0
ARC
  5
DD70
  8
0
 10
1043.1559244288071113
 20
143.483780532127696
 30
0.0
 40
0.4425000017682184
 50
270.0000002072682719
 51
354.0025217662241062
  0
LINE
  5
DD71
  8
0
 10
1043.5356476016199849
 20
143.4803099169594134
 30
0.0
 11
1043.5237028036360698
 21
143.4596357498593875
 31
0.0
  0
ARC
  5
DD72
  8
0
 10
1043.0935542821100626
 20
143.2810236736426077
 30
0.0
 40
0.5000000081275383
 50
27.9483636986359016
 51
57.3658453122259999
  0
ARC
  5
DD73
  8
0
 10
1043.5219889008069458
 20
143.5083313624371044
 30
0.0
 40
0.015
 50
359.999999999946283
 51
27.9483636986488406
  0
ARC
  5
DD74
  8
0
 10
1043.5269889008079645
 20
143.4853126062594129
 30
0.0
 40
0.01
 50
329.9822067427351726
 51
359.9999999999902229
  0
ARC
  5
DD75
  8
0
 10
1043.3280579840838982
 20
143.6466253152235879
 30
0.0
 40
0.0656548135231346
 50
57.6484241639390405
 51
85.0658488231381966
  0
ARC
  5
DD76
  8
0
 10
1043.5761118747079763
 20
143.4396357498594909
 30
0.0
 40
0.02
 50
354.0025217563347724
 51
90.0000000000390656
  0
LINE
  5
DD77
  8
0
 10
1043.5352394558030937
 20
143.5153614970242018
 30
0.0
 11
1040.4023518601120486
 21
143.5153614970242018
 31
0.0
  0
LINE
  5
DD78
  8
0
 10
1043.5356476016199849
 20
143.4803099169594134
 30
0.0
 11
1040.40194371429493
 21
143.4803099169594134
 31
0.0
  0
ARC
  5
DD79
  8
0
 10
1041.9566148921480817
 20
143.4899163937386106
 30
0.0
 40
0.4503331643126183
 50
271.5499449185617777
 51
353.3211488817693748
  0
ARC
  5
DD7A
  8
0
 10
1042.3839899784979934
 20
143.4396249635055085
 30
0.0
 40
0.0200107905019936
 50
354.0216482109817093
 51
89.963108379871997
  0
LINE
  5
DD7B
  8
0
 10
1041.4606568802068978
 20
142.874703660220689
 30
0.0
 11
1041.4606568802068978
 21
142.5146357498593943
 31
0.0
  0
ARC
  5
DD7C
  8
0
 10
1041.4706568802068887
 20
142.5146357498593943
 30
0.0
 40
0.01
 50
180.0
 51
270.0
  0
LINE
  5
DD7D
  8
0
 10
1041.4606568802068978
 20
142.4696357498594068
 30
0.0
 11
1041.4606568802068978
 21
140.7396357498595023
 31
0.0
  0
LINE
  5
DD7E
  8
0
 10
1041.2919208805080871
 20
143.0412805303593871
 30
0.0
 11
1040.781666885507093
 21
143.0412805303593871
 31
0.0
  0
LINE
  5
DD7F
  8
0
 10
1040.4006024151080965
 20
143.5083313624371044
 30
0.0
 11
1040.4006024151080965
 21
143.4853126062594129
 31
0.0
  0
LINE
  5
DD80
  8
0
 10
1041.5128456579079739
 20
142.5046357498594034
 30
0.0
 11
1041.5128456579079739
 21
142.4896357498593886
 31
0.0
  0
ARC
  5
DD81
  8
0
 10
1041.2909177267279119
 20
142.8715143811799919
 30
0.0
 40
0.169769112987963
 50
1.0764206475449929
 51
89.6614412879444558
  0
ARC
  5
DD82
  8
0
 10
1040.781666887108031
 20
143.483780532127696
 30
0.0
 40
0.4425000017682184
 50
185.9974782337743022
 51
269.9999997927317281
  0
LINE
  5
DD83
  8
0
 10
1040.40194371429493
 20
143.4803099169594134
 30
0.0
 11
1040.4138885122790725
 21
143.4596357498593875
 31
0.0
  0
ARC
  5
DD84
  8
0
 10
1040.8440370338050798
 20
143.2810236736426077
 30
0.0
 40
0.5000000081275383
 50
122.6341546877740001
 51
152.0516363013641126
  0
ARC
  5
DD85
  8
0
 10
1040.4156024151070596
 20
143.5083313624371044
 30
0.0
 40
0.015
 50
152.0516363013510954
 51
180.0000000000536886
  0
ARC
  5
DD86
  8
0
 10
1040.4106024151069505
 20
143.4853126062594129
 30
0.0
 40
0.01
 50
180.0000000000098055
 51
210.0177932572634063
  0
ARC
  5
DD87
  8
0
 10
1040.6095333318310168
 20
143.6466253152235879
 30
0.0
 40
0.0656548135231346
 50
94.9341511768618034
 51
122.3515758360609027
  0
ARC
  5
DD88
  8
0
 10
1040.3614794412069386
 20
143.4396357498594909
 30
0.0
 40
0.02
 50
89.9999999999609201
 51
185.9974782436651992
  0
ARC
  5
DD89
  8
0
 10
1041.9809764237670606
 20
143.4899163937386106
 30
0.0
 40
0.4503331643126183
 50
186.6788511182288914
 51
268.4500550814382223
  0
ARC
  5
DD8A
  8
0
 10
1041.553601337416012
 20
143.4396249635055085
 30
0.0
 40
0.0200107905019936
 50
90.0368916201279745
 51
185.9783517890182054
  0
ARC
  5
DD8B
  8
0
 10
1041.4706568802068887
 20
140.7396357498595023
 30
0.0
 40
0.01
 50
180.0
 51
270.0
  0
LINE
  5
DD8C
  8
0
 10
1041.4706568802068887
 20
142.4796357498593977
 30
0.0
 11
1042.4669344356070724
 21
142.4796357498593977
 31
0.0
  0
ARC
  5
DD8D
  8
0
 10
1041.4706568802068887
 20
142.4696357498594068
 30
0.0
 40
0.01
 50
90.0
 51
179.9999999999951115
  0
ARC
  5
DD8E
  8
0
 10
1041.5028456579070735
 20
142.4896357498593886
 30
0.0
 40
0.01
 50
270.0
 51
359.9999999999968168
  0
ARC
  5
DD8F
  8
0
 10
1042.4669344356070724
 20
142.5146357498593943
 30
0.0
 40
0.01
 50
270.0
 51
0.0
  0
LINE
  5
DD90
  8
0
 10
1042.4247456579068967
 20
142.5046357498594034
 30
0.0
 11
1042.4247456579068967
 21
142.4896357498593886
 31
0.0
  0
ARC
  5
DD91
  8
0
 10
1042.4669344356070724
 20
140.7396357498595023
 30
0.0
 40
0.01
 50
270.0
 51
0.0
  0
ARC
  5
DD92
  8
0
 10
1042.4669344356070724
 20
142.4696357498594068
 30
0.0
 40
0.01
 50
0.0000000000048853
 51
90.0
  0
ARC
  5
DD93
  8
0
 10
1042.4347456579068876
 20
142.4896357498593886
 30
0.0
 40
0.01
 50
180.0000000000015916
 51
270.0
  0
LINE
  5
DD94
  8
0
 10
1042.9147859843481001
 20
141.7199703352594042
 30
0.0
 11
1042.5006825663299423
 21
141.7199703352594042
 31
0.0
  0
LINE
  5
DD95
  8
0
 10
1042.8917956582070019
 20
141.4963257498594089
 30
0.0
 11
1042.5476417228051105
 21
141.4963257498594089
 31
0.0
  0
ARC
  5
DD96
  8
0
 10
1042.8917956582070019
 20
141.7096357498595012
 30
0.0
 40
0.2133100000000025
 50
270.0
 51
349.7796638854824209
  0
ARC
  5
DD97
  8
0
 10
1043.0820383490740824
 20
141.6753359733008892
 30
0.0
 40
0.02
 50
349.7796638854824209
 51
75.3228911755771833
  0
ARC
  5
DD98
  8
0
 10
1042.8869489108139987
 20
140.9304869883812046
 30
0.0
 40
0.7899739601157409
 50
75.3228911755775954
 51
87.9805953479816338
  0
ARC
  5
DD99
  8
0
 10
1035.9687921999889113
 20
142.6492438541208969
 30
0.0
 40
2.4372018957409991
 50
89.9999187013143569
 51
103.5281572164316941
  0
ARC
  5
DD9A
  8
0
 10
1035.9698628152420952
 20
144.9800619793134047
 30
0.0
 40
0.6010664039669759
 50
179.9194049067480989
 51
267.3553746808570963
  0
ARC
  5
DD9B
  8
0
 10
1035.4077972258110094
 20
144.9809076199836113
 30
0.0
 40
0.0390002198825561
 50
103.5281876877757981
 51
180.000221908599201
  0
ARC
  5
DD9C
  8
0
 10
1035.9390060054929563
 20
144.4014263088591008
 30
0.0
 40
0.0220132119993924
 50
278.1559949647390226
 51
315.0789495178348716
  0
ARC
  5
DD9D
  8
0
 10
1036.0208000754930708
 20
144.1336192117148869
 30
0.0
 40
0.2608062805236686
 50
99.6340558595326655
 51
104.7057408798169007
  0
ARC
  5
DD9E
  8
0
 10
1035.974663549053048
 20
144.4054121704760121
 30
0.0
 40
0.0148746791092542
 50
279.6340558595326797
 51
326.4517235611431261
  0
ARC
  5
DD9F
  8
0
 10
1036.0674720075389814
 20
144.3144854367365895
 30
0.0
 40
0.1153532548999183
 50
116.9837595282309053
 51
134.1939952309762134
  0
LINE
  5
DDA1
  8
0
 10
1037.294795658061048
 20
144.3796357498740122
 30
0.0
 11
1040.6925999949610286
 21
144.3796357498740122
 31
0.0
  0
LINE
  5
DDA3
  8
0
 10
1036.0234372357699613
 20
144.3918556809672111
 30
0.0
 11
1036.1073276772069676
 21
144.3918556809672111
 31
0.0
  0
LINE
  5
DDA4
  8
0
 10
1036.9727664791901134
 20
144.4138689425390965
 30
0.0
 11
1036.2648957047069871
 21
144.413869224267188
 31
0.0
  0
ARC
  5
DDA5
  8
0
 10
1036.2672224304310475
 20
143.8222898908234981
 30
0.0
 40
0.5915839090190542
 50
90.2253474201687453
 51
105.6810754520530935
  0
LINE
  5
DDA6
  8
0
 10
1036.0154384542090611
 20
144.3997160617093982
 30
0.0
 11
1036.0151318609071041
 21
144.4172807793671893
 31
0.0
  0
ARC
  5
DDA7
  8
0
 10
1036.0234372357699613
 20
144.3998556809671925
 30
0.0
 40
0.008
 50
181.0000000448868036
 51
270.0
  0
ARC
  5
DDA8
  8
0
 10
1036.1847540531400682
 20
144.1017875145533083
 30
0.0
 40
0.3582006256970074
 50
102.1950169870356007
 51
118.2643080885143974
  0
ARC
  5
DDA9
  8
0
 10
1036.1861772819279395
 20
144.0952020479091118
 30
0.0
 40
0.3649381290255777
 50
93.7976215081682057
 51
102.1950169870356007
  0
ARC
  5
DDAA
  8
0
 10
1036.1831844634129993
 20
144.1402893975009079
 30
0.0
 40
0.3197515596063699
 50
89.8904808985053023
 51
93.7976215081682057
  0
LINE
  5
DDAB
  8
0
 10
1036.1837956582080551
 20
144.460040372867212
 30
0.0
 11
1037.0537959128139391
 21
144.460040372867212
 31
0.0
  0
ARC
  5
DDAC
  8
0
 10
1037.2947956581929247
 20
144.3946357498556949
 30
0.0
 40
0.0149999999817114
 50
216.8548026112360958
 51
270.0000000544682166
  0
ARC
  5
DDAD
  8
0
 10
1037.23475729214897
 20
144.2268966644909085
 30
0.0
 40
0.1658510111237973
 50
73.163989386340134
 51
81.0921114177417621
  0
ARC
  5
DDAE
  8
0
 10
1037.2629280742819446
 20
144.4054121704760121
 30
0.0
 40
0.0148746791092542
 50
213.5482764388567887
 51
260.3659441404673203
  0
ARC
  5
DDAF
  8
0
 10
1037.1701196157951017
 20
144.3144854367365895
 30
0.0
 40
0.1153532548999183
 50
45.8060047690238008
 51
63.0162404717690379
  0
LINE
  5
DDB0
  8
0
 10
1037.2141543875650314
 20
144.3918556809672111
 30
0.0
 11
1037.1302639461280251
 21
144.3918556809672111
 31
0.0
  0
ARC
  5
DDB1
  8
0
 10
1036.9703691929039451
 20
143.8222898908234981
 30
0.0
 40
0.5915839090190542
 50
74.3189245479468923
 51
89.7746525798182233
  0
LINE
  5
DDB2
  8
0
 10
1037.2221531691259315
 20
144.3997160617093982
 30
0.0
 11
1037.2224597624269791
 21
144.4172807793671893
 31
0.0
  0
ARC
  5
DDB3
  8
0
 10
1037.2141543875650314
 20
144.3998556809671925
 30
0.0
 40
0.008
 50
270.0
 51
358.9999999551130827
  0
ARC
  5
DDB4
  8
0
 10
1037.0528375701949244
 20
144.1017875145533083
 30
0.0
 40
0.3582006256970074
 50
61.7356919114855671
 51
77.8049830129643709
  0
ARC
  5
DDB5
  8
0
 10
1037.0514143414079626
 20
144.0952020479091118
 30
0.0
 40
0.3649381290255777
 50
77.8049830129643709
 51
86.2023784918317801
  0
ARC
  5
DDB6
  8
0
 10
1037.0544071599219933
 20
144.1402893975009079
 30
0.0
 40
0.3197515596063699
 50
86.2023784918317801
 51
90.1095191014946835
  0
ARC
  5
DDB7
  8
0
 10
1041.9611106286970426
 20
142.6114902887815958
 30
0.0
 40
2.4756870407865712
 50
76.5051090363591584
 51
88.6070636254309534
  0
ARC
  5
DDB8
  8
0
 10
1040.6607497343229625
 20
143.6722827215168934
 30
0.0
 40
0.7080697323207266
 50
3.218525833374839
 51
87.4218620147510137
  0
LINE
  5
DE32
  8
0
 10
1042.5006588006081074
 20
142.9537393007595085
 30
0.0
 11
1042.5006827654019617
 21
141.7096357437594065
 31
0.0
  0
ARC
  5
DE33
  8
0
 10
1042.9548377964749761
 20
141.709644492011904
 30
0.0
 40
0.4541550311573395
 50
180.0011036714556951
 51
184.8337552603418033
  0
ARC
  5
DE34
  8
0
 10
1043.1176446925060191
 20
141.7373732331591896
 30
0.0
 40
0.6188758152270601
 50
186.1217696520218965
 51
206.9089671892836861
  0
ARC
  5
DE35
  8
0
 10
1042.5299985534009011
 20
141.4401769598308931
 30
0.0
 40
0.0396583703818419
 50
0.0849359596964519
 51
25.5570460837916187
  0
LINE
  5
DE36
  8
0
 10
1042.5696568802079582
 20
141.4402357498593972
 30
0.0
 11
1042.5696568802079582
 21
140.7396357498595023
 31
0.0
  0
ARC
  5
DE37
  8
0
 10
1041.5986099148490212
 20
143.4853126061589137
 30
0.0
 40
0.009999999541698
 50
179.9999994241267984
 51
210.0177947131668077
  0
LINE
  5
DE38
  8
0
 10
1041.5886099153069608
 20
143.4853126062594129
 30
0.0
 11
1041.5886099155391094
 21
143.5083199861593926
 31
0.0
  0
ARC
  5
DE39
  8
0
 10
1041.6036612650029838
 20
143.5083199860081891
 30
0.0
 40
0.0150513494646276
 50
152.1007491501084132
 51
179.9999994241235868
  0
ARC
  5
DE3A
  8
0
 10
1042.0287246486439017
 20
143.2832676251784108
 30
0.0
 40
0.4960164679786385
 50
122.4508406508614939
 51
152.1007491501084132
  0
ARC
  5
DE3B
  8
0
 10
1041.7976853270729407
 20
143.6466142936332915
 30
0.0
 40
0.0654355004601166
 50
91.1407317550166454
 51
122.4508406508614939
  0
ARC
  5
DE3C
  8
0
 10
1042.1429298834159454
 20
143.6490325419034093
 30
0.0
 40
0.0630042836572354
 50
57.3615719354034326
 51
89.9996446163028594
  0
ARC
  5
DE3D
  8
0
 10
1041.9071806059569099
 20
143.2809458136032958
 30
0.0
 40
0.5001147518147686
 50
27.9505636974944913
 51
57.3615719354034326
  0
ARC
  5
DE3E
  8
0
 10
1042.3357381258670102
 20
143.5083397959672027
 30
0.0
 40
0.0149657323517234
 50
359.9241588261567131
 51
27.9505636974944913
  0
LINE
  5
DE3F
  8
0
 10
1042.3507038451070912
 20
143.5083199861593926
 30
0.0
 11
1042.3506733907490798
 21
143.4853126264152934
 31
0.0
  0
ARC
  5
DE40
  8
0
 10
1042.3404199988099208
 20
143.4853261986145867
 30
0.0
 40
0.0102534009215095
 50
330.7099495975984951
 51
359.92415882616001
  0
ARC
  5
DE41
  8
0
 10
1042.5273339458469763
 20
144.9789358550455063
 30
0.0
 40
0.0415141003585079
 50
2.7221513825665031
 51
73.91836048276312
  0
LINE
  5
DE42
  8
0
 10
1042.5009294938229232
 20
141.6946763555594941
 30
0.0
 11
1043.0871324254460433
 21
141.6946763555594941
 31
0.0
  0
ATTDEF
  5
DECF
  8
DEFPOINTS
 10
1041.9585200611159053
 20
140.537691813943411
 30
0.0
 40
0.001
  1
P32704-RST
  3

  2
MODELNUMBER
 70
     0
1001
ACDBATTR
1070
     0
1070
     1
  0
ATTDEF
  5
DED0
  8
DEFPOINTS
 10
1041.9585200611159053
 20
140.5360251472768027
 30
0.0
 40
0.001
  1
002
  3

  2
TRADENAME
 70
     0
1001
ACDBATTR
1070
     0
1070
     1
  0
ATTDEF
  5
DED1
  8
DEFPOINTS
 10
1041.9585200611159053
 20
140.5343584806101092
 30
0.0
 40
0.001
  1
BATHROOM SINK FAUCET
  3

  2
PRODUCT
 70
     0
1001
ACDBATTR
1070
     0
1070
     1
  0
ENDSEC
  0
EOF
