  0
SECTION
  2
HEADER
  9
$ACADVER
  1
AC1009
  9
$INSBASE
 10
1029.1120094033069563
 20
140.5416357498594095
 30
0.0
  9
$EXTMIN
 10
1023.4625153290489834
 20
140.5310506782149105
 30
-0.0000000000000058
  9
$EXTMAX
 10
1034.752212923137904
 20
145.0915905972352107
 30
0.0000000000000104
  9
$LIMMIN
 10
0.0
 20
0.0
  9
$LIMMAX
 10
11.6929133858000007
 20
8.2677165353999982
  9
$ORTHOMODE
 70
     1
  9
$REGENMODE
 70
     1
  9
$FILLMODE
 70
     1
  9
$QTEXTMODE
 70
     0
  9
$MIRRTEXT
 70
     0
  9
$DRAGMODE
 70
     2
  9
$LTSCALE
 40
0.6431102362
  9
$OSMODE
 70
  3999
  9
$ATTMODE
 70
     1
  9
$TEXTSIZE
 40
0.2
  9
$TRACEWID
 40
0.05
  9
$TEXTSTYLE
  7
STANDARD
  9
$CLAYER
  8
0
  9
$CELTYPE
  6
BYLAYER
  9
$CECOLOR
 62
   256
  9
$DIMSCALE
 40
1.0
  9
$DIMASZ
 40
0.1875
  9
$DIMEXO
 40
0.0625
  9
$DIMDLI
 40
0.4443307087
  9
$DIMRND
 40
0.0
  9
$DIMDLE
 40
0.0
  9
$DIMEXE
 40
0.125
  9
$DIMTP
 40
0.01
  9
$DIMTM
 40
0.01
  9
$DIMTXT
 40
1.0
  9
$DIMCEN
 40
0.1052362205
  9
$DIMTSZ
 40
0.0
  9
$DIMTOL
 70
     1
  9
$DIMLIM
 70
     0
  9
$DIMTIH
 70
     0
  9
$DIMTOH
 70
     1
  9
$DIMSE1
 70
     0
  9
$DIMSE2
 70
     0
  9
$DIMTAD
 70
     0
  9
$DIMZIN
 70
     0
  9
$DIMBLK
  1

  9
$DIMASO
 70
     1
  9
$DIMSHO
 70
     1
  9
$DIMPOST
  1
\X
  9
$DIMAPOST
  1

  9
$DIMALT
 70
     1
  9
$DIMALTD
 70
     2
  9
$DIMALTF
 40
25.3999999999999986
  9
$DIMLFAC
 40
1.0
  9
$DIMTOFL
 70
     0
  9
$DIMTVP
 40
0.0
  9
$DIMTIX
 70
     0
  9
$DIMSOXD
 70
     0
  9
$DIMSAH
 70
     0
  9
$DIMBLK1
  1

  9
$DIMBLK2
  1

  9
$DIMSTYLE
  2
STANDARD
  9
$DIMCLRD
 70
     0
  9
$DIMCLRE
 70
     0
  9
$DIMCLRT
 70
     0
  9
$DIMTFAC
 40
1.0
  9
$DIMGAP
 40
0.09
  9
$LUNITS
 70
     2
  9
$LUPREC
 70
     4
  9
$SKETCHINC
 40
0.1
  9
$FILLETRAD
 40
0.0
  9
$AUNITS
 70
     0
  9
$AUPREC
 70
     0
  9
$MENU
  1
.
  9
$ELEVATION
 40
0.0
  9
$PELEVATION
 40
0.0
  9
$THICKNESS
 40
0.0
  9
$LIMCHECK
 70
     0
  9
$BLIPMODE
 70
     0
  9
$CHAMFERA
 40
0.0
  9
$CHAMFERB
 40
0.0
  9
$SKPOLY
 70
     0
  9
$TDCREATE
 40
2458172.5207638889551163
  9
$TDUPDATE
 40
2460202.4545023147948086
  9
$TDINDWG
 40
0.4910423843
  9
$TDUSRTIMER
 40
0.4910423843
  9
$USRTIMER
 70
     1
  9
$ANGBASE
 50
0.0
  9
$ANGDIR
 70
     0
  9
$PDMODE
 70
     0
  9
$PDSIZE
 40
0.3125
  9
$PLINEWID
 40
0.0
  9
$COORDS
 70
     1
  9
$SPLFRAME
 70
     0
  9
$SPLINETYPE
 70
     6
  9
$SPLINESEGS
 70
     8
  9
$ATTDIA
 70
     1
  9
$ATTREQ
 70
     1
  9
$HANDLING
 70
     1
  9
$HANDSEED
  5
E23A
  9
$SURFTAB1
 70
     6
  9
$SURFTAB2
 70
     6
  9
$SURFTYPE
 70
     6
  9
$SURFU
 70
     6
  9
$SURFV
 70
     6
  9
$UCSNAME
  2

  9
$UCSORG
 10
0.0
 20
0.0
 30
0.0
  9
$UCSXDIR
 10
1.0
 20
0.0
 30
0.0
  9
$UCSYDIR
 10
0.0
 20
1.0
 30
0.0
  9
$PUCSNAME
  2

  9
$PUCSORG
 10
0.0
 20
0.0
 30
0.0
  9
$PUCSXDIR
 10
1.0
 20
0.0
 30
0.0
  9
$PUCSYDIR
 10
0.0
 20
1.0
 30
0.0
  9
$USERI1
 70
     0
  9
$USERI2
 70
     0
  9
$USERI3
 70
     0
  9
$USERI4
 70
     0
  9
$USERI5
 70
     0
  9
$USERR1
 40
0.0
  9
$USERR2
 40
0.0
  9
$USERR3
 40
0.0
  9
$USERR4
 40
0.0
  9
$USERR5
 40
0.0
  9
$WORLDVIEW
 70
     1
  9
$SHADEDGE
 70
     3
  9
$SHADEDIF
 70
    70
  9
$TILEMODE
 70
     1
  9
$MAXACTVP
 70
    64
  9
$PLIMCHECK
 70
     0
  9
$PEXTMIN
 10
1.0000000000000000E+20
 20
1.0000000000000000E+20
 30
1.0000000000000000E+20
  9
$PEXTMAX
 10
-1.0000000000000000E+20
 20
-1.0000000000000000E+20
 30
-1.0000000000000000E+20
  9
$PLIMMIN
 10
0.0
 20
0.0
  9
$PLIMMAX
 10
12.0
 20
9.0
  9
$UNITMODE
 70
     0
  9
$VISRETAIN
 70
     1
  9
$PLINEGEN
 70
     0
  9
$PSLTSCALE
 70
     1
  0
ENDSEC
  0
SECTION
  2
TABLES
  0
TABLE
  2
VPORT
 70
     1
  0
VPORT
  2
*ACTIVE
 70
     0
 10
0.0
 20
0.0
 11
1.0
 21
1.0
 12
562.3651624182634805
 22
53.6781735177952726
 13
0.0
 23
0.0
 14
1.0
 24
1.0
 15
0.0
 25
0.0
 16
0.0
 26
0.0
 36
24.1179433675886514
 17
466.74220170783002
 27
89.133147119929788
 37
0.0
 40
5.1659855933383296
 41
2.193965517241379
 42
50.0
 43
0.0
 44
0.0
 50
0.0
 51
0.0
 71
     0
 72
   100
 73
     1
 74
     1
 75
     0
 76
     0
 77
     0
 78
     0
  0
ENDTAB
  0
TABLE
  2
LTYPE
 70
     2
  0
LTYPE
  2
CONTINUOUS
 70
     0
  3
Solid line
 72
    65
 73
     0
 40
0.0
  0
LTYPE
  2
PHANTOM2
 70
     0
  3
___ _ _ ___ _ _ ___ _ _ ___ _ _
 72
    65
 73
     6
 40
1.25
 49
0.625
 49
-0.125
 49
0.125
 49
-0.125
 49
0.125
 49
-0.125
  0
ENDTAB
  0
TABLE
  2
LAYER
 70
     2
  0
LAYER
  2
0
 70
     0
 62
   255
  6
CONTINUOUS
  0
LAYER
  2
DEFPOINTS
 70
     0
 62
     7
  6
CONTINUOUS
  0
ENDTAB
  0
TABLE
  2
STYLE
 70
     1
  0
STYLE
  2
STANDARD
 70
     0
 40
0.0
 41
0.8
 50
0.0
 71
     0
 42
0.2
  3
txt
  4

  0
ENDTAB
  0
TABLE
  2
VIEW
 70
     0
  0
ENDTAB
  0
TABLE
  2
UCS
 70
     0
  0
ENDTAB
  0
TABLE
  2
APPID
 70
    11
  0
APPID
  2
ACAD
 70
     0
  0
APPID
  2
ACAD_MLEADERVER
 70
     0
  0
APPID
  2
ACAD_EXEMPT_FROM_CAD_STANDARDS
 70
     0
  0
APPID
  2
ACAD_DSTYLE_DIMJAG
 70
     0
  0
APPID
  2
ACAD_DSTYLE_DIMTALN
 70
     0
  0
APPID
  2
ACAD_NAV_VCDISPLAY
 70
     0
  0
APPID
  2
ACAECLAYERSTANDARD
 70
     0
  0
APPID
  2
ACCMTRANSPARENCY
 70
     0
  0
APPID
  2
DCO15
 70
     0
  0
APPID
  2
ACDBATTR
 70
     0
  0
APPID
  2
ACADANNOTATIVE
 70
     0
  0
ENDTAB
  0
TABLE
  2
DIMSTYLE
 70
     1
  0
DIMSTYLE
  2
STANDARD
 70
     0
  3

  4

  5

  6

  7

 40
1.0
 41
0.1875
 42
0.0625
 43
0.38
 44
0.125
 45
0.0
 46
0.0
 47
0.01
 48
0.01
140
0.15625
141
0.09
142
0.0
143
25.3999999999999986
144
1.0
145
0.0
146
1.0
147
0.09
 71
     1
 72
     0
 73
     1
 74
     1
 75
     0
 76
     0
 77
     0
 78
     4
170
     0
171
     2
172
     0
173
     0
174
     0
175
     0
176
     0
177
     0
178
     0
  0
ENDTAB
  0
ENDSEC
  0
SECTION
  2
BLOCKS
  0
BLOCK
  8
0
  2
$MODEL_SPACE
 70
     0
 10
0.0
 20
0.0
 30
0.0
  3
$MODEL_SPACE
  1

  0
ENDBLK
  5
21
  8
0
  0
BLOCK
 67
     1
  8
0
  2
$PAPER_SPACE
 70
     0
 10
0.0
 20
0.0
 30
0.0
  3
$PAPER_SPACE
  1

  0
ENDBLK
  5
1D
 67
     1
  8
0
  0
BLOCK
  8
0
  2
_FILLED
 70
     0
 10
0.0
 20
0.0
 30
0.0
  3
_FILLED
  1

  0
SOLID
  5
D985
  8
0
  6
BYBLOCK
 62
     0
 10
0.0
 20
0.0
 30
0.0
 11
-1.0
 21
0.1666666667
 31
0.0
 12
-1.0
 22
-0.1666666667
 32
0.0
 13
-1.0
 23
-0.1666666667
 33
0.0
  0
ENDBLK
  5
D986
  8
0
  6
BYBLOCK
 62
     0
  0
ENDSEC
  0
SECTION
  2
ENTITIES
  0
ATTDEF
  5
DB1D
  8
DEFPOINTS
 10
1029.1123464873830926
 20
140.5456560266771078
 30
0.0
 40
0.001
  1
P32704-JST
  3

  2
MODELNUMBER
 70
     0
1001
ACDBATTR
1070
     0
1070
     1
  0
ATTDEF
  5
DB1E
  8
DEFPOINTS
 10
1029.1123464873830926
 20
140.5439893600104142
 30
0.0
 40
0.001
  1
002
  3

  2
TRADENAME
 70
     0
1001
ACDBATTR
1070
     0
1070
     1
  0
ATTDEF
  5
DB1F
  8
DEFPOINTS
 10
1029.1123464873830926
 20
140.5423226933438059
 30
0.0
 40
0.001
  1
BATHROOM SINK FAUCET
  3

  2
PRODUCT
 70
     0
1001
ACDBATTR
1070
     0
1070
     1
  0
LINE
  5
DD41
  8
0
 10
1028.5120094033079567
 20
144.9809074689343902
 30
0.0
 11
1028.5120094093499574
 21
144.9783638699875894
 31
0.0
  0
LINE
  5
DD42
  8
0
 10
1028.16700940330702
 20
140.7296357498593977
 30
0.0
 11
1030.0570094033068926
 21
140.7296357498593977
 31
0.0
  0
LINE
  5
DD43
  8
0
 10
1028.1430094033069054
 20
140.5416357498594095
 30
0.0
 11
1030.0810094033070072
 21
140.5416357498594095
 31
0.0
  0
LINE
  5
DD44
  8
0
 10
1028.1279993282569194
 20
140.6906357498594105
 30
0.0
 11
1028.1279993282569194
 21
140.5566357498593959
 31
0.0
  0
ARC
  5
DD45
  8
0
 10
1028.1670165296659434
 20
140.6906185453088938
 30
0.0
 40
0.0390172052013077
 50
90.0104648768546411
 51
179.9747355516805953
  0
ARC
  5
DD46
  8
0
 10
1028.1430165332219531
 20
140.5566529629969921
 30
0.0
 40
0.0150172148300938
 50
180.0656739854109105
 51
269.9727969494869058
  0
ARC
  5
DD47
  8
0
 10
1028.5220129912929679
 20
140.739639336384613
 30
0.0
 40
0.0100035886284866
 50
180.0205419040754862
 51
270.0371548105131865
  0
LINE
  5
DD48
  8
0
 10
1030.0960194783569932
 20
140.6906357498594105
 30
0.0
 11
1030.0960194783569932
 21
140.5566371012789091
 31
0.0
  0
ARC
  5
DD49
  8
0
 10
1030.0570022769491061
 20
140.6906185453088938
 30
0.0
 40
0.0390172052013098
 50
0.0252644483193485
 51
89.9895351231323559
  0
ARC
  5
DD4A
  8
0
 10
1030.0810022744460639
 20
140.5566529604525954
 30
0.0
 40
0.0150172122853016
 50
270.0271990342095023
 51
359.9394918393414855
  0
LINE
  5
DD51
  8
0
 10
1029.7120094033070927
 20
144.9809074689343902
 30
0.0
 11
1029.7120094033070927
 21
140.7396357498595023
 31
0.0
  0
ARC
  5
DD55
  8
0
 10
1029.7020265938360808
 20
140.7396185715755053
 30
0.0
 40
0.0099828242518621
 50
269.9591611657451722
 51
0.0985937078676464
  0
ARC
  5
DD56
  8
0
 10
1029.1119885016439639
 20
142.6494758711104964
 30
0.0
 40
2.4369698789640291
 50
76.4696259580717737
 51
103.5288515090693977
  0
ARC
  5
DD57
  8
0
 10
1029.6730328810099309
 20
144.9809134844535947
 30
0.0
 40
0.0389765227617239
 50
359.9911571418530229
 51
76.4815851926974375
  0
ARC
  5
DD58
  8
0
 10
1028.5510328916350318
 20
144.9808865327424883
 30
0.0
 40
0.039023493944074
 50
103.5408079327063007
 51
179.969260684505997
  0
LINE
  5
DD59
  8
0
 10
1028.5120094033079567
 20
144.9809074689343902
 30
0.0
 11
1029.7120094033070927
 21
144.9809074689343902
 31
0.0
  0
ARC
  5
DDA0
  8
0
 10
1029.1120094033069563
 20
144.979637094748
 30
0.0
 40
0.6000013448739722
 50
180.1213116175327968
 51
0.1213116175295568
  0
ARC
  5
DDA2
  8
0
 10
1029.1120719389239184
 20
145.0203059638539003
 30
0.0
 40
0.6400773314568833
 50
260.5507343961457991
 51
279.0004805732777982
  0
LINE
  5
DDBA
  8
0
 10
1032.6138605505570922
 20
142.5046357498594034
 30
0.0
 11
1033.610138105957958
 21
142.5046357498594034
 31
0.0
  0
LINE
  5
DDBB
  8
0
 10
1032.6038605504570569
 20
142.874703660220689
 30
0.0
 11
1032.6038605504570569
 21
142.5146357498593943
 31
0.0
  0
LINE
  5
DDBC
  8
0
 10
1032.6038605504570569
 20
142.4696357498594068
 30
0.0
 11
1032.6038605504570569
 21
140.7396357498595023
 31
0.0
  0
LINE
  5
DDBD
  8
0
 10
1032.4351245507571093
 20
143.0412805303593871
 30
0.0
 11
1031.9248705557570247
 21
143.0412805303593871
 31
0.0
  0
LINE
  5
DDBE
  8
0
 10
1031.5046831114570978
 20
143.4596357498593875
 30
0.0
 11
1034.7193155449579081
 21
143.4596357498593875
 31
0.0
  0
LINE
  5
DDBF
  8
0
 10
1031.5438060853568913
 20
143.5083313624371044
 30
0.0
 11
1031.5438060853568913
 21
143.4853126062594129
 31
0.0
  0
LINE
  5
DDC0
  8
0
 10
1031.7470899803579414
 20
143.7120368255594087
 30
0.0
 11
1034.4769086760570644
 21
143.7120368255594087
 31
0.0
  0
ARC
  5
DDC1
  8
0
 10
1032.4341213969780711
 20
142.8715143811799919
 30
0.0
 40
0.169769112987963
 50
1.0764206475449929
 51
89.6614412879444558
  0
ARC
  5
DDC2
  8
0
 10
1031.9248705573579628
 20
143.483780532127696
 30
0.0
 40
0.4425000017682184
 50
185.9974782337743022
 51
269.9999997927317281
  0
LINE
  5
DDC3
  8
0
 10
1031.5451473845439523
 20
143.4803099169594134
 30
0.0
 11
1031.5570921825290043
 21
143.4596357498593875
 31
0.0
  0
ARC
  5
DDC4
  8
0
 10
1031.9872407040550115
 20
143.2810236736426077
 30
0.0
 40
0.5000000081275383
 50
122.6341546877740001
 51
152.0516363013641126
  0
ARC
  5
DDC5
  8
0
 10
1031.5588060853569914
 20
143.5083313624371044
 30
0.0
 40
0.015
 50
152.0516363013510954
 51
180.0000000000536886
  0
ARC
  5
DDC6
  8
0
 10
1031.5538060853571096
 20
143.4853126062594129
 30
0.0
 40
0.01
 50
180.0000000000098055
 51
210.017793257264799
  0
ARC
  5
DDC7
  8
0
 10
1031.7527370020809485
 20
143.6466253152235879
 30
0.0
 40
0.0656548135231346
 50
94.9341511768618034
 51
122.3515758360609027
  0
ARC
  5
DDC8
  8
0
 10
1031.5046831114570978
 20
143.4396357498594909
 30
0.0
 40
0.02
 50
89.9999999999609201
 51
185.9974782436651992
  0
LINE
  5
DDC9
  8
0
 10
1031.5455555303619803
 20
143.5153614970242018
 30
0.0
 11
1034.6784431260530255
 21
143.5153614970242018
 31
0.0
  0
LINE
  5
DDCA
  8
0
 10
1031.5451473845439523
 20
143.4803099169594134
 30
0.0
 11
1034.6788512718699167
 21
143.4803099169594134
 31
0.0
  0
ARC
  5
DDCB
  8
0
 10
1033.1241800940160829
 20
143.4899163937386106
 30
0.0
 40
0.4503331643126183
 50
186.6788511182305967
 51
268.4500550814382223
  0
ARC
  5
DDCC
  8
0
 10
1032.6968050076670806
 20
143.4396249635055085
 30
0.0
 40
0.0200107905019936
 50
90.0368916201279745
 51
185.9783517890182054
  0
LINE
  5
DDCD
  8
0
 10
1033.6201381059570394
 20
142.874703660220689
 30
0.0
 11
1033.6201381059570394
 21
142.5146357498593943
 31
0.0
  0
ARC
  5
DDCE
  8
0
 10
1033.610138105957958
 20
142.5146357498593943
 30
0.0
 40
0.01
 50
270.0
 51
0.0
  0
LINE
  5
DDCF
  8
0
 10
1033.6201381059570394
 20
142.4696357498594068
 30
0.0
 11
1033.6201381059570394
 21
140.7396357498595023
 31
0.0
  0
LINE
  5
DDD0
  8
0
 10
1033.7888741056578965
 20
143.0412805303593871
 30
0.0
 11
1034.2991281006570716
 21
143.0412805303593871
 31
0.0
  0
LINE
  5
DDD1
  8
0
 10
1034.6801925710578871
 20
143.5083313624371044
 30
0.0
 11
1034.6801925710578871
 21
143.4853126062594129
 31
0.0
  0
LINE
  5
DDD2
  8
0
 10
1033.5679493282571002
 20
142.5046357498594034
 30
0.0
 11
1033.5679493282571002
 21
142.4896357498593886
 31
0.0
  0
ARC
  5
DDD3
  8
0
 10
1033.7898772594369348
 20
142.8715143811799919
 30
0.0
 40
0.169769112987963
 50
90.3385587120555584
 51
178.9235793524549933
  0
ARC
  5
DDD4
  8
0
 10
1034.2991280990570431
 20
143.483780532127696
 30
0.0
 40
0.4425000017682184
 50
270.0000002072682719
 51
354.0025217662241062
  0
LINE
  5
DDD5
  8
0
 10
1034.6788512718699167
 20
143.4803099169594134
 30
0.0
 11
1034.6669064738860015
 21
143.4596357498593875
 31
0.0
  0
ARC
  5
DDD6
  8
0
 10
1034.2367579523599943
 20
143.2810236736426077
 30
0.0
 40
0.5000000081275383
 50
27.9483636986359016
 51
57.3658453122259999
  0
ARC
  5
DDD7
  8
0
 10
1034.6651925710571049
 20
143.5083313624371044
 30
0.0
 40
0.015
 50
359.999999999946283
 51
27.9483636986474089
  0
ARC
  5
DDD8
  8
0
 10
1034.6701925710569867
 20
143.4853126062594129
 30
0.0
 40
0.01
 50
329.9822067427365937
 51
359.9999999999902229
  0
ARC
  5
DDD9
  8
0
 10
1034.4712616543340573
 20
143.6466253152235879
 30
0.0
 40
0.0656548135231346
 50
57.6484241639390405
 51
85.0658488231381966
  0
ARC
  5
DDDA
  8
0
 10
1034.7193155449579081
 20
143.4396357498594909
 30
0.0
 40
0.02
 50
354.0025217563347724
 51
90.0000000000390656
  0
ARC
  5
DDDB
  8
0
 10
1033.0998185623980135
 20
143.4899163937386106
 30
0.0
 40
0.4503331643126183
 50
271.5499449185617777
 51
353.3211488817709096
  0
ARC
  5
DDDC
  8
0
 10
1033.5271936487479252
 20
143.4396249635055085
 30
0.0
 40
0.0200107905019936
 50
354.0216482109817093
 51
89.963108379871997
  0
LINE
  5
DDDD
  8
0
 10
1034.0569993282579162
 20
140.7296357498593977
 30
0.0
 11
1032.1669993282569067
 21
140.7296357498593977
 31
0.0
  0
LINE
  5
DDDE
  8
0
 10
1034.0809993282568939
 20
140.5416357498594095
 30
0.0
 11
1032.1429993282570194
 21
140.5416357498594095
 31
0.0
  0
LINE
  5
DDDF
  8
0
 10
1034.0959993282579035
 20
140.6906357498594105
 30
0.0
 11
1034.0959993282579035
 21
140.5566357498593959
 31
0.0
  0
ARC
  5
DDE0
  8
0
 10
1034.0569993282579162
 20
140.6906357498594105
 30
0.0
 40
0.039
 50
0.0
 51
90.0
  0
ARC
  5
DDE1
  8
0
 10
1034.0809993282568939
 20
140.5566357498593959
 30
0.0
 40
0.015
 50
270.0
 51
0.0
  0
ARC
  5
DDE2
  8
0
 10
1033.610138105957958
 20
140.7396357498595023
 30
0.0
 40
0.01
 50
270.0
 51
0.0
  0
LINE
  5
DDE3
  8
0
 10
1033.610138105957958
 20
142.4796357498593977
 30
0.0
 11
1032.6138605505570922
 21
142.4796357498593977
 31
0.0
  0
ARC
  5
DDE4
  8
0
 10
1033.610138105957958
 20
142.4696357498594068
 30
0.0
 40
0.01
 50
0.0000000000048853
 51
90.0
  0
ARC
  5
DE28
  8
0
 10
1033.5779493282570911
 20
142.4896357498593886
 30
0.0
 40
0.01
 50
180.0000000000032117
 51
270.0
  0
ARC
  5
DE29
  8
0
 10
1032.6138605505570922
 20
142.5146357498593943
 30
0.0
 40
0.01
 50
180.0
 51
270.0
  0
LINE
  5
DE2A
  8
0
 10
1032.65604932825795
 20
142.5046357498594034
 30
0.0
 11
1032.65604932825795
 21
142.4896357498593886
 31
0.0
  0
LINE
  5
DE2B
  8
0
 10
1032.1279993282569194
 20
140.6906357498594105
 30
0.0
 11
1032.1279993282569194
 21
140.5566357498593959
 31
0.0
  0
ARC
  5
DE2C
  8
0
 10
1032.1669993282569067
 20
140.6906357498594105
 30
0.0
 40
0.039
 50
90.0
 51
180.0
  0
ARC
  5
DE2D
  8
0
 10
1032.1429993282570194
 20
140.5566357498593959
 30
0.0
 40
0.015
 50
180.0
 51
270.0
  0
ARC
  5
DE2E
  8
0
 10
1032.6138605505570922
 20
140.7396357498595023
 30
0.0
 40
0.01
 50
180.0
 51
270.0
  0
ARC
  5
DE2F
  8
0
 10
1032.6138605505570922
 20
142.4696357498594068
 30
0.0
 40
0.01
 50
90.0
 51
179.9999999999951115
  0
ARC
  5
DE30
  8
0
 10
1032.6460493282579591
 20
142.4896357498593886
 30
0.0
 40
0.01
 50
270.0
 51
359.9999999999968168
  0
ARC
  5
DE43
  8
0
 10
1032.7409624380020432
 20
143.4853126061730109
 30
0.0
 40
0.0099999995941637
 50
179.9999995046680112
 51
210.0177946324976119
  0
LINE
  5
DE44
  8
0
 10
1032.7309624384079143
 20
143.4853126062594129
 30
0.0
 11
1032.7309624386059568
 21
143.5083327521597027
 31
0.0
  0
ARC
  5
DE45
  8
0
 10
1032.745955548819893
 20
143.5083327520300998
 30
0.0
 40
0.0149931102140943
 50
152.0747606323645869
 51
179.9999995046728998
  0
ARC
  5
DE46
  8
0
 10
1033.1738478535310151
 20
143.2815340498368073
 30
0.0
 40
0.4992755440762659
 50
122.6131120146409046
 51
152.0747606323645869
  0
ARC
  5
DE47
  8
0
 10
1032.9387632061821023
 20
143.6489403968899978
 30
0.0
 40
0.0630964349086386
 50
90.0254800609208843
 51
122.6131120146409046
  0
ARC
  5
DE48
  8
0
 10
1033.2852827973079002
 20
143.6490368255593921
 30
0.0
 40
0.0630000000000173
 50
57.3676890725023014
 51
90.0006142932911644
  0
ARC
  5
DE49
  8
0
 10
1033.0494927213931078
 20
143.2807998390659918
 30
0.0
 40
0.5002590057636218
 50
27.9640161386418988
 51
57.3676890725023014
  0
ARC
  5
DE4A
  8
0
 10
1033.478370831508073
 20
143.5084929896567019
 30
0.0
 40
0.0146865558019049
 50
359.3250558296529107
 51
27.9640161386418988
  0
LINE
  5
DE4B
  8
0
 10
1033.4930563683080891
 20
143.508319986059405
 30
0.0
 11
1033.4930563683080891
 21
143.4853126062594129
 31
0.0
  0
ARC
  5
DE4C
  8
0
 10
1033.4830563683069613
 20
143.4853126062594981
 30
0.0
 40
0.0100000000000673
 50
330.0090316796278103
 51
359.9999999998777866
  0
LINE
  5
DE4D
  8
0
 10
1028.5120094033079567
 20
144.9809074689343902
 30
0.0
 11
1028.5120094033079567
 21
140.7396357498595023
 31
0.0
  0
LINE
  5
DE4E
  8
0
 10
1025.6101582560570478
 20
142.5046357498594034
 30
0.0
 11
1024.6138807006570914
 21
142.5046357498594034
 31
0.0
  0
LINE
  5
DE4F
  8
0
 10
1025.6201582561570831
 20
142.874703660220689
 30
0.0
 11
1025.6201582561570831
 21
142.5146357498593943
 31
0.0
  0
LINE
  5
DE50
  8
0
 10
1025.6201582561570831
 20
142.4696357498594068
 30
0.0
 11
1025.6201582561570831
 21
140.7396357498595023
 31
0.0
  0
LINE
  5
DE51
  8
0
 10
1025.7888942558579402
 20
143.0412805303593871
 30
0.0
 11
1026.2991482508568879
 21
143.0412805303593871
 31
0.0
  0
LINE
  5
DE52
  8
0
 10
1026.7193356951579517
 20
143.4596357498593875
 30
0.0
 11
1023.5047032616570277
 21
143.4596357498593875
 31
0.0
  0
LINE
  5
DE53
  8
0
 10
1026.6802127212570213
 20
143.5083313624371044
 30
0.0
 11
1026.6802127212570213
 21
143.4853126062594129
 31
0.0
  0
LINE
  5
DE54
  8
0
 10
1026.4769288262571081
 20
143.7120368255594087
 30
0.0
 11
1023.7471101305569618
 21
143.7120368255594087
 31
0.0
  0
ARC
  5
DE55
  8
0
 10
1025.7898974096369784
 20
142.8715143811799919
 30
0.0
 40
0.169769112987963
 50
90.3385587120555584
 51
178.9235793524549933
  0
ARC
  5
DE56
  8
0
 10
1026.2991482492570867
 20
143.483780532127696
 30
0.0
 40
0.4425000017682184
 50
270.0000002072682719
 51
354.0025217662256978
  0
LINE
  5
DE57
  8
0
 10
1026.6788714220699603
 20
143.4803099169594134
 30
0.0
 11
1026.6669266240860452
 21
143.4596357498593875
 31
0.0
  0
ARC
  5
DE58
  8
0
 10
1026.236778102560038
 20
143.2810236736426077
 30
0.0
 40
0.5000000081275383
 50
27.9483636986359016
 51
57.3658453122259999
  0
ARC
  5
DE59
  8
0
 10
1026.6652127212569212
 20
143.5083313624371044
 30
0.0
 40
0.015
 50
359.999999999946283
 51
27.9483636986474089
  0
ARC
  5
DE5A
  8
0
 10
1026.6702127212570304
 20
143.4853126062594129
 30
0.0
 40
0.01
 50
329.9822067427351726
 51
359.9999999999902229
  0
ARC
  5
DE5B
  8
0
 10
1026.471281804534101
 20
143.6466253152235879
 30
0.0
 40
0.0656548135231346
 50
57.6484241639390405
 51
85.0658488231381966
  0
ARC
  5
DE5C
  8
0
 10
1026.7193356951579517
 20
143.4396357498594909
 30
0.0
 40
0.02
 50
354.0025217563347724
 51
90.0000000000390656
  0
LINE
  5
DE5D
  8
0
 10
1026.6784632762530691
 20
143.5153614970242018
 30
0.0
 11
1023.545575680562024
 21
143.5153614970242018
 31
0.0
  0
LINE
  5
DE5E
  8
0
 10
1026.6788714220699603
 20
143.4803099169594134
 30
0.0
 11
1023.5451675347439959
 21
143.4803099169594134
 31
0.0
  0
ARC
  5
DE5F
  8
0
 10
1025.0998387125980571
 20
143.4899163937386106
 30
0.0
 40
0.4503331643126183
 50
271.5499449185617777
 51
353.3211488817693748
  0
ARC
  5
DE60
  8
0
 10
1025.5272137989479688
 20
143.4396249635055085
 30
0.0
 40
0.0200107905019936
 50
354.0216482109817093
 51
89.963108379871997
  0
LINE
  5
DE61
  8
0
 10
1024.6038807006571005
 20
142.874703660220689
 30
0.0
 11
1024.6038807006571005
 21
142.5146357498593943
 31
0.0
  0
ARC
  5
DE62
  8
0
 10
1024.6138807006570914
 20
142.5146357498593943
 30
0.0
 40
0.01
 50
180.0
 51
270.0
  0
LINE
  5
DE63
  8
0
 10
1024.6038807006571005
 20
142.4696357498594068
 30
0.0
 11
1024.6038807006571005
 21
140.7396357498595023
 31
0.0
  0
LINE
  5
DE64
  8
0
 10
1024.4351447009569256
 20
143.0412805303593871
 30
0.0
 11
1023.9248907059569547
 21
143.0412805303593871
 31
0.0
  0
LINE
  5
DE65
  8
0
 10
1023.5438262355570487
 20
143.5083313624371044
 30
0.0
 11
1023.5438262355570487
 21
143.4853126062594129
 31
0.0
  0
LINE
  5
DE66
  8
0
 10
1024.6560694783570398
 20
142.5046357498594034
 30
0.0
 11
1024.6560694783570398
 21
142.4896357498593886
 31
0.0
  0
ARC
  5
DE67
  8
0
 10
1024.4341415471778873
 20
142.8715143811799919
 30
0.0
 40
0.169769112987963
 50
1.0764206475449929
 51
89.6614412879444558
  0
ARC
  5
DE68
  8
0
 10
1023.9248907075580064
 20
143.483780532127696
 30
0.0
 40
0.4425000017682184
 50
185.9974782337743022
 51
269.9999997927317281
  0
LINE
  5
DE69
  8
0
 10
1023.5451675347439959
 20
143.4803099169594134
 30
0.0
 11
1023.5571123327290479
 21
143.4596357498593875
 31
0.0
  0
ARC
  5
DE6A
  8
0
 10
1023.9872608542550552
 20
143.2810236736426077
 30
0.0
 40
0.5000000081275383
 50
122.6341546877740001
 51
152.0516363013641126
  0
ARC
  5
DE6B
  8
0
 10
1023.558826235557035
 20
143.5083313624371044
 30
0.0
 40
0.015
 50
152.0516363013526018
 51
180.0000000000536886
  0
ARC
  5
DE6C
  8
0
 10
1023.5538262355570396
 20
143.4853126062594129
 30
0.0
 40
0.01
 50
180.0000000000098055
 51
210.0177932572634063
  0
ARC
  5
DE6D
  8
0
 10
1023.7527571522809922
 20
143.6466253152235879
 30
0.0
 40
0.0656548135231346
 50
94.9341511768618034
 51
122.3515758360609027
  0
ARC
  5
DE6E
  8
0
 10
1023.5047032616570277
 20
143.4396357498594909
 30
0.0
 40
0.02
 50
89.9999999999609201
 51
185.9974782436651992
  0
ARC
  5
DE6F
  8
0
 10
1025.124200244217036
 20
143.4899163937386106
 30
0.0
 40
0.4503331643126183
 50
186.6788511182288914
 51
268.4500550814382223
  0
ARC
  5
DE70
  8
0
 10
1024.6968251578659874
 20
143.4396249635055085
 30
0.0
 40
0.0200107905019936
 50
90.0368916201279745
 51
185.9783517890182054
  0
LINE
  5
DE71
  8
0
 10
1024.1670194783569059
 20
140.7296357498593977
 30
0.0
 11
1026.0570194783579154
 21
140.7296357498593977
 31
0.0
  0
LINE
  5
DE72
  8
0
 10
1024.1430194783579282
 20
140.5416357498594095
 30
0.0
 11
1026.0810194783568932
 21
140.5416357498594095
 31
0.0
  0
LINE
  5
DE73
  8
0
 10
1024.1280194783569186
 20
140.6906357498594105
 30
0.0
 11
1024.1280194783569186
 21
140.5566357498593959
 31
0.0
  0
ARC
  5
DE74
  8
0
 10
1024.1670194783569059
 20
140.6906357498594105
 30
0.0
 40
0.039
 50
90.0
 51
180.0
  0
ARC
  5
DE75
  8
0
 10
1024.1430194783579282
 20
140.5566357498593959
 30
0.0
 40
0.015
 50
180.0
 51
270.0
  0
ARC
  5
DE76
  8
0
 10
1024.6138807006570914
 20
140.7396357498595023
 30
0.0
 40
0.01
 50
180.0
 51
270.0
  0
LINE
  5
DE77
  8
0
 10
1024.6138807006570914
 20
142.4796357498593977
 30
0.0
 11
1025.6101582560570478
 21
142.4796357498593977
 31
0.0
  0
ARC
  5
DE78
  8
0
 10
1024.6138807006570914
 20
142.4696357498594068
 30
0.0
 40
0.01
 50
90.0
 51
179.9999999999951115
  0
ARC
  5
DEBC
  8
0
 10
1024.6460694783570489
 20
142.4896357498593886
 30
0.0
 40
0.01
 50
270.0
 51
359.9999999999968168
  0
ARC
  5
DEBD
  8
0
 10
1025.6101582560570478
 20
142.5146357498593943
 30
0.0
 40
0.01
 50
270.0
 51
0.0
  0
LINE
  5
DEBE
  8
0
 10
1025.5679694783570994
 20
142.5046357498594034
 30
0.0
 11
1025.5679694783570994
 21
142.4896357498593886
 31
0.0
  0
LINE
  5
DEBF
  8
0
 10
1026.0960194783569932
 20
140.6906357498594105
 30
0.0
 11
1026.0960194783569932
 21
140.5566357498593959
 31
0.0
  0
ARC
  5
DEC0
  8
0
 10
1026.0570194783579154
 20
140.6906357498594105
 30
0.0
 40
0.039
 50
0.0
 51
90.0
  0
ARC
  5
DEC1
  8
0
 10
1026.0810194783568932
 20
140.5566357498593959
 30
0.0
 40
0.015
 50
270.0
 51
0.0
  0
ARC
  5
DEC2
  8
0
 10
1025.6101582560570478
 20
140.7396357498595023
 30
0.0
 40
0.01
 50
270.0
 51
0.0
  0
ARC
  5
DEC3
  8
0
 10
1025.6101582560570478
 20
142.4696357498594068
 30
0.0
 40
0.01
 50
0.0000000000048853
 51
90.0
  0
ARC
  5
DEC4
  8
0
 10
1025.5779694783570903
 20
142.4896357498593886
 30
0.0
 40
0.01
 50
180.0000000000032117
 51
270.0
  0
ARC
  5
DEC5
  8
0
 10
1025.4830563686130063
 20
143.4853126061730109
 30
0.0
 40
0.0099999995941637
 50
329.9822053675023881
 51
0.0000004953319528
  0
LINE
  5
DEC6
  8
0
 10
1025.4930563682069078
 20
143.4853126062594129
 30
0.0
 11
1025.4930563680079558
 21
143.5083327521597027
 31
0.0
  0
ARC
  5
DEC7
  8
0
 10
1025.4780632577940196
 20
143.5083327520300998
 30
0.0
 40
0.0149931102140943
 50
0.0000004953270674
 51
27.9252393676353812
  0
ARC
  5
DEC8
  8
0
 10
1025.0501709530828975
 20
143.2815340498368073
 30
0.0
 40
0.4992755440762659
 50
27.9252393676353812
 51
57.3868879853591025
  0
ARC
  5
DEC9
  8
0
 10
1025.2852556004329472
 20
143.6489403968899978
 30
0.0
 40
0.0630964349086386
 50
57.3868879853591025
 51
89.9745199390791157
  0
ARC
  5
DECA
  8
0
 10
1024.9387360093069219
 20
143.6490368255593921
 30
0.0
 40
0.0630000000000173
 50
89.9993857067088356
 51
122.6323109274976986
  0
ARC
  5
DECB
  8
0
 10
1025.1745260852219417
 20
143.2807998390659918
 30
0.0
 40
0.5002590057636218
 50
122.6323109274976986
 51
152.0359838613580905
  0
ARC
  5
DECC
  8
0
 10
1024.745647975106067
 20
143.5084929896567019
 30
0.0
 40
0.0146865558019049
 50
152.0359838613580905
 51
180.6749441703470893
  0
LINE
  5
DECD
  8
0
 10
1024.7309624383069604
 20
143.508319986059405
 30
0.0
 11
1024.7309624383069604
 21
143.4853126062594129
 31
0.0
  0
ARC
  5
DECE
  8
0
 10
1024.7409624383069513
 20
143.4853126062594981
 30
0.0
 40
0.0100000000000673
 50
180.0000000001220997
 51
209.9909683203721897
  0
ENDSEC
  0
EOF
