  0
SECTION
  2
HEADER
  9
$ACADVER
  1
AC1009
  9
$INSBASE
 10
367.8063990956715088
 20
57.281521636005543
 30
0.0
  9
$EXTMIN
 10
361.3043003350132949
 20
57.2774634722955795
 30
-0.0015258207003583
  9
$EXTMAX
 10
368.8457772304439004
 20
60.4309603689139792
 30
0.0000000349246037
  9
$LIMMIN
 10
0.0
 20
0.0
  9
$LIMMAX
 10
11.6929133858000007
 20
8.2677165353999982
  9
$ORTHOMODE
 70
     0
  9
$REGENMODE
 70
     1
  9
$FILLMODE
 70
     1
  9
$QTEXTMODE
 70
     0
  9
$MIRRTEXT
 70
     0
  9
$DRAGMODE
 70
     2
  9
$LTSCALE
 40
0.6431102362
  9
$OSMODE
 70
  4095
  9
$ATTMODE
 70
     1
  9
$TEXTSIZE
 40
0.2
  9
$TRACEWID
 40
0.05
  9
$TEXTSTYLE
  7
STANDARD
  9
$CLAYER
  8
0
  9
$CELTYPE
  6
BYLAYER
  9
$CECOLOR
 62
   256
  9
$DIMSCALE
 40
1.0
  9
$DIMASZ
 40
0.1875
  9
$DIMEXO
 40
0.0625
  9
$DIMDLI
 40
0.4443307087
  9
$DIMRND
 40
0.0
  9
$DIMDLE
 40
0.0
  9
$DIMEXE
 40
0.125
  9
$DIMTP
 40
0.01
  9
$DIMTM
 40
0.01
  9
$DIMTXT
 40
1.0
  9
$DIMCEN
 40
0.1052362205
  9
$DIMTSZ
 40
0.0
  9
$DIMTOL
 70
     1
  9
$DIMLIM
 70
     0
  9
$DIMTIH
 70
     0
  9
$DIMTOH
 70
     1
  9
$DIMSE1
 70
     0
  9
$DIMSE2
 70
     0
  9
$DIMTAD
 70
     0
  9
$DIMZIN
 70
     0
  9
$DIMBLK
  1

  9
$DIMASO
 70
     1
  9
$DIMSHO
 70
     1
  9
$DIMPOST
  1
\X
  9
$DIMAPOST
  1

  9
$DIMALT
 70
     1
  9
$DIMALTD
 70
     2
  9
$DIMALTF
 40
25.3999999999999986
  9
$DIMLFAC
 40
1.0
  9
$DIMTOFL
 70
     0
  9
$DIMTVP
 40
0.0
  9
$DIMTIX
 70
     0
  9
$DIMSOXD
 70
     0
  9
$DIMSAH
 70
     0
  9
$DIMBLK1
  1

  9
$DIMBLK2
  1

  9
$DIMSTYLE
  2
STANDARD
  9
$DIMCLRD
 70
     0
  9
$DIMCLRE
 70
     0
  9
$DIMCLRT
 70
     0
  9
$DIMTFAC
 40
1.0
  9
$DIMGAP
 40
0.09
  9
$LUNITS
 70
     2
  9
$LUPREC
 70
     4
  9
$SKETCHINC
 40
0.1
  9
$FILLETRAD
 40
0.0
  9
$AUNITS
 70
     0
  9
$AUPREC
 70
     0
  9
$MENU
  1
.
  9
$ELEVATION
 40
0.0
  9
$PELEVATION
 40
0.0
  9
$THICKNESS
 40
0.0
  9
$LIMCHECK
 70
     0
  9
$BLIPMODE
 70
     0
  9
$CHAMFERA
 40
0.0
  9
$CHAMFERB
 40
0.0
  9
$SKPOLY
 70
     0
  9
$TDCREATE
 40
2458172.5207638889551163
  9
$TDUPDATE
 40
2459989.807465277146548
  9
$TDINDWG
 40
0.2851013657
  9
$TDUSRTIMER
 40
0.2851013657
  9
$USRTIMER
 70
     1
  9
$ANGBASE
 50
0.0
  9
$ANGDIR
 70
     0
  9
$PDMODE
 70
     0
  9
$PDSIZE
 40
0.3125
  9
$PLINEWID
 40
0.0
  9
$COORDS
 70
     1
  9
$SPLFRAME
 70
     0
  9
$SPLINETYPE
 70
     6
  9
$SPLINESEGS
 70
     8
  9
$ATTDIA
 70
     1
  9
$ATTREQ
 70
     1
  9
$HANDLING
 70
     1
  9
$HANDSEED
  5
1114C
  9
$SURFTAB1
 70
     6
  9
$SURFTAB2
 70
     6
  9
$SURFTYPE
 70
     6
  9
$SURFU
 70
     6
  9
$SURFV
 70
     6
  9
$UCSNAME
  2

  9
$UCSORG
 10
0.0
 20
0.0
 30
0.0
  9
$UCSXDIR
 10
1.0
 20
0.0
 30
0.0
  9
$UCSYDIR
 10
0.0
 20
1.0
 30
0.0
  9
$PUCSNAME
  2

  9
$PUCSORG
 10
0.0
 20
0.0
 30
0.0
  9
$PUCSXDIR
 10
1.0
 20
0.0
 30
0.0
  9
$PUCSYDIR
 10
0.0
 20
1.0
 30
0.0
  9
$USERI1
 70
     0
  9
$USERI2
 70
     0
  9
$USERI3
 70
     0
  9
$USERI4
 70
     0
  9
$USERI5
 70
     0
  9
$USERR1
 40
0.0
  9
$USERR2
 40
0.0
  9
$USERR3
 40
0.0
  9
$USERR4
 40
0.0
  9
$USERR5
 40
0.0
  9
$WORLDVIEW
 70
     1
  9
$SHADEDGE
 70
     3
  9
$SHADEDIF
 70
    70
  9
$TILEMODE
 70
     1
  9
$MAXACTVP
 70
    64
  9
$PLIMCHECK
 70
     0
  9
$PEXTMIN
 10
1.0000000000000000E+20
 20
1.0000000000000000E+20
 30
1.0000000000000000E+20
  9
$PEXTMAX
 10
-1.0000000000000000E+20
 20
-1.0000000000000000E+20
 30
-1.0000000000000000E+20
  9
$PLIMMIN
 10
0.0
 20
0.0
  9
$PLIMMAX
 10
12.0
 20
9.0
  9
$UNITMODE
 70
     0
  9
$VISRETAIN
 70
     1
  9
$PLINEGEN
 70
     0
  9
$PSLTSCALE
 70
     1
  0
ENDSEC
  0
SECTION
  2
TABLES
  0
TABLE
  2
VPORT
 70
     1
  0
VPORT
  2
*ACTIVE
 70
     0
 10
0.0
 20
0.0
 11
1.0
 21
1.0
 12
-64.5542503253251425
 22
-10.8483295916139006
 13
0.0
 23
0.0
 14
1.0
 24
1.0
 15
0.0
 25
0.0
 16
0.0
 26
0.0
 36
14.6338572656650907
 17
429.6292891080536833
 27
69.7025415122186871
 37
0.0
 40
3.3134542578230088
 41
2.2831541218637992
 42
50.0
 43
0.0
 44
0.0
 50
0.0
 51
0.0
 71
     0
 72
   100
 73
     1
 74
     1
 75
     0
 76
     0
 77
     0
 78
     1
  0
ENDTAB
  0
TABLE
  2
LTYPE
 70
     2
  0
LTYPE
  2
CONTINUOUS
 70
     0
  3
Solid line
 72
    65
 73
     0
 40
0.0
  0
LTYPE
  2
PHANTOM2
 70
     0
  3
___ _ _ ___ _ _ ___ _ _ ___ _ _
 72
    65
 73
     6
 40
1.25
 49
0.625
 49
-0.125
 49
0.125
 49
-0.125
 49
0.125
 49
-0.125
  0
ENDTAB
  0
TABLE
  2
LAYER
 70
     2
  0
LAYER
  2
0
 70
     0
 62
   255
  6
CONTINUOUS
  0
LAYER
  2
DEFPOINTS
 70
     0
 62
     7
  6
CONTINUOUS
  0
ENDTAB
  0
TABLE
  2
STYLE
 70
     1
  0
STYLE
  2
STANDARD
 70
     0
 40
0.0
 41
0.8
 50
0.0
 71
     0
 42
0.2
  3
txt
  4

  0
ENDTAB
  0
TABLE
  2
VIEW
 70
     0
  0
ENDTAB
  0
TABLE
  2
UCS
 70
     0
  0
ENDTAB
  0
TABLE
  2
APPID
 70
    10
  0
APPID
  2
ACAD
 70
     0
  0
APPID
  2
ACAD_MLEADERVER
 70
     0
  0
APPID
  2
ACAD_EXEMPT_FROM_CAD_STANDARDS
 70
     0
  0
APPID
  2
ACAD_DSTYLE_DIMJAG
 70
     0
  0
APPID
  2
ACAD_DSTYLE_DIMTALN
 70
     0
  0
APPID
  2
ACAD_NAV_VCDISPLAY
 70
     0
  0
APPID
  2
ACAECLAYERSTANDARD
 70
     0
  0
APPID
  2
ACCMTRANSPARENCY
 70
     0
  0
APPID
  2
DCO15
 70
     0
  0
APPID
  2
ACDBATTR
 70
     0
  0
ENDTAB
  0
TABLE
  2
DIMSTYLE
 70
     1
  0
DIMSTYLE
  2
STANDARD
 70
     0
  3

  4

  5

  6

  7

 40
1.0
 41
0.1875
 42
0.0625
 43
0.38
 44
0.125
 45
0.0
 46
0.0
 47
0.01
 48
0.01
140
0.15625
141
0.09
142
0.0
143
25.3999999999999986
144
1.0
145
0.0
146
1.0
147
0.09
 71
     1
 72
     0
 73
     1
 74
     1
 75
     0
 76
     0
 77
     0
 78
     4
170
     0
171
     2
172
     0
173
     0
174
     0
175
     0
176
     0
177
     0
178
     0
  0
ENDTAB
  0
ENDSEC
  0
SECTION
  2
BLOCKS
  0
BLOCK
  8
0
  2
$MODEL_SPACE
 70
     0
 10
0.0
 20
0.0
 30
0.0
  3
$MODEL_SPACE
  1

  0
ENDBLK
  5
21
  8
0
  0
BLOCK
 67
     1
  8
0
  2
$PAPER_SPACE
 70
     0
 10
0.0
 20
0.0
 30
0.0
  3
$PAPER_SPACE
  1

  0
ENDBLK
  5
1D
 67
     1
  8
0
  0
BLOCK
  8
0
  2
_FILLED
 70
     0
 10
0.0
 20
0.0
 30
0.0
  3
_FILLED
  1

  0
SOLID
  5
87E2
  8
0
  6
BYBLOCK
 62
     0
 10
0.0
 20
0.0
 30
0.0
 11
-1.0
 21
0.1666666667
 31
0.0
 12
-1.0
 22
-0.1666666667
 32
0.0
 13
-1.0
 23
-0.1666666667
 33
0.0
  0
ENDBLK
  5
87E3
  8
0
  6
BYBLOCK
 62
     0
  0
ENDSEC
  0
SECTION
  2
ENTITIES
  0
ATTDEF
  5
FA5B
  8
DEFPOINTS
 10
367.807171190795998
 20
57.285696424120303
 30
0.0
 40
0.001
  1
P32445-LV
  3

  2
MODELNUMBER
 70
     0
1001
ACDBATTR
1070
     0
1070
     1
  0
ATTDEF
  5
FA5C
  8
DEFPOINTS
 10
367.807171190795998
 20
57.2840297574536379
 30
0.0
 40
0.001
  1
PER SE
  3

  2
TRADENAME
 70
     0
1001
ACDBATTR
1070
     0
1070
     1
  0
ATTDEF
  5
FA5D
  8
DEFPOINTS
 10
367.807171190795998
 20
57.2823630907869727
 30
0.0
 40
0.001
  1
BATHROOM SINK FAUCET
  3

  2
PRODUCT
 70
     0
1001
ACDBATTR
1070
     0
1070
     1
  0
LINE
  5
10FDB
  8
0
 10
366.9554823501798069
 20
57.281521636005543
 30
0.0
 11
368.657315841163097
 21
57.281521636005543
 31
0.0
  0
LINE
  5
10FDC
  8
0
 10
366.9463532855140784
 20
57.5256161242055271
 30
0.0
 11
368.6567678990439276
 21
57.5256161242055271
 31
0.0
  0
LINE
  5
10FDD
  8
0
 10
366.9136383698619852
 20
57.3202377292383076
 30
0.0
 11
368.6991598213083989
 21
57.3202377292383076
 31
0.0
  0
LINE
  5
10FDE
  8
0
 10
367.2994236986652936
 20
57.7790824365383813
 30
0.0
 11
368.3126675376684034
 21
57.7790824365383813
 31
0.0
  0
LINE
  5
10FDF
  8
0
 10
367.2933775541645787
 20
57.7990826359740879
 30
0.0
 11
368.3187274117053107
 21
57.7990826359740879
 31
0.0
  0
ARC
  5
10FE0
  8
0
 10
366.9190812956092032
 20
57.2834734389954292
 30
0.0
 40
0.0364533442657486
 50
356.9307733638630111
 51
42.3956607462317692
  0
ARC
  5
10FE1
  8
0
 10
366.9153348861274253
 20
57.2736563386395403
 30
0.0
 40
0.0460820105561237
 50
48.2795381948438092
 51
82.642202598288776
  0
ARC
  5
10FE2
  8
0
 10
366.9078781122080954
 20
57.2371527436916381
 30
0.0
 40
0.0832844246635041
 50
80.7702685709103179
 51
86.0340465657876763
  0
ARC
  5
10FE3
  8
0
 10
366.9149963184091803
 20
57.3398245502091086
 30
0.0
 40
0.019633837627906
 50
179.8201848143532118
 51
266.0340465657877189
  0
ARC
  5
10FE4
  8
0
 10
368.5603901565958154
 20
57.3346606834748016
 30
0.0
 40
1.6650357788757559
 50
175.3134526283980961
 51
179.8201848143532118
  0
ARC
  5
10FE5
  8
0
 10
366.9604623060270114
 20
57.4658205137635818
 30
0.0
 40
0.0597407816534167
 50
107.4775984396159032
 51
175.3134526283990056
  0
ARC
  5
10FE6
  8
0
 10
366.9608676013298236
 20
57.4645333266701925
 30
0.0
 40
0.0610902685543704
 50
89.1039216999877652
 51
107.4775984396161022
  0
ARC
  5
10FE7
  8
0
 10
366.9820550268898955
 20
57.4728966644690331
 30
0.0
 40
0.0636706822028785
 50
124.1059490953066984
 51
128.3905272221498137
  0
ARC
  5
10FE8
  8
0
 10
366.9813605463716044
 20
57.4739221785283974
 30
0.0
 40
0.0624321418214873
 50
110.412304156551798
 51
124.1059490953039983
  0
ARC
  5
10FE9
  8
0
 10
366.8787521367812019
 20
57.7496466279657525
 30
0.0
 40
0.2317658488857926
 50
290.4123041565520111
 51
308.974762933828913
  0
ARC
  5
10FEA
  8
0
 10
366.7091220217157002
 20
57.9906137902408716
 30
0.0
 40
0.5261613961134655
 50
306.8302844458410732
 51
323.0539807617187194
  0
ARC
  5
10FEB
  8
0
 10
366.8216090631934776
 20
57.9119064216208201
 30
0.0
 40
0.3889819763959934
 50
322.3603987169319112
 51
340.0338051731051792
  0
ARC
  5
10FEC
  8
0
 10
366.6706656115218266
 20
57.9520694774711131
 30
0.0
 40
0.5447418118900936
 50
341.4847016163084845
 51
356.5218709406884159
  0
ARC
  5
10FED
  8
0
 10
367.3017665926549853
 20
57.7489106771309935
 30
0.0
 40
0.0302625877608664
 50
94.4402150242371192
 51
171.6271681844623913
  0
ARC
  5
10FEE
  8
0
 10
366.016444552286714
 20
57.9164949674822012
 30
0.0
 40
1.2659427015691329
 50
346.5410352718805029
 51
352.5940763775057007
  0
ARC
  5
10FEF
  8
0
 10
367.005319609981882
 20
57.6755297774295528
 30
0.0
 40
0.2481762105974203
 50
322.8386741330110112
 51
347.507943464923585
  0
ARC
  5
10FF0
  8
0
 10
367.2948024272278076
 20
57.8142220528477608
 30
0.0
 40
0.0152063212685102
 50
177.0749530414495894
 51
264.6233442046578261
  0
ARC
  5
10FF1
  8
0
 10
369.536709750158991
 20
57.6996693363518105
 30
0.0
 40
2.2600383349099369
 50
174.4302296327605859
 51
177.0749530414495894
  0
ARC
  5
10FF2
  8
0
 10
354.6254123630486106
 20
59.1537923032507322
 30
0.0
 40
12.7219930150008
 50
354.4302296327605859
 51
357.0774450739876897
  0
ARC
  5
10FF3
  8
0
 10
393.5845962642609948
 20
57.1648289385889825
 30
0.0
 40
26.2879286141750903
 50
176.0939978058387965
 51
177.0774450739876897
  0
ARC
  5
10FF4
  8
0
 10
372.8958151288235854
 20
58.5774259442582874
 30
0.0
 40
5.5509786173588953
 50
173.821858604018189
 51
176.0939978058391944
  0
ARC
  5
10FF5
  8
0
 10
367.4894226564341011
 20
59.1626612978804118
 30
0.0
 40
0.1130028924554721
 50
91.3238427361831242
 51
173.8218586040185869
  0
ARC
  5
10FF6
  8
0
 10
367.4899304833388101
 20
59.1406865122151189
 30
0.0
 40
0.1349835451573522
 50
81.8961173773872844
 51
91.3238427361798557
  0
ARC
  5
10FF7
  8
0
 10
367.8069697068725077
 20
61.3672385744801403
 30
0.0
 40
2.1140268939548141
 50
261.896117377387327
 51
276.744844536786502
  0
ARC
  5
10FF8
  8
0
 10
367.8589697081337135
 20
60.9275538392342
 30
0.0
 40
1.6712779057691221
 50
276.744844536786502
 51
278.6104831280399026
  0
ARC
  5
10FF9
  8
0
 10
368.1210391261128052
 20
59.1602125167074817
 30
0.0
 40
0.115510028749738
 50
11.41691957787455
 51
95.8892240670119236
  0
ARC
  5
10FFA
  8
0
 10
366.7559544379028011
 20
58.9569788639337204
 30
0.0
 40
1.4954993489061721
 50
3.2063188661352551
 51
8.6956605168475356
  0
ARC
  5
10FFB
  8
0
 10
411.2845146482333121
 20
61.4514380927923725
 30
0.0
 40
43.1028750749387868
 50
183.2063188661352058
 51
184.0629441730031033
  0
ARC
  5
10FFC
  8
0
 10
463.1141717397900948
 20
65.1329427985420466
 30
0.0
 40
95.0631178681246212
 50
184.0629441730031033
 51
184.4155418101541102
  0
ARC
  5
10FFD
  8
0
 10
368.3181952092004963
 20
57.8140882230496871
 30
0.0
 40
0.015015021911059
 50
272.031255499289216
 51
359.9786743081244822
  0
ARC
  5
10FFE
  8
0
 10
368.3111403590527857
 20
57.7488471403331687
 30
0.0
 40
0.0302738403764881
 50
43.3679407350805022
 51
87.1084592510942883
  0
ARC
  5
10FFF
  8
0
 10
368.3114906003697229
 20
57.7491779760528985
 30
0.0
 40
0.029792050740302
 50
7.9925959776962356
 51
43.3679407350802109
  0
ARC
  5
11000
  8
0
 10
369.484767100560191
 20
57.8977618805068417
 30
0.0
 40
1.1528581666127971
 50
187.1974964608689902
 51
194.440870738711709
  0
ARC
  5
11001
  8
0
 10
368.5817660494428765
 20
57.6620766872888808
 30
0.0
 40
0.2196327658576176
 50
193.6457712218847007
 51
218.4120370753360021
  0
ARC
  5
11002
  8
0
 10
368.8097447693103277
 20
58.3046898619642988
 30
0.0
 40
0.7924805572896413
 50
235.2539510786772894
 51
244.3751635963093065
  0
ARC
  5
11003
  8
0
 10
368.8435163993970036
 20
58.3750983510619932
 30
0.0
 40
0.870569470303806
 50
244.3751635963093065
 51
253.288626343868799
  0
ARC
  5
11004
  8
0
 10
368.712490663617416
 20
57.9386815987589827
 30
0.0
 40
0.414908055295571
 50
253.288626343868799
 51
260.309347407491714
  0
ARC
  5
11005
  8
0
 10
368.6315882298634961
 20
57.4649174958323812
 30
0.0
 40
0.0657140717534876
 50
67.469813641408777
 51
80.3093474074917424
  0
ARC
  5
11006
  8
0
 10
368.6517215796512801
 20
57.4654425554967432
 30
0.0
 40
0.0603847970151812
 50
4.996349553424948
 51
85.2062369585043768
  0
LINE
  5
11007
  8
0
 10
368.7118769294714866
 20
57.470701604705539
 30
0.0
 11
368.7174284183731174
 21
57.3393537429955629
 31
0.0
  0
ARC
  5
11008
  8
0
 10
368.6977356156713768
 20
57.3398861847055272
 30
0.0
 40
0.0196999993000038
 50
274.164010341336791
 51
358.4512497849046895
  0
ARC
  5
11009
  8
0
 10
368.7038136870580161
 20
57.2564006807098167
 30
0.0
 40
0.0640064659771719
 50
94.1640103413368763
 51
122.7762197790714964
  0
ARC
  5
1100A
  8
0
 10
368.6884474479185769
 20
57.2854616077161296
 30
0.0
 40
0.0313799349307696
 50
127.9185746821217009
 51
187.2129252027395978
  0
ARC
  5
1100B
  8
0
 10
-617.2494309238562664
 20
161.9957100437817132
 30
0.0
 40
989.9499984614112691
 50
353.9651546543140057
 51
353.9926407263341162
  0
ARC
  5
1100C
  8
0
 10
1691.3297694241900899
 20
-80.9455431801918763
 30
0.0
 40
1331.376858488652033
 50
173.9587347502958892
 51
173.9926407263332919
  0
ARC
  5
1100D
  8
0
 10
363.1651782988121226
 20
59.6173842816630071
 30
0.0
 40
4.205081227473852
 50
353.9587347502958892
 51
356.0705808317778178
  0
ARC
  5
1100E
  8
0
 10
366.9255575376375873
 20
59.3590874924755596
 30
0.0
 40
0.4358413503772737
 50
356.0705808317778178
 51
16.2537748943685791
  0
ARC
  5
1100F
  8
0
 10
367.1485515859503153
 20
59.4108308305094113
 30
0.0
 40
0.2076685952383937
 50
19.7706957997708415
 51
55.4825349758427677
  0
ARC
  5
11010
  8
0
 10
362.5531855902439133
 20
59.8028797290048431
 30
0.0
 40
0.0302085748226445
 50
265.9093956862038794
 51
313.5672593651132161
  0
ARC
  5
11011
  8
0
 10
362.7044415982575742
 20
59.6438634210324565
 30
0.0
 40
0.1892556959856019
 50
87.7088826619727655
 51
133.5672593651136992
  0
LINE
  5
11012
  8
0
 10
362.7120074514983799
 20
59.8329678269243814
 30
0.0
 11
366.8836320208852158
 21
59.6541972712696875
 31
0.0
  0
ARC
  5
11013
  8
0
 10
366.771319776856501
 20
56.5617147906140687
 30
0.0
 40
3.094521276921633
 50
84.2264882552586585
 51
87.9200559362832621
  0
ARC
  5
11014
  8
0
 10
367.0289301179054178
 20
59.1095565093566222
 30
0.0
 40
0.5336892809523093
 50
70.204416425810038
 51
84.2264882552586585
  0
ARC
  5
11015
  8
0
 10
367.1315646801987214
 20
59.3947039346269321
 30
0.0
 40
0.2306333331217967
 50
54.2755836580187321
 51
70.2044164258101802
  0
LINE
  5
11016
  8
0
 10
362.5510306954715247
 20
59.7727481107055425
 30
0.0
 11
361.6965544304715081
 21
59.836482104505528
 31
0.0
  0
ARC
  5
11017
  8
0
 10
361.6987859291662062
 20
59.8663996187918883
 30
0.0
 40
0.0300006207852193
 50
198.8669172270909087
 51
265.7342999972437951
  0
ARC
  5
11018
  8
0
 10
361.4924835693764749
 20
59.795899590382362
 30
0.0
 40
0.1880152448313747
 50
18.8669172270905712
 51
67.927552971355496
  0
ARC
  5
11019
  8
0
 10
363.2012233016004075
 20
64.0098303277215592
 30
0.0
 40
4.359182104258803
 50
245.6578967668156963
 51
247.9275529713555954
  0
ARC
  5
1101A
  8
0
 10
361.4605976720998797
 20
60.1623127660382195
 30
0.0
 40
0.1362484119620018
 50
196.825946231215795
 51
245.6578967668156963
  0
ARC
  5
1101B
  8
0
 10
361.4398701358422841
 20
60.1560445104652572
 30
0.0
 40
0.114593809974466
 50
180.3846462634894863
 51
196.825946231215795
  0
LINE
  5
1101C
  8
0
 10
361.3252789081715264
 20
60.1552752086055378
 30
0.0
 11
361.3239625622709923
 21
60.2951060355236308
 31
0.0
  0
ARC
  5
1101D
  8
0
 10
361.5783583729458996
 20
60.2800413106543189
 30
0.0
 40
0.2548414692006275
 50
166.3037347228749923
 51
176.6110356518917968
  0
ARC
  5
1101E
  8
0
 10
361.4626267410781111
 20
60.3063196749057013
 30
0.0
 40
0.1361915181878383
 50
142.4231344325388022
 51
165.5164923663313914
  0
ARC
  5
1101F
  8
0
 10
361.431165512240625
 20
60.3241848154320621
 30
0.0
 40
0.1004885729200921
 50
115.0601656228454033
 51
139.5556342210932996
  0
ARC
  5
11020
  8
0
 10
361.4586641974458985
 20
60.2434677347476111
 30
0.0
 40
0.1854870903815999
 50
86.2470086328210215
 51
112.1926654113973001
  0
ARC
  5
11021
  8
0
 10
-818.1138003644496166
 20
-28679.6649813257790811
 30
0.0
 40
28764.2902995444783301
 50
87.642714705007478
 51
87.6497185836454378
  0
ARC
  5
11022
  8
0
 10
-110.8968648636155052
 20
-11520.4662589020499581
 30
0.0
 40
11590.523828314140701
 50
87.6371550002780282
 51
87.6469025669421455
  0
ARC
  5
11023
  8
0
 10
366.7238281963125246
 20
54.4197721106807109
 30
0.0
 40
5.787835598405402
 50
85.2204083694659005
 51
87.7188693671630944
  0
ARC
  5
11024
  8
0
 10
367.0846840334552894
 20
58.7355247243878296
 30
0.0
 40
1.45702302361995
 50
73.286875012937557
 51
85.2204083694659005
  0
ARC
  5
11025
  8
0
 10
367.2690981718662897
 20
59.4214274720488476
 30
0.0
 40
0.7473460443965583
 50
47.6691000446212527
 51
71.7052152779651664
  0
ARC
  5
11026
  8
0
 10
367.2348312079299149
 20
59.4006081145076479
 30
0.0
 40
0.785894313044568
 50
11.7294108015015599
 51
46.8443329696890274
  0
ARC
  5
11027
  8
0
 10
365.6835596188494719
 20
59.0410641430124201
 30
0.0
 40
2.378080214864482
 50
5.4596596921046849
 51
12.7320578406566405
  0
LINE
  5
11028
  8
0
 10
368.2885668793680907
 20
58.4172470667055421
 30
0.0
 11
368.7945801980715146
 21
58.4172470667055421
 31
0.0
  0
ARC
  5
11029
  8
0
 10
368.7945801980715146
 20
58.3778769880055322
 30
0.0
 40
0.0393700786999993
 50
359.9999998544676032
 51
90.0
  0
LINE
  5
1102A
  8
0
 10
368.8339502767714748
 20
58.3778769879055304
 30
0.0
 11
368.8339502766734199
 21
58.3392470667055392
 31
0.0
  0
ARC
  5
1102B
  8
0
 10
368.7939502765717066
 20
58.3392470668071397
 30
0.0
 40
0.0400000001016032
 50
270.0000002860916197
 51
359.9999998544660116
  0
LINE
  5
1102C
  8
0
 10
368.7939502767715112
 20
58.2992470667055329
 30
0.0
 11
368.3993286173715092
 21
58.2992470647350913
 31
0.0
  0
ARC
  5
1102D
  8
0
 10
368.3993286177658888
 20
58.2202470642406311
 30
0.0
 40
0.0790000004944656
 50
90.0000002860915487
 51
179.9999982848177069
  0
LINE
  5
1102E
  8
0
 10
368.3203286172715138
 20
58.2202470666055305
 30
0.0
 11
368.320328610165177
 21
57.9828600350343777
 31
0.0
  0
LINE
  5
1102F
  8
0
 10
367.3163990956714997
 20
57.7790824365383813
 30
0.0
 11
367.3162489914129196
 21
57.7990826347991913
 31
0.0
  0
LINE
  5
11030
  8
0
 10
368.2963990956715179
 20
57.7990826345119331
 30
0.0
 11
368.2963990956715179
 21
57.7790824365383813
 31
0.0
  0
ARC
  5
11031
  8
0
 10
367.840181045116708
 20
57.7974684435641279
 30
0.0
 40
0.480150783091082
 50
358.4594541205756855
 51
0.20967204722765
  0
ARC
  5
11032
  8
0
 10
368.2803285805259748
 20
57.7882470667116408
 30
0.0
 40
0.0400000000458225
 50
345.2737063310690928
 51
354.7110114841306086
  0
ARC
  5
11033
  8
0
 10
367.8063990965015932
 20
69.1743090598925363
 30
0.0
 40
10.1945656659082093
 50
268.2320245540669248
 51
271.7679754641511067
  0
ARC
  5
11034
  8
0
 10
367.4949602335879035
 20
59.0845373671801823
 30
0.0
 40
0.0999885585503979
 50
189.5636357515201098
 51
268.2320245540669248
  0
ARC
  5
11035
  8
0
 10
368.0834404046648274
 20
59.1437764265437522
 30
0.0
 40
0.6912532625949638
 50
181.2890755476934999
 51
186.2997707110667136
  0
ARC
  5
11036
  8
0
 10
368.0882671567255784
 20
59.1474991361106532
 30
0.0
 40
0.6961719182170566
 50
177.2814762817301073
 51
181.586446018826706
  0
ARC
  5
11037
  8
0
 10
367.4931993773943759
 20
59.1755194785298784
 30
0.0
 40
0.100445119107319
 50
95.3645805418166361
 51
177.1474886866971019
  0
ARC
  5
11038
  8
0
 10
368.1178379626566084
 20
59.0845373671801823
 30
0.0
 40
0.0999885585503979
 50
271.7679754459330752
 51
350.4363642484798902
  0
ARC
  5
11039
  8
0
 10
367.5293577915796845
 20
59.1437764265437522
 30
0.0
 40
0.6912532625949638
 50
353.7002292889333148
 51
358.7109244523064717
  0
ARC
  5
1103A
  8
0
 10
367.5245310395188767
 20
59.1474991361106532
 30
0.0
 40
0.6961719182170566
 50
358.4135539811733224
 51
2.7185237182698252
  0
ARC
  5
1103B
  8
0
 10
368.1195988188500223
 20
59.1755194785298784
 30
0.0
 40
0.100445119107319
 50
2.852511313302899
 51
83.0113326556141971
  0
ARC
  5
1103C
  8
0
 10
367.4364892156802966
 20
59.0330388145681084
 30
0.0
 40
0.0594882560168524
 50
133.7803045119106002
 51
168.9069493728540863
  0
ARC
  5
1103D
  8
0
 10
368.4735523476845174
 20
58.8503951186109902
 30
0.0
 40
1.112501368940624
 50
169.9526382948417904
 51
175.1088200596595925
  0
ARC
  5
1103E
  8
0
 10
342.6173419850687765
 20
60.7477997348799335
 30
0.0
 40
24.8133193903196911
 50
354.9217018253334004
 51
355.8341126934652721
  0
ARC
  5
1103F
  8
0
 10
368.1774583418981024
 20
59.0334543050673872
 30
0.0
 40
0.0582807232448249
 50
10.9096172723390001
 51
46.898567536929832
  0
ARC
  5
11040
  8
0
 10
367.1392458453186123
 20
58.8503951186109902
 30
0.0
 40
1.112501368940624
 50
4.8911799403403711
 51
10.0473617051581403
  0
ARC
  5
11041
  8
0
 10
392.9954562079778952
 20
60.7477997348834791
 30
0.0
 40
24.8133193903633611
 50
184.1658873065354953
 51
185.0536119081293123
  0
ARC
  5
11042
  8
0
 10
361.8478698134674119
 20
57.1890590801269667
 30
0.0
 40
2.7956139427666651
 50
70.9018861395916247
 51
95.8457291310026136
  0
ENDSEC
  0
EOF
