  0
SECTION
  2
HEADER
  9
$ACADVER
  1
AC1009
  9
$INSBASE
 10
4434.432601243271165
 20
261.9320487874493892
 30
0.0
  9
$EXTMIN
 10
4428.3637202540649014
 20
261.9138900968216035
 30
-0.0000000000000058
  9
$EXTMAX
 10
4435.808845739094977
 20
264.946096032445098
 30
0.0000000000000104
  9
$LIMMIN
 10
0.0
 20
0.0
  9
$LIMMAX
 10
11.6929133858000007
 20
8.2677165353999982
  9
$ORTHOMODE
 70
     0
  9
$REGENMODE
 70
     1
  9
$FILLMODE
 70
     1
  9
$QTEXTMODE
 70
     0
  9
$MIRRTEXT
 70
     0
  9
$DRAGMODE
 70
     2
  9
$LTSCALE
 40
0.6431102362
  9
$OSMODE
 70
  4095
  9
$ATTMODE
 70
     1
  9
$TEXTSIZE
 40
0.2
  9
$TRACEWID
 40
0.05
  9
$TEXTSTYLE
  7
STANDARD
  9
$CLAYER
  8
0
  9
$CELTYPE
  6
BYLAYER
  9
$CECOLOR
 62
   256
  9
$DIMSCALE
 40
1.0
  9
$DIMASZ
 40
0.1875
  9
$DIMEXO
 40
0.0625
  9
$DIMDLI
 40
0.4443307087
  9
$DIMRND
 40
0.0
  9
$DIMDLE
 40
0.0
  9
$DIMEXE
 40
0.125
  9
$DIMTP
 40
0.01
  9
$DIMTM
 40
0.01
  9
$DIMTXT
 40
2.0
  9
$DIMCEN
 40
0.1052362205
  9
$DIMTSZ
 40
0.0
  9
$DIMTOL
 70
     1
  9
$DIMLIM
 70
     0
  9
$DIMTIH
 70
     1
  9
$DIMTOH
 70
     1
  9
$DIMSE1
 70
     0
  9
$DIMSE2
 70
     0
  9
$DIMTAD
 70
     0
  9
$DIMZIN
 70
     0
  9
$DIMBLK
  1

  9
$DIMASO
 70
     1
  9
$DIMSHO
 70
     1
  9
$DIMPOST
  1
\X
  9
$DIMAPOST
  1

  9
$DIMALT
 70
     1
  9
$DIMALTD
 70
     2
  9
$DIMALTF
 40
25.3999999999999986
  9
$DIMLFAC
 40
1.0
  9
$DIMTOFL
 70
     0
  9
$DIMTVP
 40
0.0
  9
$DIMTIX
 70
     0
  9
$DIMSOXD
 70
     0
  9
$DIMSAH
 70
     0
  9
$DIMBLK1
  1

  9
$DIMBLK2
  1

  9
$DIMSTYLE
  2
STANDARD
  9
$DIMCLRD
 70
     0
  9
$DIMCLRE
 70
     0
  9
$DIMCLRT
 70
     0
  9
$DIMTFAC
 40
1.0
  9
$DIMGAP
 40
0.09
  9
$LUNITS
 70
     2
  9
$LUPREC
 70
     4
  9
$SKETCHINC
 40
0.1
  9
$FILLETRAD
 40
0.0
  9
$AUNITS
 70
     0
  9
$AUPREC
 70
     0
  9
$MENU
  1
.
  9
$ELEVATION
 40
0.0
  9
$PELEVATION
 40
0.0
  9
$THICKNESS
 40
0.0
  9
$LIMCHECK
 70
     0
  9
$BLIPMODE
 70
     0
  9
$CHAMFERA
 40
0.0
  9
$CHAMFERB
 40
0.0
  9
$SKPOLY
 70
     0
  9
$TDCREATE
 40
2458060.468368056230247
  9
$TDUPDATE
 40
2459984.8731134259141982
  9
$TDINDWG
 40
0.6305278935
  9
$TDUSRTIMER
 40
0.6305278935
  9
$USRTIMER
 70
     1
  9
$ANGBASE
 50
0.0
  9
$ANGDIR
 70
     0
  9
$PDMODE
 70
     0
  9
$PDSIZE
 40
0.3125
  9
$PLINEWID
 40
0.0
  9
$COORDS
 70
     1
  9
$SPLFRAME
 70
     0
  9
$SPLINETYPE
 70
     6
  9
$SPLINESEGS
 70
     8
  9
$ATTDIA
 70
     1
  9
$ATTREQ
 70
     1
  9
$HANDLING
 70
     1
  9
$HANDSEED
  5
B84E
  9
$SURFTAB1
 70
     6
  9
$SURFTAB2
 70
     6
  9
$SURFTYPE
 70
     6
  9
$SURFU
 70
     6
  9
$SURFV
 70
     6
  9
$UCSNAME
  2

  9
$UCSORG
 10
0.0
 20
0.0
 30
0.0
  9
$UCSXDIR
 10
1.0
 20
0.0
 30
0.0
  9
$UCSYDIR
 10
0.0
 20
1.0
 30
0.0
  9
$PUCSNAME
  2

  9
$PUCSORG
 10
0.0
 20
0.0
 30
0.0
  9
$PUCSXDIR
 10
1.0
 20
0.0
 30
0.0
  9
$PUCSYDIR
 10
0.0
 20
1.0
 30
0.0
  9
$USERI1
 70
     0
  9
$USERI2
 70
     0
  9
$USERI3
 70
     0
  9
$USERI4
 70
     0
  9
$USERI5
 70
     0
  9
$USERR1
 40
0.0
  9
$USERR2
 40
0.0
  9
$USERR3
 40
0.0
  9
$USERR4
 40
0.0
  9
$USERR5
 40
0.0
  9
$WORLDVIEW
 70
     1
  9
$SHADEDGE
 70
     3
  9
$SHADEDIF
 70
    70
  9
$TILEMODE
 70
     1
  9
$MAXACTVP
 70
    64
  9
$PLIMCHECK
 70
     0
  9
$PEXTMIN
 10
1.0000000000000000E+20
 20
1.0000000000000000E+20
 30
1.0000000000000000E+20
  9
$PEXTMAX
 10
-1.0000000000000000E+20
 20
-1.0000000000000000E+20
 30
-1.0000000000000000E+20
  9
$PLIMMIN
 10
0.0
 20
0.0
  9
$PLIMMAX
 10
12.0
 20
9.0
  9
$UNITMODE
 70
     0
  9
$VISRETAIN
 70
     1
  9
$PLINEGEN
 70
     0
  9
$PSLTSCALE
 70
     1
  0
ENDSEC
  0
SECTION
  2
TABLES
  0
TABLE
  2
VPORT
 70
     1
  0
VPORT
  2
*ACTIVE
 70
     0
 10
0.0
 20
0.0
 11
1.0
 21
1.0
 12
148.0174353403299108
 22
38.1816333844575979
 13
0.0
 23
0.0
 14
1.0
 24
1.0
 15
0.0
 25
0.0
 16
0.0
 26
0.0
 36
27.5337298366232197
 17
4284.0688476562490905
 27
225.2483596801758097
 37
0.0
 40
3.9625800078302098
 41
1.8858823529411759
 42
50.0
 43
0.0
 44
0.0
 50
0.0
 51
0.0
 71
     0
 72
   100
 73
     1
 74
     1
 75
     0
 76
     0
 77
     0
 78
     0
  0
ENDTAB
  0
TABLE
  2
LTYPE
 70
     2
  0
LTYPE
  2
CONTINUOUS
 70
     0
  3
Solid line
 72
    65
 73
     0
 40
0.0
  0
LTYPE
  2
PHANTOM2
 70
     0
  3
___ _ _ ___ _ _ ___ _ _ ___ _ _
 72
    65
 73
     6
 40
1.25
 49
0.625
 49
-0.125
 49
0.125
 49
-0.125
 49
0.125
 49
-0.125
  0
ENDTAB
  0
TABLE
  2
LAYER
 70
     2
  0
LAYER
  2
0
 70
     0
 62
   255
  6
CONTINUOUS
  0
LAYER
  2
DEFPOINTS
 70
     0
 62
     7
  6
CONTINUOUS
  0
ENDTAB
  0
TABLE
  2
STYLE
 70
     1
  0
STYLE
  2
STANDARD
 70
     0
 40
0.0
 41
0.8
 50
0.0
 71
     0
 42
0.2
  3
txt
  4

  0
ENDTAB
  0
TABLE
  2
VIEW
 70
     0
  0
ENDTAB
  0
TABLE
  2
UCS
 70
     0
  0
ENDTAB
  0
TABLE
  2
APPID
 70
     9
  0
APPID
  2
ACAD
 70
     0
  0
APPID
  2
ACAD_MLEADERVER
 70
     0
  0
APPID
  2
ACAD_EXEMPT_FROM_CAD_STANDARDS
 70
     0
  0
APPID
  2
ACAD_NAV_VCDISPLAY
 70
     0
  0
APPID
  2
ACAECLAYERSTANDARD
 70
     0
  0
APPID
  2
ACCMTRANSPARENCY
 70
     0
  0
APPID
  2
ACAD_DSTYLE_DIMJAG
 70
     0
  0
APPID
  2
ACAD_DSTYLE_DIMTALN
 70
     0
  0
APPID
  2
ACDBATTR
 70
     0
  0
ENDTAB
  0
TABLE
  2
DIMSTYLE
 70
     1
  0
DIMSTYLE
  2
STANDARD
 70
     0
  3

  4

  5

  6

  7

 40
1.0
 41
0.1875
 42
0.0625
 43
0.38
 44
0.125
 45
0.0
 46
0.0
 47
0.01
 48
0.01
140
0.15625
141
0.09
142
0.0
143
25.3999999999999986
144
1.0
145
0.0
146
1.0
147
0.09
 71
     1
 72
     0
 73
     1
 74
     1
 75
     0
 76
     0
 77
     0
 78
     4
170
     0
171
     2
172
     0
173
     0
174
     0
175
     0
176
     0
177
     0
178
     0
  0
ENDTAB
  0
ENDSEC
  0
SECTION
  2
BLOCKS
  0
BLOCK
  8
0
  2
$MODEL_SPACE
 70
     0
 10
0.0
 20
0.0
 30
0.0
  3
$MODEL_SPACE
  1

  0
ENDBLK
  5
21
  8
0
  0
BLOCK
 67
     1
  8
0
  2
$PAPER_SPACE
 70
     0
 10
0.0
 20
0.0
 30
0.0
  3
$PAPER_SPACE
  1

  0
ENDBLK
  5
1D
 67
     1
  8
0
  0
ENDSEC
  0
SECTION
  2
ENTITIES
  0
ATTDEF
  5
3930
  8
DEFPOINTS
 10
4434.4302035124974282
 20
261.9369754489212028
 30
0.0
 40
0.001
  1
P32444-LV
  3

  2
MODELNUMBER
 70
     0
1001
ACDBATTR
1070
     0
1070
     1
  0
ATTDEF
  5
3931
  8
DEFPOINTS
 10
4434.4302035124974282
 20
261.9353087822544808
 30
0.0
 40
0.001
  1
ONE
  3

  2
TRADENAME
 70
     0
1001
ACDBATTR
1070
     0
1070
     1
  0
ATTDEF
  5
3932
  8
DEFPOINTS
 10
4434.4302035124974282
 20
261.9336421155878725
 30
0.0
 40
0.001
  1
BATHROOM SINK FAUCET
  3

  2
PRODUCT
 70
     0
1001
ACDBATTR
1070
     0
1070
     1
  0
LINE
  5
B6CC
  8
0
 10
4430.020103474894313
 20
264.9460487874493992
 30
0.0
 11
4433.5526012432701464
 21
264.9460487874493992
 31
0.0
  0
LINE
  5
B6CD
  8
0
 10
4428.6827276075191548
 20
263.3290629035049051
 30
0.0
 11
4428.701912489017559
 21
263.6951322496975081
 31
0.0
  0
LINE
  5
B6CE
  8
0
 10
4429.5615215981233632
 20
263.2830072620902229
 30
0.0
 11
4429.5807064796181294
 21
263.6490766081986976
 31
0.0
  0
LINE
  5
B6CF
  8
0
 10
4428.6921905433036954
 20
263.3185532485948102
 30
0.0
 11
4429.5510119432128704
 21
263.2735443263051138
 31
0.0
  0
ARC
  5
B6D0
  8
0
 10
4428.6927139028666716
 20
263.3285395439424974
 30
0.0
 40
0.01
 50
176.9999999996784084
 51
267.0000000053170197
  0
ARC
  5
B6D1
  8
0
 10
4429.5515353027758465
 20
263.2835306216526874
 30
0.0
 40
0.01
 50
267.0000000053690883
 51
356.9999999996686029
  0
LINE
  5
B6D2
  8
0
 10
4430.0201034749106839
 20
264.0660487874494038
 30
0.0
 11
4433.5526012432701464
 21
264.0660487874494038
 31
0.0
  0
ARC
  5
B6D3
  8
0
 10
4430.0201034749106839
 20
263.6260487874494061
 30
0.0
 40
0.4400000000000001
 50
90.0
 51
176.9999999996784084
  0
ARC
  5
B6D4
  8
0
 10
4430.020103474894313
 20
263.6260487874494061
 30
0.0
 40
1.3200000000000001
 50
90.0
 51
176.9999999996784084
  0
LINE
  5
B6D5
  8
0
 10
4433.9926012432706557
 20
263.6260487874494061
 30
0.0
 11
4433.9926012432706557
 21
262.3320487874494233
 31
0.0
  0
ARC
  5
B6D6
  8
0
 10
4433.5526012432701464
 20
263.6260487874494061
 30
0.0
 40
0.4400000000000001
 50
0.0
 51
90.0
  0
LINE
  5
B6D7
  8
0
 10
4434.8726012432698553
 20
263.6260487874494061
 30
0.0
 11
4434.8726012432698553
 21
262.9976760365292989
 31
0.0
  0
LINE
  5
B6D8
  8
0
 10
4434.8726012432698553
 20
262.3967583303074775
 30
0.0
 11
4434.8726012432698553
 21
262.3320487874494233
 31
0.0
  0
ARC
  5
B6D9
  8
0
 10
4433.5526012432701464
 20
263.6260487874494061
 30
0.0
 40
1.3200000000000001
 50
0.0
 51
90.0
  0
LINE
  5
B6DA
  8
0
 10
4433.307601243271165
 20
261.9320487874493892
 30
0.0
 11
4435.557601243271165
 21
261.9320487874493892
 31
0.0
  0
LINE
  5
B6DB
  8
0
 10
4435.557601243271165
 20
262.3220487874493756
 30
0.0
 11
4435.557601243271165
 21
261.9320487874493892
 31
0.0
  0
LINE
  5
B6DC
  8
0
 10
4433.307601243271165
 20
262.3220487874493756
 30
0.0
 11
4433.307601243271165
 21
261.9320487874493892
 31
0.0
  0
LINE
  5
B6DD
  8
0
 10
4433.3176012432713833
 20
262.3320487874494233
 30
0.0
 11
4435.5476012432700372
 21
262.3320487874494233
 31
0.0
  0
ARC
  5
B6DE
  8
0
 10
4433.3176012432713833
 20
262.3220487874493756
 30
0.0
 40
0.01
 50
90.0
 51
179.9999999999934914
  0
LINE
  5
B6DF
  8
0
 10
4434.1526012432723292
 20
262.3320487874494233
 30
0.0
 11
4434.1526012432723292
 21
263.4270487874493938
 31
0.0
  0
ARC
  5
B6E0
  8
0
 10
4434.1676012432699281
 20
263.4270487874493938
 30
0.0
 40
0.015
 50
90.0
 51
180.0
  0
ARC
  5
B6E1
  8
0
 10
4435.5476012432700372
 20
262.3220487874493756
 30
0.0
 40
0.01
 50
0.0
 51
90.0
  0
LINE
  5
B6E2
  8
0
 10
4434.7126012432709103
 20
262.3320487874494233
 30
0.0
 11
4434.7126012432709103
 21
263.4270487874493938
 31
0.0
  0
ARC
  5
B6E3
  8
0
 10
4434.6976012432705829
 20
263.4270487874493938
 30
0.0
 40
0.015
 50
0.0
 51
90.0
  0
LINE
  5
B6E4
  8
0
 10
4435.1456721094200475
 20
262.3961275276494121
 30
0.0
 11
4434.8775846351200016
 21
262.3961275276494121
 31
0.0
  0
LINE
  5
B6E5
  8
0
 10
4435.1656721094213935
 20
262.4161275276493939
 30
0.0
 11
4435.1656721094213935
 21
262.7661275276494166
 31
0.0
  0
LINE
  5
B6E6
  8
0
 10
4434.8575846351213841
 20
262.9667275276494252
 30
0.0
 11
4434.8575846351213841
 21
262.4161275276493939
 31
0.0
  0
LINE
  5
B6E7
  8
0
 10
4435.4032616565209537
 20
262.846127527649287
 30
0.0
 11
4435.1999012625856267
 21
262.846127527649287
 31
0.0
  0
ARC
  5
B6E8
  8
0
 10
4435.2456721094213208
 20
262.7661275276494166
 30
0.0
 40
0.08
 50
90.0
 51
180.0
  0
LINE
  5
B6E9
  8
0
 10
4434.8969846351210435
 20
263.0061275276494257
 30
0.0
 11
4435.4032616565209537
 21
263.0061275276494257
 31
0.0
  0
LINE
  5
B6EA
  8
0
 10
4435.4426616565197037
 20
262.9667275276494252
 30
0.0
 11
4435.4426616565197037
 21
262.8855275276492875
 31
0.0
  0
ARC
  5
B6EB
  8
0
 10
4434.8969846351210435
 20
262.9667275276494252
 30
0.0
 40
0.0394
 50
90.0
 51
180.0000000000065086
  0
ARC
  5
B6EC
  8
0
 10
4435.4032616565209537
 20
262.9667275276494252
 30
0.0
 40
0.0394
 50
359.9999999999968168
 51
90.0
  0
ARC
  5
B6ED
  8
0
 10
4435.4032616565209537
 20
262.8855275276492875
 30
0.0
 40
0.0394
 50
270.0
 51
0.0
  0
ARC
  5
B6EE
  8
0
 10
4435.1456721094200475
 20
262.4161275276493939
 30
0.0
 40
0.02
 50
270.0
 51
359.9999999999869829
  0
ARC
  5
B6EF
  8
0
 10
4434.8775846351200016
 20
262.4161275276493939
 30
0.0
 40
0.02
 50
180.0000000000163141
 51
270.0
  0
ARC
  5
B6F0
  8
0
 10
4434.9151209283199933
 20
262.361088157549375
 30
0.0
 40
0.0350393701000023
 50
90.0
 51
235.9719840974809983
  0
ARC
  5
B6F1
  8
0
 10
4435.1300815582198993
 20
262.361088157549375
 30
0.0
 40
0.0350393700999967
 50
304.0280159025172111
 51
90.0
  0
LINE
  5
B6F2
  8
0
 10
4435.1199012625847899
 20
262.4161275276493939
 30
0.0
 11
4435.1199012625847899
 21
262.7661275276494166
 31
0.0
  0
ARC
  5
B6F3
  8
0
 10
4435.1999012625856267
 20
262.7661275276494166
 30
0.0
 40
0.08
 50
90.0
 51
180.0
  0
ARC
  5
B6F4
  8
0
 10
4435.0999012625861724
 20
262.4161275276493939
 30
0.0
 40
0.02
 50
270.0
 51
359.9999999999869829
  0
LINE
  5
B6F6
  8
0
 10
4434.182601243271165
 20
264.2420487874493915
 30
0.0
 11
4434.682601243271165
 21
264.2420487874493915
 31
0.0
  0
LINE
  5
B6F7
  8
0
 10
4434.6976012432705829
 20
263.4420487874493801
 30
0.0
 11
4434.1676012432699281
 21
263.4420487874493801
 31
0.0
  0
LINE
  5
B6F8
  8
0
 10
4434.1526012432723292
 20
263.472048787449296
 30
0.0
 11
4434.1526012432723292
 21
264.2120487874493051
 31
0.0
  0
LINE
  5
B6F9
  8
0
 10
4434.7126012432709103
 20
263.472048787449296
 30
0.0
 11
4434.7126012432709103
 21
264.2120487874493051
 31
0.0
  0
ARC
  5
B6FA
  8
0
 10
4434.682601243271165
 20
263.472048787449296
 30
0.0
 40
0.03
 50
270.0
 51
359.9999999999902229
  0
ARC
  5
B6FB
  8
0
 10
4434.182601243271165
 20
263.472048787449296
 30
0.0
 40
0.03
 50
180.0000000000098055
 51
270.0
  0
ARC
  5
B6FC
  8
0
 10
4434.182601243271165
 20
264.2120487874493051
 30
0.0
 40
0.03
 50
90.0
 51
180.0
  0
ARC
  5
B6FD
  8
0
 10
4434.682601243271165
 20
264.2120487874493051
 30
0.0
 40
0.03
 50
0.0
 51
90.0
  0
LINE
  5
B6FE
  8
0
 10
4434.3465184011720339
 20
263.4709245776317061
 30
0.0
 11
4434.3187684011718375
 21
264.2109245776317152
 31
0.0
  0
LINE
  5
B6FF
  8
0
 10
4434.5186840853712056
 20
263.4709245776317061
 30
0.0
 11
4434.546434085369583
 21
264.2109245776317152
 31
0.0
  0
ARC
  5
B700
  8
0
 10
4434.4887051568994139
 20
263.472048787449296
 30
0.0
 40
0.03
 50
270.0
 51
357.8524145717033775
  0
ARC
  5
B701
  8
0
 10
4434.3764973296429162
 20
263.472048787449296
 30
0.0
 40
0.03
 50
182.1475854282900002
 51
270.0
  0
ARC
  5
B702
  8
0
 10
4434.3487473296418102
 20
264.2120487874493051
 30
0.0
 40
0.03
 50
90.0
 51
182.147585428299692
  0
ARC
  5
B703
  8
0
 10
4434.5164551568977913
 20
264.2120487874493051
 30
0.0
 40
0.03
 50
357.8524145717033775
 51
90.0
  0
ENDSEC
  0
EOF
