  0
SECTION
  2
HEADER
  9
$ACADVER
  1
AC1009
  9
$INSBASE
 10
4434.113910909731203
 20
270.3239442992709769
 30
0.0
  9
$EXTMIN
 10
4428.0438504779485811
 20
270.3178011187345078
 30
-0.0000000000000058
  9
$EXTMAX
 10
4435.4719761483647744
 20
273.3429834154151195
 30
0.0000000000000104
  9
$LIMMIN
 10
0.0
 20
0.0
  9
$LIMMAX
 10
11.6929133858000007
 20
8.2677165353999982
  9
$ORTHOMODE
 70
     0
  9
$REGENMODE
 70
     1
  9
$FILLMODE
 70
     1
  9
$QTEXTMODE
 70
     0
  9
$MIRRTEXT
 70
     0
  9
$DRAGMODE
 70
     2
  9
$LTSCALE
 40
0.6431102362
  9
$OSMODE
 70
  4095
  9
$ATTMODE
 70
     1
  9
$TEXTSIZE
 40
0.2
  9
$TRACEWID
 40
0.05
  9
$TEXTSTYLE
  7
STANDARD
  9
$CLAYER
  8
0
  9
$CELTYPE
  6
BYLAYER
  9
$CECOLOR
 62
   256
  9
$DIMSCALE
 40
1.0
  9
$DIMASZ
 40
0.1875
  9
$DIMEXO
 40
0.0625
  9
$DIMDLI
 40
0.4443307087
  9
$DIMRND
 40
0.0
  9
$DIMDLE
 40
0.0
  9
$DIMEXE
 40
0.125
  9
$DIMTP
 40
0.01
  9
$DIMTM
 40
0.01
  9
$DIMTXT
 40
2.0
  9
$DIMCEN
 40
0.1052362205
  9
$DIMTSZ
 40
0.0
  9
$DIMTOL
 70
     1
  9
$DIMLIM
 70
     0
  9
$DIMTIH
 70
     1
  9
$DIMTOH
 70
     1
  9
$DIMSE1
 70
     0
  9
$DIMSE2
 70
     0
  9
$DIMTAD
 70
     0
  9
$DIMZIN
 70
     0
  9
$DIMBLK
  1

  9
$DIMASO
 70
     1
  9
$DIMSHO
 70
     1
  9
$DIMPOST
  1
\X
  9
$DIMAPOST
  1

  9
$DIMALT
 70
     1
  9
$DIMALTD
 70
     2
  9
$DIMALTF
 40
25.3999999999999986
  9
$DIMLFAC
 40
1.0
  9
$DIMTOFL
 70
     0
  9
$DIMTVP
 40
0.0
  9
$DIMTIX
 70
     0
  9
$DIMSOXD
 70
     0
  9
$DIMSAH
 70
     0
  9
$DIMBLK1
  1

  9
$DIMBLK2
  1

  9
$DIMSTYLE
  2
STANDARD
  9
$DIMCLRD
 70
     0
  9
$DIMCLRE
 70
     0
  9
$DIMCLRT
 70
     0
  9
$DIMTFAC
 40
1.0
  9
$DIMGAP
 40
0.09
  9
$LUNITS
 70
     2
  9
$LUPREC
 70
     4
  9
$SKETCHINC
 40
0.1
  9
$FILLETRAD
 40
0.0
  9
$AUNITS
 70
     0
  9
$AUPREC
 70
     0
  9
$MENU
  1
.
  9
$ELEVATION
 40
0.0
  9
$PELEVATION
 40
0.0
  9
$THICKNESS
 40
0.0
  9
$LIMCHECK
 70
     0
  9
$BLIPMODE
 70
     0
  9
$CHAMFERA
 40
0.0
  9
$CHAMFERB
 40
0.0
  9
$SKPOLY
 70
     0
  9
$TDCREATE
 40
2458060.468368056230247
  9
$TDUPDATE
 40
2459984.8706018519587815
  9
$TDINDWG
 40
0.6314306713
  9
$TDUSRTIMER
 40
0.6314306713
  9
$USRTIMER
 70
     1
  9
$ANGBASE
 50
0.0
  9
$ANGDIR
 70
     0
  9
$PDMODE
 70
     0
  9
$PDSIZE
 40
0.3125
  9
$PLINEWID
 40
0.0
  9
$COORDS
 70
     1
  9
$SPLFRAME
 70
     0
  9
$SPLINETYPE
 70
     6
  9
$SPLINESEGS
 70
     8
  9
$ATTDIA
 70
     1
  9
$ATTREQ
 70
     1
  9
$HANDLING
 70
     1
  9
$HANDSEED
  5
BA1E
  9
$SURFTAB1
 70
     6
  9
$SURFTAB2
 70
     6
  9
$SURFTYPE
 70
     6
  9
$SURFU
 70
     6
  9
$SURFV
 70
     6
  9
$UCSNAME
  2

  9
$UCSORG
 10
0.0
 20
0.0
 30
0.0
  9
$UCSXDIR
 10
1.0
 20
0.0
 30
0.0
  9
$UCSYDIR
 10
0.0
 20
1.0
 30
0.0
  9
$PUCSNAME
  2

  9
$PUCSORG
 10
0.0
 20
0.0
 30
0.0
  9
$PUCSXDIR
 10
1.0
 20
0.0
 30
0.0
  9
$PUCSYDIR
 10
0.0
 20
1.0
 30
0.0
  9
$USERI1
 70
     0
  9
$USERI2
 70
     0
  9
$USERI3
 70
     0
  9
$USERI4
 70
     0
  9
$USERI5
 70
     0
  9
$USERR1
 40
0.0
  9
$USERR2
 40
0.0
  9
$USERR3
 40
0.0
  9
$USERR4
 40
0.0
  9
$USERR5
 40
0.0
  9
$WORLDVIEW
 70
     1
  9
$SHADEDGE
 70
     3
  9
$SHADEDIF
 70
    70
  9
$TILEMODE
 70
     1
  9
$MAXACTVP
 70
    64
  9
$PLIMCHECK
 70
     0
  9
$PEXTMIN
 10
1.0000000000000000E+20
 20
1.0000000000000000E+20
 30
1.0000000000000000E+20
  9
$PEXTMAX
 10
-1.0000000000000000E+20
 20
-1.0000000000000000E+20
 30
-1.0000000000000000E+20
  9
$PLIMMIN
 10
0.0
 20
0.0
  9
$PLIMMAX
 10
12.0
 20
9.0
  9
$UNITMODE
 70
     0
  9
$VISRETAIN
 70
     1
  9
$PLINEGEN
 70
     0
  9
$PSLTSCALE
 70
     1
  0
ENDSEC
  0
SECTION
  2
TABLES
  0
TABLE
  2
VPORT
 70
     1
  0
VPORT
  2
*ACTIVE
 70
     0
 10
0.0
 20
0.0
 11
1.0
 21
1.0
 12
147.6890656569065925
 22
46.5820325868989968
 13
0.0
 23
0.0
 14
1.0
 24
1.0
 15
0.0
 25
0.0
 16
0.0
 26
0.0
 36
27.5337298366232197
 17
4284.0688476562490905
 27
225.2483596801758097
 37
0.0
 40
3.955287397470062
 41
1.8858823529411759
 42
50.0
 43
0.0
 44
0.0
 50
0.0
 51
0.0
 71
     0
 72
   100
 73
     1
 74
     1
 75
     0
 76
     0
 77
     0
 78
     0
  0
ENDTAB
  0
TABLE
  2
LTYPE
 70
     2
  0
LTYPE
  2
CONTINUOUS
 70
     0
  3
Solid line
 72
    65
 73
     0
 40
0.0
  0
LTYPE
  2
PHANTOM2
 70
     0
  3
___ _ _ ___ _ _ ___ _ _ ___ _ _
 72
    65
 73
     6
 40
1.25
 49
0.625
 49
-0.125
 49
0.125
 49
-0.125
 49
0.125
 49
-0.125
  0
ENDTAB
  0
TABLE
  2
LAYER
 70
     2
  0
LAYER
  2
0
 70
     0
 62
   255
  6
CONTINUOUS
  0
LAYER
  2
DEFPOINTS
 70
     0
 62
     7
  6
CONTINUOUS
  0
ENDTAB
  0
TABLE
  2
STYLE
 70
     1
  0
STYLE
  2
STANDARD
 70
     0
 40
0.0
 41
0.8
 50
0.0
 71
     0
 42
0.2
  3
txt
  4

  0
ENDTAB
  0
TABLE
  2
VIEW
 70
     0
  0
ENDTAB
  0
TABLE
  2
UCS
 70
     0
  0
ENDTAB
  0
TABLE
  2
APPID
 70
     9
  0
APPID
  2
ACAD
 70
     0
  0
APPID
  2
ACAD_MLEADERVER
 70
     0
  0
APPID
  2
ACAD_EXEMPT_FROM_CAD_STANDARDS
 70
     0
  0
APPID
  2
ACAD_NAV_VCDISPLAY
 70
     0
  0
APPID
  2
ACAECLAYERSTANDARD
 70
     0
  0
APPID
  2
ACCMTRANSPARENCY
 70
     0
  0
APPID
  2
ACAD_DSTYLE_DIMJAG
 70
     0
  0
APPID
  2
ACAD_DSTYLE_DIMTALN
 70
     0
  0
APPID
  2
ACDBATTR
 70
     0
  0
ENDTAB
  0
TABLE
  2
DIMSTYLE
 70
     1
  0
DIMSTYLE
  2
STANDARD
 70
     0
  3

  4

  5

  6

  7

 40
1.0
 41
0.1875
 42
0.0625
 43
0.38
 44
0.125
 45
0.0
 46
0.0
 47
0.01
 48
0.01
140
0.15625
141
0.09
142
0.0
143
25.3999999999999986
144
1.0
145
0.0
146
1.0
147
0.09
 71
     1
 72
     0
 73
     1
 74
     1
 75
     0
 76
     0
 77
     0
 78
     4
170
     0
171
     2
172
     0
173
     0
174
     0
175
     0
176
     0
177
     0
178
     0
  0
ENDTAB
  0
ENDSEC
  0
SECTION
  2
BLOCKS
  0
BLOCK
  8
0
  2
$MODEL_SPACE
 70
     0
 10
0.0
 20
0.0
 30
0.0
  3
$MODEL_SPACE
  1

  0
ENDBLK
  5
21
  8
0
  0
BLOCK
 67
     1
  8
0
  2
$PAPER_SPACE
 70
     0
 10
0.0
 20
0.0
 30
0.0
  3
$PAPER_SPACE
  1

  0
ENDBLK
  5
1D
 67
     1
  8
0
  0
ENDSEC
  0
SECTION
  2
ENTITIES
  0
ATTDEF
  5
3930
  8
DEFPOINTS
 10
4434.1115131789556472
 20
270.3288709607427904
 30
0.0
 40
0.001
  1
P32444-CR
  3

  2
MODELNUMBER
 70
     0
1001
ACDBATTR
1070
     0
1070
     1
  0
ATTDEF
  5
3931
  8
DEFPOINTS
 10
4434.1115131789556472
 20
270.3272042940761821
 30
0.0
 40
0.001
  1
ONE
  3

  2
TRADENAME
 70
     0
1001
ACDBATTR
1070
     0
1070
     1
  0
ATTDEF
  5
3932
  8
DEFPOINTS
 10
4434.1115131789556472
 20
270.325537627409517
 30
0.0
 40
0.001
  1
BATHROOM SINK FAUCET
  3

  2
PRODUCT
 70
     0
1001
ACDBATTR
1070
     0
1070
     1
  0
LINE
  5
B8E2
  8
0
 10
4429.701413141354351
 20
273.3379442992709869
 30
0.0
 11
4433.2339109097310939
 21
273.3379442992709869
 31
0.0
  0
LINE
  5
B8E3
  8
0
 10
4428.3640372739782833
 20
271.7209584153266064
 30
0.0
 11
4428.383222155479416
 21
272.0870277615190957
 31
0.0
  0
LINE
  5
B8E4
  8
0
 10
4429.2428312645834012
 20
271.6749027739119242
 30
0.0
 11
4429.2620161460781674
 21
272.040972120020399
 31
0.0
  0
LINE
  5
B8E5
  8
0
 10
4428.3735002097646429
 20
271.7104487604165115
 30
0.0
 11
4429.2323216096738179
 21
271.6654398381268152
 31
0.0
  0
ARC
  5
B8E6
  8
0
 10
4428.3740235693258001
 20
271.7204350557640851
 30
0.0
 40
0.01
 50
176.9999999996784084
 51
267.0000000053690883
  0
ARC
  5
B8E7
  8
0
 10
4429.2328449692358845
 20
271.6754261334743887
 30
0.0
 40
0.01
 50
267.0000000053690883
 51
356.9999999996686029
  0
LINE
  5
B8E8
  8
0
 10
4429.7014131413707219
 20
272.4579442992709915
 30
0.0
 11
4432.8920189693144494
 21
272.4579442992709915
 31
0.0
  0
ARC
  5
B8E9
  8
0
 10
4429.7014131413707219
 20
272.0179442992709937
 30
0.0
 40
0.4400000000000001
 50
90.0
 51
176.9999999996784084
  0
ARC
  5
B8EA
  8
0
 10
4429.701413141354351
 20
272.0179442992709937
 30
0.0
 40
1.3200000000000001
 50
90.0
 51
176.9999999996784084
  0
LINE
  5
B8EB
  8
0
 10
4433.6739109097306937
 20
271.827944299270996
 30
0.0
 11
4433.6739109097306937
 21
270.723944299271011
 31
0.0
  0
LINE
  5
B8EC
  8
0
 10
4434.5539109097308028
 20
271.827944299270996
 30
0.0
 11
4434.5539109097308028
 21
271.3895715483508866
 31
0.0
  0
LINE
  5
B8ED
  8
0
 10
4434.5539109097308028
 20
270.788653842129122
 30
0.0
 11
4434.5539109097308028
 21
270.723944299271011
 31
0.0
  0
ARC
  5
B8EE
  8
0
 10
4433.2339109097310939
 20
272.0179442992709937
 30
0.0
 40
1.3200000000000001
 50
27.4413902724335905
 51
90.0
  0
LINE
  5
B8EF
  8
0
 10
4432.988910909731203
 20
270.3239442992709769
 30
0.0
 11
4435.2389109097302935
 21
270.3239442992709769
 31
0.0
  0
LINE
  5
B8F0
  8
0
 10
4435.2389109097302935
 20
270.7139442992710201
 30
0.0
 11
4435.2389109097302935
 21
270.3239442992709769
 31
0.0
  0
LINE
  5
B8F1
  8
0
 10
4433.9607084063936782
 20
272.5959888038423173
 30
0.0
 11
4434.0023181818351077
 21
271.8562594626303053
 31
0.0
  0
ARC
  5
B8F2
  8
0
 10
4434.1034693775691267
 20
249.2901756591917888
 30
0.0
 40
23.3377709758978611
 50
89.974365343436375
 51
92.9212053168565859
  0
LINE
  5
B8F3
  8
0
 10
4432.8856968835971202
 20
272.5659059284678278
 30
0.0
 11
4432.9272568482329007
 21
271.8561905445383218
 31
0.0
  0
LINE
  5
B8F4
  8
0
 10
4432.9572055434364302
 20
271.827944299270996
 30
0.0
 11
4435.2706162760268853
 21
271.827944299270996
 31
0.0
  0
ARC
  5
B8F5
  8
0
 10
4433.990661057788202
 20
272.5976736404829808
 30
0.0
 40
0.03
 50
90.2773094801055294
 51
183.2194948965153003
  0
ARC
  5
B8F6
  8
0
 10
4432.9156455788006497
 20
272.5676596832005885
 30
0.0
 40
0.03
 50
92.9212053168565859
 51
183.3513354740586863
  0
ARC
  5
B8F7
  8
0
 10
4432.9572055434364302
 20
271.8579442992710256
 30
0.0
 40
0.03
 50
183.351335474055503
 51
270.0
  0
ARC
  5
B8F8
  8
0
 10
4434.0322708332269031
 20
271.8579442992710256
 30
0.0
 40
0.03
 50
183.219494896518512
 51
270.0
  0
LINE
  5
B8F9
  8
0
 10
4432.988910909731203
 20
270.7139442992710201
 30
0.0
 11
4432.988910909731203
 21
270.3239442992709769
 31
0.0
  0
LINE
  5
B8FA
  8
0
 10
4432.9989109097314213
 20
270.723944299271011
 30
0.0
 11
4435.2289109097318942
 21
270.723944299271011
 31
0.0
  0
ARC
  5
B8FB
  8
0
 10
4432.9989109097314213
 20
270.7139442992710201
 30
0.0
 40
0.01
 50
90.0
 51
179.9999999999934914
  0
LINE
  5
B8FC
  8
0
 10
4433.8339109097305482
 20
270.723944299271011
 30
0.0
 11
4433.8339109097305482
 21
271.827944299270996
 31
0.0
  0
LINE
  5
B8FD
  8
0
 10
4434.2671134130669088
 20
272.5959888038423173
 30
0.0
 11
4434.2255036376291173
 21
271.8562594626303053
 31
0.0
  0
ARC
  5
B8FE
  8
0
 10
4434.1243524418941888
 20
249.2901756591917888
 30
0.0
 40
23.3377709758978611
 50
87.0787946831433999
 51
90.025634656563625
  0
LINE
  5
B8FF
  8
0
 10
4435.3421249358643763
 20
272.5659059284678278
 30
0.0
 11
4435.3005649712285958
 21
271.8561905445383218
 31
0.0
  0
ARC
  5
B900
  8
0
 10
4434.237160761674204
 20
272.5976736404829808
 30
0.0
 40
0.03
 50
356.7805051034846997
 51
89.7226905198944849
  0
ARC
  5
B901
  8
0
 10
4435.3121762406608468
 20
272.5676596832005885
 30
0.0
 40
0.03
 50
356.6486645259412853
 51
87.0787946831433999
  0
ARC
  5
B902
  8
0
 10
4435.2706162760268853
 20
271.8579442992710256
 30
0.0
 40
0.03
 50
270.0
 51
356.6486645259445254
  0
ARC
  5
B903
  8
0
 10
4434.1955509862364124
 20
271.8579442992710256
 30
0.0
 40
0.03
 50
270.0
 51
356.7805051034814028
  0
ARC
  5
B904
  8
0
 10
4435.2289109097318942
 20
270.7139442992710201
 30
0.0
 40
0.01
 50
0.0
 51
90.0
  0
LINE
  5
B905
  8
0
 10
4434.3939109097318578
 20
270.723944299271011
 30
0.0
 11
4434.3939109097318578
 21
271.827944299270996
 31
0.0
  0
LINE
  5
B906
  8
0
 10
4434.8269817758819045
 20
270.7880230394709997
 30
0.0
 11
4434.5588943015818586
 21
270.7880230394709997
 31
0.0
  0
LINE
  5
B907
  8
0
 10
4434.846981775882341
 20
270.8080230394709815
 30
0.0
 11
4434.846981775882341
 21
271.1580230394710043
 31
0.0
  0
LINE
  5
B908
  8
0
 10
4434.538894301581422
 20
271.3586230394710128
 30
0.0
 11
4434.538894301581422
 21
270.8080230394709815
 31
0.0
  0
LINE
  5
B909
  8
0
 10
4435.0845713229819012
 20
271.2380230394709884
 30
0.0
 11
4434.8812109290456647
 21
271.2380230394709884
 31
0.0
  0
ARC
  5
B90A
  8
0
 10
4434.9269817758813588
 20
271.1580230394710043
 30
0.0
 40
0.08
 50
90.0
 51
180.0
  0
LINE
  5
B90B
  8
0
 10
4434.5782943015810815
 20
271.3980230394710134
 30
0.0
 11
4435.0845713229819012
 21
271.3980230394710134
 31
0.0
  0
LINE
  5
B90C
  8
0
 10
4435.1239713229806512
 20
271.3586230394710128
 30
0.0
 11
4435.1239713229806512
 21
271.2774230394709889
 31
0.0
  0
ARC
  5
B90D
  8
0
 10
4434.5782943015810815
 20
271.3586230394710128
 30
0.0
 40
0.0394
 50
90.0
 51
180.0000000000065086
  0
ARC
  5
B90E
  8
0
 10
4435.0845713229819012
 20
271.3586230394710128
 30
0.0
 40
0.0394
 50
359.9999999999968168
 51
90.0
  0
ARC
  5
B90F
  8
0
 10
4435.0845713229819012
 20
271.2774230394709889
 30
0.0
 40
0.0394
 50
270.0
 51
0.0
  0
ARC
  5
B910
  8
0
 10
4434.8269817758819045
 20
270.8080230394709815
 30
0.0
 40
0.02
 50
270.0
 51
359.9999999999869829
  0
ARC
  5
B911
  8
0
 10
4434.5588943015818586
 20
270.8080230394709815
 30
0.0
 40
0.02
 50
180.0000000000163141
 51
270.0
  0
ARC
  5
B912
  8
0
 10
4434.5964305947818502
 20
270.7529836693710195
 30
0.0
 40
0.0350393701000023
 50
90.0
 51
235.9719840974809983
  0
ARC
  5
B913
  8
0
 10
4434.8113912246808468
 20
270.7529836693710195
 30
0.0
 40
0.0350393700999967
 50
304.0280159025172111
 51
90.0
  0
LINE
  5
B914
  8
0
 10
4434.8012109290457374
 20
270.8080230394709815
 30
0.0
 11
4434.8012109290457374
 21
271.1580230394710043
 31
0.0
  0
ARC
  5
B915
  8
0
 10
4434.8812109290456647
 20
271.1580230394710043
 30
0.0
 40
0.08
 50
90.0
 51
180.0
  0
ARC
  5
B916
  8
0
 10
4434.7812109290462104
 20
270.8080230394709815
 30
0.0
 40
0.02
 50
270.0
 51
359.9999999999869829
  0
ENDSEC
  0
EOF
