  0
SECTION
  2
HEADER
  9
$ACADVER
  1
AC1009
  9
$INSBASE
 10
4273.5698855218961398
 20
644.5865935773522324
 30
0.0
  9
$EXTMIN
 10
4269.4522821872469649
 20
631.7138663492021351
 30
-0.0000000000112498
  9
$EXTMAX
 10
4278.9199253899632822
 20
646.9666930196118528
 30
0.0000000000002956
  9
$LIMMIN
 10
0.0
 20
0.0
  9
$LIMMAX
 10
11.6929133858000007
 20
8.2677165353999982
  9
$ORTHOMODE
 70
     0
  9
$REGENMODE
 70
     1
  9
$FILLMODE
 70
     1
  9
$QTEXTMODE
 70
     0
  9
$MIRRTEXT
 70
     0
  9
$DRAGMODE
 70
     2
  9
$LTSCALE
 40
0.6431102362
  9
$OSMODE
 70
  4095
  9
$ATTMODE
 70
     1
  9
$TEXTSIZE
 40
0.2
  9
$TRACEWID
 40
0.05
  9
$TEXTSTYLE
  7
STANDARD
  9
$CLAYER
  8
0
  9
$CELTYPE
  6
BYLAYER
  9
$CECOLOR
 62
   256
  9
$DIMSCALE
 40
1.0
  9
$DIMASZ
 40
0.1875
  9
$DIMEXO
 40
0.0625
  9
$DIMDLI
 40
0.4443307087
  9
$DIMRND
 40
0.0
  9
$DIMDLE
 40
0.0
  9
$DIMEXE
 40
0.125
  9
$DIMTP
 40
0.01
  9
$DIMTM
 40
0.01
  9
$DIMTXT
 40
2.0
  9
$DIMCEN
 40
0.1052362205
  9
$DIMTSZ
 40
0.0
  9
$DIMTOL
 70
     1
  9
$DIMLIM
 70
     0
  9
$DIMTIH
 70
     1
  9
$DIMTOH
 70
     1
  9
$DIMSE1
 70
     0
  9
$DIMSE2
 70
     0
  9
$DIMTAD
 70
     0
  9
$DIMZIN
 70
     0
  9
$DIMBLK
  1

  9
$DIMASO
 70
     1
  9
$DIMSHO
 70
     1
  9
$DIMPOST
  1
\X
  9
$DIMAPOST
  1

  9
$DIMALT
 70
     1
  9
$DIMALTD
 70
     2
  9
$DIMALTF
 40
25.3999999999999986
  9
$DIMLFAC
 40
1.0
  9
$DIMTOFL
 70
     0
  9
$DIMTVP
 40
0.0
  9
$DIMTIX
 70
     0
  9
$DIMSOXD
 70
     0
  9
$DIMSAH
 70
     0
  9
$DIMBLK1
  1

  9
$DIMBLK2
  1

  9
$DIMSTYLE
  2
STANDARD
  9
$DIMCLRD
 70
     0
  9
$DIMCLRE
 70
     0
  9
$DIMCLRT
 70
     0
  9
$DIMTFAC
 40
1.0
  9
$DIMGAP
 40
0.09
  9
$LUNITS
 70
     2
  9
$LUPREC
 70
     4
  9
$SKETCHINC
 40
0.1
  9
$FILLETRAD
 40
0.0
  9
$AUNITS
 70
     0
  9
$AUPREC
 70
     0
  9
$MENU
  1
.
  9
$ELEVATION
 40
0.0
  9
$PELEVATION
 40
0.0
  9
$THICKNESS
 40
0.0
  9
$LIMCHECK
 70
     0
  9
$BLIPMODE
 70
     0
  9
$CHAMFERA
 40
0.0
  9
$CHAMFERB
 40
0.0
  9
$SKPOLY
 70
     0
  9
$TDCREATE
 40
2458060.468368056230247
  9
$TDUPDATE
 40
2460095.6098726862110198
  9
$TDINDWG
 40
4.6153890045999999
  9
$TDUSRTIMER
 40
4.6153890045999999
  9
$USRTIMER
 70
     1
  9
$ANGBASE
 50
0.0
  9
$ANGDIR
 70
     0
  9
$PDMODE
 70
     0
  9
$PDSIZE
 40
0.3125
  9
$PLINEWID
 40
0.0
  9
$COORDS
 70
     1
  9
$SPLFRAME
 70
     0
  9
$SPLINETYPE
 70
     6
  9
$SPLINESEGS
 70
     8
  9
$ATTDIA
 70
     1
  9
$ATTREQ
 70
     1
  9
$HANDLING
 70
     1
  9
$HANDSEED
  5
22CCB
  9
$SURFTAB1
 70
     6
  9
$SURFTAB2
 70
     6
  9
$SURFTYPE
 70
     6
  9
$SURFU
 70
     6
  9
$SURFV
 70
     6
  9
$UCSNAME
  2

  9
$UCSORG
 10
0.0
 20
0.0
 30
0.0
  9
$UCSXDIR
 10
1.0
 20
0.0
 30
0.0
  9
$UCSYDIR
 10
0.0
 20
1.0
 30
0.0
  9
$PUCSNAME
  2

  9
$PUCSORG
 10
0.0
 20
0.0
 30
0.0
  9
$PUCSXDIR
 10
1.0
 20
0.0
 30
0.0
  9
$PUCSYDIR
 10
0.0
 20
1.0
 30
0.0
  9
$USERI1
 70
     0
  9
$USERI2
 70
     0
  9
$USERI3
 70
     0
  9
$USERI4
 70
     0
  9
$USERI5
 70
     0
  9
$USERR1
 40
0.0
  9
$USERR2
 40
0.0
  9
$USERR3
 40
0.0
  9
$USERR4
 40
0.0
  9
$USERR5
 40
0.0
  9
$WORLDVIEW
 70
     1
  9
$SHADEDGE
 70
     3
  9
$SHADEDIF
 70
    70
  9
$TILEMODE
 70
     1
  9
$MAXACTVP
 70
    64
  9
$PLIMCHECK
 70
     0
  9
$PEXTMIN
 10
1.0000000000000000E+20
 20
1.0000000000000000E+20
 30
1.0000000000000000E+20
  9
$PEXTMAX
 10
-1.0000000000000000E+20
 20
-1.0000000000000000E+20
 30
-1.0000000000000000E+20
  9
$PLIMMIN
 10
0.0
 20
0.0
  9
$PLIMMAX
 10
12.0
 20
9.0
  9
$UNITMODE
 70
     0
  9
$VISRETAIN
 70
     1
  9
$PLINEGEN
 70
     0
  9
$PSLTSCALE
 70
     1
  0
ENDSEC
  0
SECTION
  2
TABLES
  0
TABLE
  2
VPORT
 70
     1
  0
VPORT
  2
*ACTIVE
 70
     0
 10
0.0
 20
0.0
 11
1.0
 21
1.0
 12
37.7547073042296688
 22
40.6116687711237319
 13
0.0
 23
0.0
 14
1.0
 24
1.0
 15
0.0
 25
0.0
 16
0.0
 26
0.0
 36
98.7941898181710343
 17
4236.431396484375
 27
598.728610913283319
 37
0.0
 40
15.3860391304134101
 41
2.2244897959183669
 42
50.0
 43
0.0
 44
0.0
 50
0.0
 51
0.0
 71
     0
 72
   100
 73
     1
 74
     1
 75
     0
 76
     0
 77
     0
 78
     0
  0
ENDTAB
  0
TABLE
  2
LTYPE
 70
     2
  0
LTYPE
  2
CONTINUOUS
 70
     0
  3
Solid line
 72
    65
 73
     0
 40
0.0
  0
LTYPE
  2
PHANTOM2
 70
     0
  3
___ _ _ ___ _ _ ___ _ _ ___ _ _
 72
    65
 73
     6
 40
1.25
 49
0.625
 49
-0.125
 49
0.125
 49
-0.125
 49
0.125
 49
-0.125
  0
ENDTAB
  0
TABLE
  2
LAYER
 70
     2
  0
LAYER
  2
0
 70
     0
 62
   255
  6
CONTINUOUS
  0
LAYER
  2
DEFPOINTS
 70
     0
 62
     7
  6
CONTINUOUS
  0
ENDTAB
  0
TABLE
  2
STYLE
 70
     1
  0
STYLE
  2
STANDARD
 70
     0
 40
0.0
 41
0.8
 50
0.0
 71
     0
 42
0.2
  3
txt
  4

  0
ENDTAB
  0
TABLE
  2
VIEW
 70
     0
  0
ENDTAB
  0
TABLE
  2
UCS
 70
     0
  0
ENDTAB
  0
TABLE
  2
APPID
 70
    10
  0
APPID
  2
ACAD
 70
     0
  0
APPID
  2
ACAD_MLEADERVER
 70
     0
  0
APPID
  2
ACAD_EXEMPT_FROM_CAD_STANDARDS
 70
     0
  0
APPID
  2
ACAD_NAV_VCDISPLAY
 70
     0
  0
APPID
  2
ACAECLAYERSTANDARD
 70
     0
  0
APPID
  2
ACCMTRANSPARENCY
 70
     0
  0
APPID
  2
ACAD_DSTYLE_DIMJAG
 70
     0
  0
APPID
  2
ACAD_DSTYLE_DIMTALN
 70
     0
  0
APPID
  2
ACDBATTR
 70
     0
  0
APPID
  2
DCO15
 70
     0
  0
ENDTAB
  0
TABLE
  2
DIMSTYLE
 70
     1
  0
DIMSTYLE
  2
STANDARD
 70
     0
  3

  4

  5

  6

  7

 40
1.0
 41
0.1875
 42
0.0625
 43
0.38
 44
0.125
 45
0.0
 46
0.0
 47
0.01
 48
0.01
140
0.15625
141
0.09
142
0.0
143
25.3999999999999986
144
1.0
145
0.0
146
1.0
147
0.09
 71
     1
 72
     0
 73
     1
 74
     1
 75
     0
 76
     0
 77
     0
 78
     4
170
     0
171
     2
172
     0
173
     0
174
     0
175
     0
176
     0
177
     0
178
     0
  0
ENDTAB
  0
ENDSEC
  0
SECTION
  2
BLOCKS
  0
BLOCK
  8
0
  2
$MODEL_SPACE
 70
     0
 10
0.0
 20
0.0
 30
0.0
  3
$MODEL_SPACE
  1

  0
ENDBLK
  5
21
  8
0
  0
BLOCK
 67
     1
  8
0
  2
$PAPER_SPACE
 70
     0
 10
0.0
 20
0.0
 30
0.0
  3
$PAPER_SPACE
  1

  0
ENDBLK
  5
1D
 67
     1
  8
0
  0
ENDSEC
  0
SECTION
  2
ENTITIES
  0
ATTDEF
  5
22953
  8
DEFPOINTS
 10
4273.5702989845340198
 20
644.5910830237965001
 30
0.0
 40
0.001
  1
P32420-CREM
  3

  2
MODELNUMBER
 70
     0
1001
ACDBATTR
1070
     0
1070
     1
  0
ATTDEF
  5
22954
  8
DEFPOINTS
 10
4273.5702989845340198
 20
644.589416357129835
 30
0.0
 40
0.001
  1
ONE
  3

  2
TRADENAME
 70
     0
1001
ACDBATTR
1070
     0
1070
     1
  0
ATTDEF
  5
22955
  8
DEFPOINTS
 10
4273.5702989845340198
 20
644.5877496904630561
 30
0.0
 40
0.001
  1
BATH FAUCET 
  3

  2
PRODUCT
 70
     0
1001
ACDBATTR
1070
     0
1070
     1
  0
LINE
  5
22A6F
  8
0
 10
4272.9763855218961908
 20
632.3365935773522324
 30
0.0
 11
4272.9763855218961908
 21
644.5865935773522324
 31
0.0
  0
LINE
  5
22A70
  8
0
 10
4274.1633855218960889
 20
632.3365935773522324
 30
0.0
 11
4274.1633855218960889
 21
644.5865935773522324
 31
0.0
  0
ARC
  5
22A71
  8
0
 10
4273.5698855218961398
 20
644.5865935773522324
 30
0.0
 40
0.593500000000001
 50
0.0
 51
180.0
  0
ARC
  5
22A72
  8
0
 10
4273.5698855218961398
 20
644.5865935773522324
 30
0.0
 40
0.6010000000000005
 50
350.9388420657509187
 51
189.0611579342491098
  0
ARC
  5
22A73
  8
0
 10
4273.5698855218961398
 20
644.5865935773522324
 30
0.0
 40
0.7079516040555059
 50
326.9646248732693721
 51
213.0353751267305995
  0
ARC
  5
22A74
  8
0
 10
4273.5698855218961398
 20
644.5865935773522324
 30
0.0
 40
0.697947480874285
 50
328.2498138414628102
 51
211.7501861585371898
  0
ARC
  5
22A75
  8
0
 10
4273.5698855218961398
 20
644.5865935773522324
 30
0.0
 40
2.362204724399998
 50
202.5403104551130014
 51
255.4486055856461064
  0
ARC
  5
22A76
  8
0
 10
4273.5698855218961398
 20
644.5865935773522324
 30
0.0
 40
2.362204724399998
 50
284.551394414353922
 51
337.4596895448869986
  0
ARC
  5
22A77
  8
0
 10
4273.5698855218961398
 20
644.5865935773522324
 30
0.0
 40
2.362204724399998
 50
22.5403104524894715
 51
157.459689547510493
  0
LINE
  5
22A78
  8
0
 10
4269.6695505624429643
 20
645.4921053879521651
 30
0.0
 11
4276.7194918210961987
 21
645.4921053879521651
 31
0.0
  0
LINE
  5
22A79
  8
0
 10
4276.7591768604970639
 20
645.4921053879521651
 30
0.0
 11
4277.1441800529401007
 21
645.4921053879521651
 31
0.0
  0
LINE
  5
22A7A
  8
0
 10
4269.6673266679990775
 20
643.6810817666522553
 30
0.0
 11
4272.9763855218961908
 21
643.6810817666522553
 31
0.0
  0
LINE
  5
22A7B
  8
0
 10
4274.1633855218960889
 20
643.6810817666522553
 30
0.0
 11
4276.7194918210961987
 21
643.6810817666522553
 31
0.0
  0
LINE
  5
22A7C
  8
0
 10
4276.7391768604957178
 20
643.6810817666522553
 30
0.0
 11
4277.1441768604963727
 21
643.6810817666522553
 31
0.0
  0
ARC
  5
22A7D
  8
0
 10
4269.6729801592864533
 20
643.7207851741169407
 30
0.0
 40
0.0401038966690553
 50
180.4762272518568977
 51
261.8959552551697243
  0
LINE
  5
22A7E
  8
0
 10
4269.6328776478958389
 20
643.7204518450522528
 30
0.0
 11
4269.6328776478958389
 21
644.251947908052216
 31
0.0
  0
ARC
  5
22A7F
  8
0
 10
4269.6525626872962675
 20
644.251947908052216
 30
0.0
 40
0.0196850394000059
 50
89.999999889422142
 51
179.999999999980389
  0
LINE
  5
22A80
  8
0
 10
4269.6525626873335568
 20
644.2716329474521899
 30
0.0
 11
4269.8891681662707924
 21
644.2716329469956236
 31
0.0
  0
ARC
  5
22A81
  8
0
 10
4269.8891681662316842
 20
644.2520119106147831
 30
0.0
 40
0.0196210363807836
 50
54.9602767216236927
 51
89.999999889422142
  0
ARC
  5
22A82
  8
0
 10
4270.1237906447731802
 20
644.5865935893781398
 30
0.0
 40
0.3890262531007569
 50
234.9602767216236998
 51
125.0273480166734998
  0
ARC
  5
22A83
  8
0
 10
4269.889079510207921
 20
644.9214555311639288
 30
0.0
 40
0.0199014137860767
 50
270.1721923283748765
 51
305.0273480166734998
  0
LINE
  5
22A84
  8
0
 10
4269.8891393202948166
 20
644.9015542072522749
 30
0.0
 11
4269.6525626872962675
 21
644.9015542072522749
 31
0.0
  0
ARC
  5
22A85
  8
0
 10
4269.6525626872962675
 20
644.9212392466522488
 30
0.0
 40
0.0196850394000086
 50
180.0
 51
270.0
  0
LINE
  5
22A86
  8
0
 10
4269.6328776478958389
 20
644.9212392466522488
 30
0.0
 11
4269.6328776478958389
 21
645.452735309652212
 31
0.0
  0
ARC
  5
22A87
  8
0
 10
4269.672426331011593
 20
645.452661329280545
 30
0.0
 40
0.0395487523111604
 50
94.1699153373623545
 51
179.8928217632139024
  0
ARC
  5
22A88
  8
0
 10
4269.7997277649546959
 20
644.9212077646894841
 30
0.0
 40
0.0196535576928158
 50
270.0092392481859065
 51
314.1764748194823937
  0
ARC
  5
22A89
  8
0
 10
4270.1248585734247172
 20
644.5865936402187799
 30
0.0
 40
0.446904750465768
 50
225.839490202901203
 51
134.1764748194823085
  0
ARC
  5
22A8A
  8
0
 10
4269.7995972325934417
 20
644.2516584953139045
 30
0.0
 40
0.0199747748210242
 50
45.8394902029012528
 51
89.6164911450944999
  0
LINE
  5
22A8B
  8
0
 10
4276.7194918210961987
 20
645.4921053879521651
 30
0.0
 11
4276.7194918210961987
 21
643.6810817666522553
 31
0.0
  0
LINE
  5
22A8C
  8
0
 10
4276.7194918210961987
 20
643.6909242859520646
 30
0.0
 11
4276.7391768604957178
 21
643.6909242859520646
 31
0.0
  0
LINE
  5
22A8D
  8
0
 10
4276.7391768604957178
 20
643.6810817666522553
 30
0.0
 11
4276.7391768604957178
 21
645.4822628686522421
 31
0.0
  0
LINE
  5
22A8E
  8
0
 10
4276.7391768604957178
 20
645.4822628686522421
 30
0.0
 11
4276.7194918210961987
 21
645.4822628686522421
 31
0.0
  0
ARC
  5
22A8F
  8
0
 10
4276.759811430211812
 20
645.4710910744283865
 30
0.0
 40
0.0210238923988392
 50
91.7296363907826162
 51
168.9564576514559064
  0
ARC
  5
22A90
  8
0
 10
4277.1441768604963727
 20
645.4720935773522115
 30
0.0
 40
0.0199999999999946
 50
359.9999999999805027
 51
0.0
  0
ARC
  5
22A91
  8
0
 10
4277.1441379751840941
 20
645.4720609448693267
 30
0.0
 40
0.020044487248124
 50
0.0932777350225701
 51
89.8797235558178045
  0
LINE
  5
22A92
  8
0
 10
4277.1641824358694066
 20
645.4720935773522115
 30
0.0
 11
4277.1641824358694066
 21
643.7010935773522533
 31
0.0
  0
ARC
  5
22A93
  8
0
 10
4277.1441527278566355
 20
643.7011114681148456
 30
0.0
 40
0.0200297160007291
 50
270.0690323655861107
 51
359.9488227725072989
  0
ARC
  5
22A94
  8
0
 10
4277.2041768604958634
 20
645.1175935773520678
 30
0.0
 40
0.0399999999999903
 50
179.9999999999870113
 51
270.0
  0
LINE
  5
22A95
  8
0
 10
4277.2041768604958634
 20
645.0775935773521041
 30
0.0
 11
4277.9251669913974183
 21
645.0775935773524452
 31
0.0
  0
ARC
  5
22A96
  8
0
 10
4278.0711148020782275
 20
644.9055042889661991
 30
0.0
 40
0.2265405579187833
 50
74.44339914478401
 51
177.5566008725135987
  0
ARC
  5
22A97
  8
0
 10
4278.2407304781690982
 20
645.5147807655423549
 30
0.0
 40
0.4059049357678721
 50
254.4433991447839105
 51
272.3562009547752041
  0
ARC
  5
22A98
  8
0
 10
4278.2786972538160626
 20
644.5920625235931993
 30
0.0
 40
0.5175940788926296
 50
87.6437992253134439
 51
92.3562009547751757
  0
ARC
  5
22A99
  8
0
 10
4278.3166640268409537
 20
645.5147807723736832
 30
0.0
 40
0.4059049424857432
 50
267.6437992253133871
 51
285.5566007080303734
  0
ARC
  5
22A9A
  8
0
 10
4278.485533551491244
 20
644.9081845403862872
 30
0.0
 40
0.2237583842347734
 50
54.1333297348664999
 51
105.5566007080303024
  0
ARC
  5
22A9B
  8
0
 10
4277.9368912401459966
 20
644.149335945419466
 30
0.0
 40
1.16016618849622
 50
53.8666699316786293
 51
54.1333297348664999
  0
ARC
  5
22A9C
  8
0
 10
4278.4890593468553561
 20
644.905622898464685
 30
0.0
 40
0.2237583855523103
 50
2.443399457598415
 51
53.8666699316786293
  0
ARC
  5
22A9D
  8
0
 10
4279.1181502090721551
 20
644.9324669833026746
 30
0.0
 40
0.4059049513307521
 50
182.4433994575983888
 51
200.3562005408628011
  0
ARC
  5
22A9E
  8
0
 10
4287.4413615997864326
 20
647.5969216688864663
 30
0.0
 40
9.1447927448157404
 50
197.8666767786673972
 51
198.1333231741118936
  0
ARC
  5
22A9F
  8
0
 10
4279.1378296441689599
 20
644.8583364406921419
 30
0.0
 40
0.4017447186362572
 50
195.5265914901264921
 51
214.1986574782050923
  0
ARC
  5
22AA0
  8
0
 10
4278.6177768516572542
 20
644.5122501046664638
 30
0.0
 40
0.222992641765476
 50
340.6629886055300744
 51
32.6421512997488605
  0
ARC
  5
22AA1
  8
0
 10
4278.6164059158572854
 20
644.5072246679436603
 30
0.0
 40
0.2226828230626084
 50
290.3100695768576998
 51
341.9999999445479943
  0
ARC
  5
22AA2
  8
0
 10
4278.9121902733750176
 20
643.7478632163463317
 30
0.0
 40
0.5922957152206098
 50
111.6470809158552981
 51
117.201387916311603
  0
ARC
  5
22AA3
  8
0
 10
4278.9121902733750176
 20
643.7478632163463317
 30
0.0
 40
0.5922957152206098
 50
134.7986120275118935
 51
140.3529190741764978
  0
ARC
  5
22AA4
  8
0
 10
4278.2813970096658522
 20
644.2638264508918837
 30
0.0
 40
0.2226828234396905
 50
270.0000000849918251
 51
321.6899303634817784
  0
ARC
  5
22AA5
  8
0
 10
4278.2761939676820475
 20
644.2640723610480791
 30
0.0
 40
0.2229894434990487
 50
218.3283542964811943
 51
271.3370113743059164
  0
ARC
  5
22AA6
  8
0
 10
4277.7868505382457442
 20
643.8772188491896031
 30
0.0
 40
0.4007994884076376
 50
38.3283542964812725
 51
56.4712456822223103
  0
ARC
  5
22AA7
  8
0
 10
4278.2808284651946451
 20
644.6227249188915494
 30
0.0
 40
0.4935122538136255
 50
231.5287543549927136
 51
236.4712456822223032
  0
ARC
  5
22AA8
  8
0
 10
4277.7244576314669757
 20
643.9225499435682423
 30
0.0
 40
0.4007994931130339
 50
51.5287543549927065
 51
69.6716454714903222
  0
ARC
  5
22AA9
  8
0
 10
4277.9411617539317376
 20
644.5074875164037849
 30
0.0
 40
0.2229894461988117
 50
196.6629889898630097
 51
249.671645471490308
  0
ARC
  5
22AAA
  8
0
 10
4277.9393044671096504
 20
644.5123620578931423
 30
0.0
 40
0.222668667858608
 50
146.3083052340849974
 51
198.0017643199439021
  0
ARC
  5
22AAB
  8
0
 10
4277.3583081372207744
 20
644.8865625959638237
 30
0.0
 40
0.4684461741319371
 50
327.6470805641550896
 51
343.1525194342364102
  0
ARC
  5
22AAC
  8
0
 10
4278.8191792943962355
 20
644.4441782935346055
 30
0.0
 40
1.0579379219932801
 50
160.8474803234580008
 51
163.1525194342362965
  0
ARC
  5
22AAD
  8
0
 10
4277.3922538709057335
 20
644.9419417444130431
 30
0.0
 40
0.453318020243539
 50
340.5870843009432178
 51
356.6133157416832091
  0
LINE
  5
22AAE
  8
0
 10
4278.1301025336006205
 20
644.0955935773522469
 30
0.0
 11
4277.2041768604958634
 21
644.0955935773522469
 31
0.0
  0
ARC
  5
22AAF
  8
0
 10
4277.2041768604958634
 20
644.0555935773522833
 30
0.0
 40
0.0399999999999849
 50
90.0
 51
180.0000000000194973
  0
ARC
  5
22AB0
  8
0
 10
4278.2790017422958044
 20
644.5873269408521082
 30
0.0
 40
0.4917509824999013
 50
217.4741998257520095
 51
248.3670980359771079
  0
ARC
  5
22AB1
  8
0
 10
4278.7420683148093303
 20
643.9143400701768769
 30
0.0
 40
0.3541409955831428
 50
123.0056142287954941
 51
134.2065483400859875
  0
ARC
  5
22AB2
  8
0
 10
4278.3272672801276713
 20
644.5529406492728413
 30
0.0
 40
0.4073513536848657
 50
303.0056142287954799
 51
308.9943857552099757
  0
ARC
  5
22AB3
  8
0
 10
4278.8136501496137498
 20
643.9517787830111502
 30
0.0
 40
0.3659299397633882
 50
118.0738100640145944
 51
128.9541197016447995
  0
ARC
  5
22AB4
  8
0
 10
4278.2789807002964153
 20
644.5866552286521483
 30
0.0
 40
0.4910449005999046
 50
291.5981327267451206
 51
322.5006544389826786
  0
ARC
  5
22AB5
  8
0
 10
4273.5698855218961398
 20
632.3365935773522324
 30
0.0
 40
0.5934999999999988
 50
180.0
 51
0.0
  0
VIEWPORT
  5
7BC8
 67
     1
  8
0
 10
8.4975296442687753
 20
4.5
 30
0.0
 40
16.9950592885375507
 41
9.0
 68
     1
 69
     1
1001
ACAD
1000
MVIEW
1002
{
1070
    16
1010
0.0
1020
0.0
1030
0.0
1010
0.0
1020
0.0
1030
1.0
1040
0.0
1040
9.0
1040
8.4975296442687753
1040
4.5
1040
50.0
1040
0.0
1040
0.0
1070
     0
1070
   100
1070
     1
1070
     1
1070
     0
1070
     0
1070
     0
1070
     0
1040
0.0
1040
0.0
1040
0.0
1040
1.0
1040
1.0
1040
0.0
1040
0.0
1070
     0
1002
{
1002
}
1002
}
  0
ENDSEC
  0
EOF
