  0
SECTION
  2
HEADER
  9
$ACADVER
  1
AC1009
  9
$INSBASE
 10
4297.949340979277622
 20
590.4977735542333903
 30
0.0
  9
$EXTMIN
 10
4285.0326262260914518
 20
590.4971940774416908
 30
-0.0000000000000058
  9
$EXTMAX
 10
4300.4527805511315819
 20
628.3723197740665682
 30
0.0000000000000104
  9
$LIMMIN
 10
0.0
 20
0.0
  9
$LIMMAX
 10
11.6929133858000007
 20
8.2677165353999982
  9
$ORTHOMODE
 70
     0
  9
$REGENMODE
 70
     1
  9
$FILLMODE
 70
     1
  9
$QTEXTMODE
 70
     0
  9
$MIRRTEXT
 70
     0
  9
$DRAGMODE
 70
     2
  9
$LTSCALE
 40
0.6431102362
  9
$OSMODE
 70
  4095
  9
$ATTMODE
 70
     1
  9
$TEXTSIZE
 40
0.2
  9
$TRACEWID
 40
0.05
  9
$TEXTSTYLE
  7
STANDARD
  9
$CLAYER
  8
0
  9
$CELTYPE
  6
BYLAYER
  9
$CECOLOR
 62
   256
  9
$DIMSCALE
 40
1.0
  9
$DIMASZ
 40
0.1875
  9
$DIMEXO
 40
0.0625
  9
$DIMDLI
 40
0.4443307087
  9
$DIMRND
 40
0.0
  9
$DIMDLE
 40
0.0
  9
$DIMEXE
 40
0.125
  9
$DIMTP
 40
0.01
  9
$DIMTM
 40
0.01
  9
$DIMTXT
 40
2.0
  9
$DIMCEN
 40
0.1052362205
  9
$DIMTSZ
 40
0.0
  9
$DIMTOL
 70
     1
  9
$DIMLIM
 70
     0
  9
$DIMTIH
 70
     1
  9
$DIMTOH
 70
     1
  9
$DIMSE1
 70
     0
  9
$DIMSE2
 70
     0
  9
$DIMTAD
 70
     0
  9
$DIMZIN
 70
     0
  9
$DIMBLK
  1

  9
$DIMASO
 70
     1
  9
$DIMSHO
 70
     1
  9
$DIMPOST
  1
\X
  9
$DIMAPOST
  1

  9
$DIMALT
 70
     1
  9
$DIMALTD
 70
     2
  9
$DIMALTF
 40
25.3999999999999986
  9
$DIMLFAC
 40
1.0
  9
$DIMTOFL
 70
     0
  9
$DIMTVP
 40
0.0
  9
$DIMTIX
 70
     0
  9
$DIMSOXD
 70
     0
  9
$DIMSAH
 70
     0
  9
$DIMBLK1
  1

  9
$DIMBLK2
  1

  9
$DIMSTYLE
  2
STANDARD
  9
$DIMCLRD
 70
     0
  9
$DIMCLRE
 70
     0
  9
$DIMCLRT
 70
     0
  9
$DIMTFAC
 40
1.0
  9
$DIMGAP
 40
0.09
  9
$LUNITS
 70
     2
  9
$LUPREC
 70
     4
  9
$SKETCHINC
 40
0.1
  9
$FILLETRAD
 40
0.0
  9
$AUNITS
 70
     0
  9
$AUPREC
 70
     0
  9
$MENU
  1
.
  9
$ELEVATION
 40
0.0
  9
$PELEVATION
 40
0.0
  9
$THICKNESS
 40
0.0
  9
$LIMCHECK
 70
     0
  9
$BLIPMODE
 70
     0
  9
$CHAMFERA
 40
0.0
  9
$CHAMFERB
 40
0.0
  9
$SKPOLY
 70
     0
  9
$TDCREATE
 40
2458060.468368056230247
  9
$TDUPDATE
 40
2460095.6085879630409181
  9
$TDINDWG
 40
4.6142315971999999
  9
$TDUSRTIMER
 40
4.6142315971999999
  9
$USRTIMER
 70
     1
  9
$ANGBASE
 50
0.0
  9
$ANGDIR
 70
     0
  9
$PDMODE
 70
     0
  9
$PDSIZE
 40
0.3125
  9
$PLINEWID
 40
0.0
  9
$COORDS
 70
     1
  9
$SPLFRAME
 70
     0
  9
$SPLINETYPE
 70
     6
  9
$SPLINESEGS
 70
     8
  9
$ATTDIA
 70
     1
  9
$ATTREQ
 70
     1
  9
$HANDLING
 70
     1
  9
$HANDSEED
  5
22BEE
  9
$SURFTAB1
 70
     6
  9
$SURFTAB2
 70
     6
  9
$SURFTYPE
 70
     6
  9
$SURFU
 70
     6
  9
$SURFV
 70
     6
  9
$UCSNAME
  2

  9
$UCSORG
 10
0.0
 20
0.0
 30
0.0
  9
$UCSXDIR
 10
1.0
 20
0.0
 30
0.0
  9
$UCSYDIR
 10
0.0
 20
1.0
 30
0.0
  9
$PUCSNAME
  2

  9
$PUCSORG
 10
0.0
 20
0.0
 30
0.0
  9
$PUCSXDIR
 10
1.0
 20
0.0
 30
0.0
  9
$PUCSYDIR
 10
0.0
 20
1.0
 30
0.0
  9
$USERI1
 70
     0
  9
$USERI2
 70
     0
  9
$USERI3
 70
     0
  9
$USERI4
 70
     0
  9
$USERI5
 70
     0
  9
$USERR1
 40
0.0
  9
$USERR2
 40
0.0
  9
$USERR3
 40
0.0
  9
$USERR4
 40
0.0
  9
$USERR5
 40
0.0
  9
$WORLDVIEW
 70
     1
  9
$SHADEDGE
 70
     3
  9
$SHADEDIF
 70
    70
  9
$TILEMODE
 70
     1
  9
$MAXACTVP
 70
    64
  9
$PLIMCHECK
 70
     0
  9
$PEXTMIN
 10
1.0000000000000000E+20
 20
1.0000000000000000E+20
 30
1.0000000000000000E+20
  9
$PEXTMAX
 10
-1.0000000000000000E+20
 20
-1.0000000000000000E+20
 30
-1.0000000000000000E+20
  9
$PLIMMIN
 10
0.0
 20
0.0
  9
$PLIMMAX
 10
12.0
 20
9.0
  9
$UNITMODE
 70
     0
  9
$VISRETAIN
 70
     1
  9
$PLINEGEN
 70
     0
  9
$PSLTSCALE
 70
     1
  0
ENDSEC
  0
SECTION
  2
TABLES
  0
TABLE
  2
VPORT
 70
     1
  0
VPORT
  2
*ACTIVE
 70
     0
 10
0.0
 20
0.0
 11
1.0
 21
1.0
 12
56.3113069042365311
 22
10.7061460124708603
 13
0.0
 23
0.0
 14
1.0
 24
1.0
 15
0.0
 25
0.0
 16
0.0
 26
0.0
 36
98.7941898181710343
 17
4236.431396484375
 27
598.728610913283319
 37
0.0
 40
38.2059128206129799
 41
2.2244897959183669
 42
50.0
 43
0.0
 44
0.0
 50
0.0
 51
0.0
 71
     0
 72
   100
 73
     1
 74
     1
 75
     0
 76
     0
 77
     0
 78
     0
  0
ENDTAB
  0
TABLE
  2
LTYPE
 70
     2
  0
LTYPE
  2
CONTINUOUS
 70
     0
  3
Solid line
 72
    65
 73
     0
 40
0.0
  0
LTYPE
  2
PHANTOM2
 70
     0
  3
___ _ _ ___ _ _ ___ _ _ ___ _ _
 72
    65
 73
     6
 40
1.25
 49
0.625
 49
-0.125
 49
0.125
 49
-0.125
 49
0.125
 49
-0.125
  0
ENDTAB
  0
TABLE
  2
LAYER
 70
     2
  0
LAYER
  2
0
 70
     0
 62
   255
  6
CONTINUOUS
  0
LAYER
  2
DEFPOINTS
 70
     0
 62
     7
  6
CONTINUOUS
  0
ENDTAB
  0
TABLE
  2
STYLE
 70
     1
  0
STYLE
  2
STANDARD
 70
     0
 40
0.0
 41
0.8
 50
0.0
 71
     0
 42
0.2
  3
txt
  4

  0
ENDTAB
  0
TABLE
  2
VIEW
 70
     0
  0
ENDTAB
  0
TABLE
  2
UCS
 70
     0
  0
ENDTAB
  0
TABLE
  2
APPID
 70
    10
  0
APPID
  2
ACAD
 70
     0
  0
APPID
  2
ACAD_MLEADERVER
 70
     0
  0
APPID
  2
ACAD_EXEMPT_FROM_CAD_STANDARDS
 70
     0
  0
APPID
  2
ACAD_NAV_VCDISPLAY
 70
     0
  0
APPID
  2
ACAECLAYERSTANDARD
 70
     0
  0
APPID
  2
ACCMTRANSPARENCY
 70
     0
  0
APPID
  2
ACAD_DSTYLE_DIMJAG
 70
     0
  0
APPID
  2
ACAD_DSTYLE_DIMTALN
 70
     0
  0
APPID
  2
ACDBATTR
 70
     0
  0
APPID
  2
DCO15
 70
     0
  0
ENDTAB
  0
TABLE
  2
DIMSTYLE
 70
     1
  0
DIMSTYLE
  2
STANDARD
 70
     0
  3

  4

  5

  6

  7

 40
1.0
 41
0.1875
 42
0.0625
 43
0.38
 44
0.125
 45
0.0
 46
0.0
 47
0.01
 48
0.01
140
0.15625
141
0.09
142
0.0
143
25.3999999999999986
144
1.0
145
0.0
146
1.0
147
0.09
 71
     1
 72
     0
 73
     1
 74
     1
 75
     0
 76
     0
 77
     0
 78
     4
170
     0
171
     2
172
     0
173
     0
174
     0
175
     0
176
     0
177
     0
178
     0
  0
ENDTAB
  0
ENDSEC
  0
SECTION
  2
BLOCKS
  0
BLOCK
  8
0
  2
$MODEL_SPACE
 70
     0
 10
0.0
 20
0.0
 30
0.0
  3
$MODEL_SPACE
  1

  0
ENDBLK
  5
21
  8
0
  0
BLOCK
 67
     1
  8
0
  2
$PAPER_SPACE
 70
     0
 10
0.0
 20
0.0
 30
0.0
  3
$PAPER_SPACE
  1

  0
ENDBLK
  5
1D
 67
     1
  8
0
  0
ENDSEC
  0
SECTION
  2
ENTITIES
  0
ATTDEF
  5
3930
  8
DEFPOINTS
 10
4297.9499411968208733
 20
590.5019392132791154
 30
0.0
 40
0.001
  1
P32420-BLE
  3

  2
MODELNUMBER
 70
     0
1001
ACDBATTR
1070
     0
1070
     1
  0
ATTDEF
  5
3931
  8
DEFPOINTS
 10
4297.9499411968208733
 20
590.5002725466124502
 30
0.0
 40
0.001
  1
ONE
  3

  2
TRADENAME
 70
     0
1001
ACDBATTR
1070
     0
1070
     1
  0
ATTDEF
  5
3932
  8
DEFPOINTS
 10
4297.9499411968208733
 20
590.4986058799456714
 30
0.0
 40
0.001
  1
BATH FAUCET 
  3

  2
PRODUCT
 70
     0
1001
ACDBATTR
1070
     0
1070
     1
  0
LINE
  5
22912
  8
0
 10
4287.1836482529970453
 20
628.3599818967743431
 30
0.0
 11
4296.465273252996667
 21
628.3599818967743431
 31
0.0
  0
LINE
  5
22913
  8
0
 10
4297.4373133031976977
 20
620.9888633743742048
 30
0.0
 11
4298.4612327528975584
 21
620.9888633743742048
 31
0.0
  0
LINE
  5
22914
  8
0
 10
4297.1618732529968838
 20
620.4387174733473103
 30
0.0
 11
4297.4038233031978962
 21
620.4387174733473103
 31
0.0
  0
LINE
  5
22915
  8
0
 10
4298.4947227528982694
 20
620.4387174733473103
 30
0.0
 11
4298.7366732529972069
 21
620.4387174733473103
 31
0.0
  0
LINE
  5
22916
  8
0
 10
4295.6070685244667402
 20
591.285174211774347
 30
0.0
 11
4300.2914779815273505
 21
591.285174211774347
 31
0.0
  0
LINE
  5
22917
  8
0
 10
4295.5970685324973601
 20
590.4977735542333903
 30
0.0
 11
4300.3016134260597028
 21
590.4977735542333903
 31
0.0
  0
LINE
  5
22918
  8
0
 10
4286.2927732529979039
 20
625.7224818967742976
 30
0.0
 11
4285.1057732529970963
 21
625.7224818967742976
 31
0.0
  0
LINE
  5
22919
  8
0
 10
4285.1057732529970963
 20
625.7224818967742976
 30
0.0
 11
4285.1057732529970963
 21
626.2821068967742804
 31
0.0
  0
ARC
  5
2291A
  8
0
 10
4287.1836482529970453
 20
626.2821068967742804
 30
0.0
 40
2.077875000000013
 50
90.0
 51
180.0
  0
LINE
  5
2291B
  8
0
 10
4286.2927732529979039
 20
625.7224818967742976
 30
0.0
 11
4286.2927732529979039
 21
626.2821068967742804
 31
0.0
  0
ARC
  5
2291C
  8
0
 10
4287.1836482529970453
 20
626.2821068967742804
 30
0.0
 40
0.8908750000000011
 50
90.0
 51
180.0
  0
LINE
  5
2291D
  8
0
 10
4287.1836482529970453
 20
627.1729818967743313
 30
0.0
 11
4296.465273252996667
 21
627.1729818967743313
 31
0.0
  0
ARC
  5
2291E
  8
0
 10
4296.465273252996667
 20
626.2824818967743568
 30
0.0
 40
0.8904999999999994
 50
0.0
 51
90.0
  0
LINE
  5
2291F
  8
0
 10
4297.3557732529970963
 20
626.2824818967743568
 30
0.0
 11
4297.3557732529970963
 21
620.4387176841743212
 31
0.0
  0
LINE
  5
22920
  8
0
 10
4297.1618732529968838
 20
620.4387176841743212
 30
0.0
 11
4297.1618716781977128
 21
617.7658639853577824
 31
0.0
  0
ARC
  5
22921
  8
0
 10
4296.9650207906661308
 20
617.7658641013390479
 30
0.0
 40
0.1968508875315557
 50
333.2345336270698795
 51
359.9999662422973188
  0
ARC
  5
22922
  8
0
 10
4297.9492640675453003
 20
617.2694314186084057
 30
0.0
 40
0.9055012506551161
 50
126.4874818951879973
 51
53.5116206380782202
  0
ARC
  5
22923
  8
0
 10
4296.9445286006339302
 20
616.7698063458922206
 30
0.0
 40
0.2173663696982613
 50
0.8387836926672468
 51
22.1268977020175512
  0
LINE
  5
22924
  8
0
 10
4297.1618716781977128
 20
616.7729883752735986
 30
0.0
 11
4297.1618716781977128
 21
591.285174211774347
 31
0.0
  0
ARC
  5
22925
  8
0
 10
4295.5970669627413372
 20
590.5077719882752945
 30
0.0
 40
0.0099984341652667
 50
179.9962832201902074
 51
270.0089954465627216
  0
LINE
  5
22926
  8
0
 10
4295.5870685285972286
 20
590.5077726368742788
 30
0.0
 11
4295.5870685285981381
 21
591.2651742117742515
 31
0.0
  0
ARC
  5
22927
  8
0
 10
4295.6070685285976651
 20
591.2651742117742515
 30
0.0
 40
0.0200000000000102
 50
90.0000118314142554
 51
179.9999999999674003
  0
ARC
  5
22928
  8
0
 10
4296.465273252996667
 20
626.2824818967743568
 30
0.0
 40
2.0775000000000001
 50
0.0
 51
90.0
  0
LINE
  5
22929
  8
0
 10
4298.4947227528982694
 20
620.9553733743741759
 30
0.0
 11
4298.4947227528982694
 21
618.0179161802742556
 31
0.0
  0
LINE
  5
2292A
  8
0
 10
4297.4038233031978962
 20
620.9553733743741759
 30
0.0
 11
4297.4038233031978962
 21
618.0179161802742556
 31
0.0
  0
LINE
  5
2292B
  8
0
 10
4297.9985613487970113
 20
620.9613242106754569
 30
0.0
 11
4297.9985613487970113
 21
618.0179161802742556
 31
0.0
  0
LINE
  5
2292C
  8
0
 10
4297.6610661688973778
 20
620.9622922129185554
 30
0.0
 11
4297.6610661688973778
 21
618.0179161802742556
 31
0.0
  0
LINE
  5
2292D
  8
0
 10
4298.2778419402966392
 20
620.9888633743743185
 30
0.0
 11
4298.2778419402966392
 21
617.9844261802743404
 31
0.0
  0
LINE
  5
2292E
  8
0
 10
4298.4521941180973954
 20
620.9553733743741759
 30
0.0
 11
4298.4521941180973954
 21
618.0179161802732324
 31
0.0
  0
ARC
  5
2292F
  8
0
 10
4297.4373133031976977
 20
618.0179161802742556
 30
0.0
 40
0.0334900000000005
 50
180.0000000002148965
 51
270.0
  0
LINE
  5
22930
  8
0
 10
4297.4373133031976977
 20
617.9844261802743404
 30
0.0
 11
4298.4612327528975584
 21
617.9844261802743404
 31
0.0
  0
ARC
  5
22931
  8
0
 10
4298.4612327528975584
 20
618.0179161802742556
 30
0.0
 40
0.0334900000000023
 50
270.0
 51
0.0
  0
ARC
  5
22932
  8
0
 10
4298.4188275504975536
 20
618.0154036931037353
 30
0.0
 40
0.0330336524026492
 50
290.3219071529637176
 51
326.1058266294293162
  0
ARC
  5
22933
  8
0
 10
4298.4165450623149809
 20
618.0167307940251931
 30
0.0
 40
0.0356687583013089
 50
326.3809415278748247
 51
1.9044715998828099
  0
ARC
  5
22934
  8
0
 10
4297.9624134224095542
 20
618.0146509364686835
 30
0.0
 40
0.0371360858486752
 50
305.5220663292801078
 51
320.2800533954949174
  0
ARC
  5
22935
  8
0
 10
4297.9653317692836936
 20
618.0099684908765312
 30
0.0
 40
0.0319463517722646
 50
323.3963653201515172
 51
342.0915781676110896
  0
ARC
  5
22936
  8
0
 10
4297.940524171506695
 20
618.0180508527464553
 30
0.0
 40
0.0580373335409789
 50
342.0298610305915759
 51
359.8670481441916991
  0
ARC
  5
22937
  8
0
 10
4297.6974339925627646
 20
618.0182728743136522
 30
0.0
 40
0.0363695728435823
 50
180.5619365056998902
 51
248.5335721124073132
  0
ARC
  5
22938
  8
0
 10
4297.697571522702674
 20
620.9531519586322474
 30
0.0
 40
0.037632234917194
 50
108.385086003766105
 51
165.9432020076937135
  0
ARC
  5
22939
  8
0
 10
4297.9535957369198513
 20
620.9571290943632675
 30
0.0
 40
0.0451608818814868
 50
5.3300440980932402
 51
44.6435443139699331
  0
ARC
  5
2293A
  8
0
 10
4298.4174662029690808
 20
620.95658665149017
 30
0.0
 40
0.0347491025858494
 50
357.9990910580967807
 51
68.2563391425748875
  0
ARC
  5
2293B
  8
0
 10
4298.4612327528975584
 20
620.955373374374517
 30
0.0
 40
0.0334899999996878
 50
359.9999999995766871
 51
90.0000000005210836
  0
ARC
  5
2293C
  8
0
 10
4297.4373133031976977
 20
620.9553733743744033
 30
0.0
 40
0.0334899999998868
 50
89.9999999997915552
 51
180.0000000000912053
  0
ARC
  5
2293D
  8
0
 10
4298.419969819610742
 20
617.9642162147259796
 30
0.0
 40
0.0203044540050652
 50
0.5744810754186432
 51
84.4703211038313668
  0
LINE
  5
2293E
  8
0
 10
4298.4402732529970308
 20
617.9644197956743028
 30
0.0
 11
4298.4402732529970308
 21
617.2694261802741948
 31
0.0
  0
ARC
  5
2293F
  8
0
 10
4297.9492732529970453
 20
617.2694261802741948
 30
0.0
 40
0.4910000000000033
 50
180.0000000000065086
 51
359.9999999999935199
  0
LINE
  5
22940
  8
0
 10
4297.4582732529970599
 20
617.2694261802741948
 30
0.0
 11
4297.4582732529970599
 21
617.9644267788802381
 31
0.0
  0
ARC
  5
22941
  8
0
 10
4297.478258821257441
 20
617.964578186734343
 30
0.0
 40
0.0199861417741293
 50
96.7405649194510033
 51
180.4340564628031132
  0
ARC
  5
22942
  8
0
 10
4297.9492732529970453
 20
617.2694261802741948
 30
0.0
 40
0.5309999999999989
 50
157.6187114863801071
 51
22.3812885136198716
  0
ARC
  5
22943
  8
0
 10
4298.947271097180419
 20
617.7673697427763955
 30
0.0
 40
0.2106016523827004
 50
180.4096565031713908
 51
202.0924858346295991
  0
LINE
  5
22944
  8
0
 10
4298.7366748277972874
 20
617.7658639843741639
 30
0.0
 11
4298.7366732529972069
 21
620.4387176841743212
 31
0.0
  0
LINE
  5
22945
  8
0
 10
4298.5427732529969944
 20
620.4387174733473103
 30
0.0
 11
4298.5427732529969944
 21
626.2824818967743568
 31
0.0
  0
ARC
  5
22946
  8
0
 10
4298.9355205100719104
 20
616.7725136665767423
 30
0.0
 40
0.1988462489146101
 50
153.3712830384700965
 51
179.8632167780781117
  0
LINE
  5
22947
  8
0
 10
4298.7366748277972874
 20
616.7729883752723481
 30
0.0
 11
4298.7366748277972874
 21
591.285174211774347
 31
0.0
  0
ARC
  5
22948
  8
0
 10
4300.2914779773973351
 20
591.2651742117742515
 30
0.0
 40
0.019999999999996
 50
359.9999999999869829
 51
90.0
  0
LINE
  5
22949
  8
0
 10
4300.3114779773968621
 20
591.2651742117742515
 30
0.0
 11
4300.3114779773968621
 21
590.5077726368742788
 31
0.0
  0
ARC
  5
2294A
  8
0
 10
4300.3014779773975533
 20
590.5077726368737103
 30
0.0
 40
0.0099999999995244
 50
270.776087398044524
 51
0.0000000026967033
  0
LINE
  5
2294B
  8
0
 10
4286.2927732529979039
 20
625.7224818967742976
 30
0.0
 11
4285.1057732529970963
 21
625.7224818967742976
 31
0.0
  0
VIEWPORT
  5
7BC8
 67
     1
  8
0
 10
8.4975296442687753
 20
4.5
 30
0.0
 40
16.9950592885375507
 41
9.0
 68
     1
 69
     1
1001
ACAD
1000
MVIEW
1002
{
1070
    16
1010
0.0
1020
0.0
1030
0.0
1010
0.0
1020
0.0
1030
1.0
1040
0.0
1040
9.0
1040
8.4975296442687753
1040
4.5
1040
50.0
1040
0.0
1040
0.0
1070
     0
1070
   100
1070
     1
1070
     1
1070
     0
1070
     0
1070
     0
1070
     0
1040
0.0
1040
0.0
1040
0.0
1040
1.0
1040
1.0
1040
0.0
1040
0.0
1070
     0
1002
{
1002
}
1002
}
  0
ENDSEC
  0
EOF
