  0
SECTION
  2
HEADER
  9
$ACADVER
  1
AC1009
  9
$INSBASE
 10
2915.7123638804378061
 20
140.0208440004236934
 30
0.0
  9
$EXTMIN
 10
2907.8932857680961206
 20
140.0099595372846011
 30
-0.0000000349181948
  9
$EXTMAX
 10
2917.2408452637228038
 20
148.7970527923415887
 30
0.0000000814935746
  9
$LIMMIN
 10
0.0
 20
0.0
  9
$LIMMAX
 10
11.6929133858000007
 20
8.2677165353999982
  9
$ORTHOMODE
 70
     0
  9
$REGENMODE
 70
     1
  9
$FILLMODE
 70
     1
  9
$QTEXTMODE
 70
     0
  9
$MIRRTEXT
 70
     0
  9
$DRAGMODE
 70
     2
  9
$LTSCALE
 40
0.6431102362
  9
$OSMODE
 70
  4095
  9
$ATTMODE
 70
     1
  9
$TEXTSIZE
 40
0.2
  9
$TRACEWID
 40
0.05
  9
$TEXTSTYLE
  7
STANDARD
  9
$CLAYER
  8
0
  9
$CELTYPE
  6
BYLAYER
  9
$CECOLOR
 62
   256
  9
$DIMSCALE
 40
1.0
  9
$DIMASZ
 40
0.1875
  9
$DIMEXO
 40
0.0625
  9
$DIMDLI
 40
0.4443307087
  9
$DIMRND
 40
0.0
  9
$DIMDLE
 40
0.0
  9
$DIMEXE
 40
0.125
  9
$DIMTP
 40
0.01
  9
$DIMTM
 40
0.01
  9
$DIMTXT
 40
2.0
  9
$DIMCEN
 40
0.1052362205
  9
$DIMTSZ
 40
0.0
  9
$DIMTOL
 70
     1
  9
$DIMLIM
 70
     0
  9
$DIMTIH
 70
     1
  9
$DIMTOH
 70
     1
  9
$DIMSE1
 70
     0
  9
$DIMSE2
 70
     0
  9
$DIMTAD
 70
     0
  9
$DIMZIN
 70
     0
  9
$DIMBLK
  1

  9
$DIMASO
 70
     1
  9
$DIMSHO
 70
     1
  9
$DIMPOST
  1
\X
  9
$DIMAPOST
  1

  9
$DIMALT
 70
     1
  9
$DIMALTD
 70
     2
  9
$DIMALTF
 40
25.3999999999999986
  9
$DIMLFAC
 40
1.0
  9
$DIMTOFL
 70
     0
  9
$DIMTVP
 40
0.0
  9
$DIMTIX
 70
     0
  9
$DIMSOXD
 70
     0
  9
$DIMSAH
 70
     0
  9
$DIMBLK1
  1

  9
$DIMBLK2
  1

  9
$DIMSTYLE
  2
STANDARD
  9
$DIMCLRD
 70
     0
  9
$DIMCLRE
 70
     0
  9
$DIMCLRT
 70
     0
  9
$DIMTFAC
 40
1.0
  9
$DIMGAP
 40
0.09
  9
$LUNITS
 70
     2
  9
$LUPREC
 70
     4
  9
$SKETCHINC
 40
0.1
  9
$FILLETRAD
 40
0.03
  9
$AUNITS
 70
     0
  9
$AUPREC
 70
     0
  9
$MENU
  1
.
  9
$ELEVATION
 40
0.0
  9
$PELEVATION
 40
0.0
  9
$THICKNESS
 40
0.0
  9
$LIMCHECK
 70
     0
  9
$BLIPMODE
 70
     0
  9
$CHAMFERA
 40
0.0
  9
$CHAMFERB
 40
0.0
  9
$SKPOLY
 70
     0
  9
$TDCREATE
 40
2458060.468368056230247
  9
$TDUPDATE
 40
2460111.6288773152045906
  9
$TDINDWG
 40
0.6943241898
  9
$TDUSRTIMER
 40
0.6943241898
  9
$USRTIMER
 70
     1
  9
$ANGBASE
 50
0.0
  9
$ANGDIR
 70
     0
  9
$PDMODE
 70
     0
  9
$PDSIZE
 40
0.3125
  9
$PLINEWID
 40
0.0
  9
$COORDS
 70
     1
  9
$SPLFRAME
 70
     0
  9
$SPLINETYPE
 70
     6
  9
$SPLINESEGS
 70
     8
  9
$ATTDIA
 70
     1
  9
$ATTREQ
 70
     1
  9
$HANDLING
 70
     1
  9
$HANDSEED
  5
395A7
  9
$SURFTAB1
 70
     6
  9
$SURFTAB2
 70
     6
  9
$SURFTYPE
 70
     6
  9
$SURFU
 70
     6
  9
$SURFV
 70
     6
  9
$UCSNAME
  2

  9
$UCSORG
 10
0.0
 20
0.0
 30
0.0
  9
$UCSXDIR
 10
1.0
 20
0.0
 30
0.0
  9
$UCSYDIR
 10
0.0
 20
1.0
 30
0.0
  9
$PUCSNAME
  2

  9
$PUCSORG
 10
0.0
 20
0.0
 30
0.0
  9
$PUCSXDIR
 10
1.0
 20
0.0
 30
0.0
  9
$PUCSYDIR
 10
0.0
 20
1.0
 30
0.0
  9
$USERI1
 70
     0
  9
$USERI2
 70
     0
  9
$USERI3
 70
     0
  9
$USERI4
 70
     0
  9
$USERI5
 70
     0
  9
$USERR1
 40
0.0
  9
$USERR2
 40
0.0
  9
$USERR3
 40
0.0
  9
$USERR4
 40
0.0
  9
$USERR5
 40
0.0
  9
$WORLDVIEW
 70
     1
  9
$SHADEDGE
 70
     3
  9
$SHADEDIF
 70
    70
  9
$TILEMODE
 70
     1
  9
$MAXACTVP
 70
    64
  9
$PLIMCHECK
 70
     0
  9
$PEXTMIN
 10
1.0000000000000000E+20
 20
1.0000000000000000E+20
 30
1.0000000000000000E+20
  9
$PEXTMAX
 10
-1.0000000000000000E+20
 20
-1.0000000000000000E+20
 30
-1.0000000000000000E+20
  9
$PLIMMIN
 10
0.0
 20
0.0
  9
$PLIMMAX
 10
12.0
 20
9.0
  9
$UNITMODE
 70
     0
  9
$VISRETAIN
 70
     1
  9
$PLINEGEN
 70
     0
  9
$PSLTSCALE
 70
     1
  0
ENDSEC
  0
SECTION
  2
TABLES
  0
TABLE
  2
VPORT
 70
     1
  0
VPORT
  2
*ACTIVE
 70
     0
 10
0.0
 20
0.0
 11
1.0
 21
1.0
 12
-391.126049718465822
 22
-50.8580054110746289
 13
0.0
 23
0.0
 14
1.0
 24
1.0
 15
0.0
 25
0.0
 16
0.0
 26
0.0
 36
96.5995694866707311
 17
3303.693115234375
 27
195.2615115758877096
 37
0.0
 40
8.8545997333288398
 41
1.4307692307692299
 42
50.0
 43
0.0
 44
0.0
 50
0.0
 51
0.0
 71
     0
 72
   100
 73
     1
 74
     1
 75
     0
 76
     0
 77
     0
 78
     0
  0
ENDTAB
  0
TABLE
  2
LTYPE
 70
     2
  0
LTYPE
  2
CONTINUOUS
 70
     0
  3
Solid line
 72
    65
 73
     0
 40
0.0
  0
LTYPE
  2
PHANTOM2
 70
     0
  3
___ _ _ ___ _ _ ___ _ _ ___ _ _
 72
    65
 73
     6
 40
1.25
 49
0.625
 49
-0.125
 49
0.125
 49
-0.125
 49
0.125
 49
-0.125
  0
ENDTAB
  0
TABLE
  2
LAYER
 70
     2
  0
LAYER
  2
0
 70
     0
 62
   255
  6
CONTINUOUS
  0
LAYER
  2
DEFPOINTS
 70
     0
 62
     7
  6
CONTINUOUS
  0
ENDTAB
  0
TABLE
  2
STYLE
 70
     1
  0
STYLE
  2
STANDARD
 70
     0
 40
0.0
 41
0.8
 50
0.0
 71
     0
 42
0.2
  3
txt
  4

  0
ENDTAB
  0
TABLE
  2
VIEW
 70
     0
  0
ENDTAB
  0
TABLE
  2
UCS
 70
     0
  0
ENDTAB
  0
TABLE
  2
APPID
 70
     9
  0
APPID
  2
ACAD
 70
     0
  0
APPID
  2
ACAD_MLEADERVER
 70
     0
  0
APPID
  2
ACAD_EXEMPT_FROM_CAD_STANDARDS
 70
     0
  0
APPID
  2
ACAD_NAV_VCDISPLAY
 70
     0
  0
APPID
  2
ACAECLAYERSTANDARD
 70
     0
  0
APPID
  2
ACCMTRANSPARENCY
 70
     0
  0
APPID
  2
ACAD_DSTYLE_DIMJAG
 70
     0
  0
APPID
  2
ACAD_DSTYLE_DIMTALN
 70
     0
  0
APPID
  2
ACDBATTR
 70
     0
  0
ENDTAB
  0
TABLE
  2
DIMSTYLE
 70
     1
  0
DIMSTYLE
  2
STANDARD
 70
     0
  3

  4

  5

  6

  7

 40
1.0
 41
0.1875
 42
0.0625
 43
0.38
 44
0.125
 45
0.0
 46
0.0
 47
0.01
 48
0.01
140
0.15625
141
0.09
142
0.0
143
25.3999999999999986
144
1.0
145
0.0
146
1.0
147
0.09
 71
     1
 72
     0
 73
     1
 74
     1
 75
     0
 76
     0
 77
     0
 78
     4
170
     0
171
     2
172
     0
173
     0
174
     0
175
     0
176
     0
177
     0
178
     0
  0
ENDTAB
  0
ENDSEC
  0
SECTION
  2
BLOCKS
  0
BLOCK
  8
0
  2
$MODEL_SPACE
 70
     0
 10
0.0
 20
0.0
 30
0.0
  3
$MODEL_SPACE
  1

  0
ENDBLK
  5
21
  8
0
  0
BLOCK
 67
     1
  8
0
  2
$PAPER_SPACE
 70
     0
 10
0.0
 20
0.0
 30
0.0
  3
$PAPER_SPACE
  1

  0
ENDBLK
  5
1D
 67
     1
  8
0
  0
ENDSEC
  0
SECTION
  2
ENTITIES
  0
ATTDEF
  5
35BFF
  8
DEFPOINTS
 10
2915.7076188620549146
 20
140.0253741820085907
 30
0.0
 40
0.001
  1
P32419-CREM
  3

  2
MODELNUMBER
 70
     0
1001
ACDBATTR
1070
     0
1070
     1
  0
ATTDEF
  5
35C00
  8
DEFPOINTS
 10
2915.7076188620549146
 20
140.0237075153420108
 30
0.0
 40
0.001
  1
ONE
  3

  2
TRADENAME
 70
     0
1001
ACDBATTR
1070
     0
1070
     1
  0
ATTDEF
  5
35C01
  8
DEFPOINTS
 10
2915.7076188620549146
 20
140.0220408486752888
 30
0.0
 40
0.001
  1
BATHROOM SINK FAUCET
  3

  2
PRODUCT
 70
     0
1001
ACDBATTR
1070
     0
1070
     1
  0
LINE
  5
393E0
  8
0
 10
2917.0673638804378243
 20
140.5508440004236945
 30
0.0
 11
2914.3573638804377879
 21
140.5508440004236945
 31
0.0
  0
ARC
  5
393E1
  8
0
 10
2914.3573638804377879
 20
140.5308440004237127
 30
0.0
 40
0.02
 50
90.0
 51
180.0
  0
LINE
  5
393E2
  8
0
 10
2914.3373638804378061
 20
140.5308440004237127
 30
0.0
 11
2914.3373638804378061
 21
140.0208440004236934
 31
0.0
  0
LINE
  5
393E3
  8
0
 10
2915.2413638803877802
 20
141.9208440004236991
 30
0.0
 11
2915.7123638804378061
 21
141.9208440004236991
 31
0.0
  0
ARC
  5
393E4
  8
0
 10
2915.2413638803877802
 20
141.9008440004236888
 30
0.0
 40
0.02
 50
90.0
 51
180.0
  0
LINE
  5
393E5
  8
0
 10
2915.2213638803877984
 20
140.5708440004237048
 30
0.0
 11
2915.2213638803877984
 21
141.9008440004236888
 31
0.0
  0
ARC
  5
393E6
  8
0
 10
2915.2013638803878166
 20
140.5708440004237048
 30
0.0
 40
0.02
 50
270.0
 51
0.0
  0
LINE
  5
393E7
  8
0
 10
2914.3373638804378061
 20
140.0208440004236934
 30
0.0
 11
2917.0873638804368966
 21
140.0208440004236934
 31
0.0
  0
LINE
  5
393E8
  8
0
 10
2915.1823638804380607
 20
140.5508440004236945
 30
0.0
 11
2915.1823638804380607
 21
142.9074948876215956
 31
0.0
  0
LINE
  5
393E9
  8
0
 10
2915.1823638804380607
 20
143.1809998264043884
 30
0.0
 11
2915.1823638804380607
 21
147.2058440004236957
 31
0.0
  0
LINE
  5
393EA
  8
0
 10
2914.6523638804378606
 20
147.7358440004236968
 30
0.0
 11
2909.6112098736580265
 21
147.7358440004236968
 31
0.0
  0
ARC
  5
393EB
  8
0
 10
2914.6523638804378606
 20
147.2058440004236957
 30
0.0
 40
0.5300000000000001
 50
0.0
 51
90.0
  0
ARC
  5
393EC
  8
0
 10
2909.6112098736580265
 20
147.2058440004236957
 30
0.0
 40
0.5300000000000001
 50
90.0
 51
176.999999999605194
  0
LINE
  5
393ED
  8
0
 10
2909.0819362202378215
 20
147.2335820572361058
 30
0.0
 11
2909.0421608934871074
 21
146.4746236108067023
 31
0.0
  0
ARC
  5
393EE
  8
0
 10
2909.0321745981400454
 20
146.4751469703691953
 30
0.0
 40
0.01
 50
266.9999999994724931
 51
356.9999999996052225
  0
LINE
  5
393EF
  8
0
 10
2909.6112098735989093
 20
148.7958440004236991
 30
0.0
 11
2914.6523638804378606
 21
148.7958440004236991
 31
0.0
  0
LINE
  5
393F0
  8
0
 10
2908.0233889133342018
 20
147.2890581707603985
 30
0.0
 11
2907.9836135865339202
 21
146.5300997244407029
 31
0.0
  0
ARC
  5
393F1
  8
0
 10
2907.9935998818818916
 20
146.5295763648774994
 30
0.0
 40
0.01
 50
176.9999999954347061
 51
266.9999999994724931
  0
ARC
  5
393F2
  8
0
 10
2909.6112098735989093
 20
147.2058440004236957
 30
0.0
 40
1.5900000000000001
 50
90.0
 51
176.9999999954347061
  0
LINE
  5
393F3
  8
0
 10
2907.9930765223189155
 20
146.5195900695298974
 30
0.0
 11
2909.0316512385770693
 21
146.4651606750215933
 31
0.0
  0
LINE
  5
393F4
  8
0
 10
2916.2423638804380062
 20
147.2058440004236957
 30
0.0
 11
2916.2423638804380062
 21
140.5508440004236945
 31
0.0
  0
ARC
  5
393F5
  8
0
 10
2914.6523638804378606
 20
147.2058440004236957
 30
0.0
 40
1.5900000000000001
 50
0.0
 51
90.0
  0
LINE
  5
393F6
  8
0
 10
2915.2357638804378439
 20
141.9288440004237088
 30
0.0
 11
2915.7123638804378061
 21
141.9288440004237088
 31
0.0
  0
LINE
  5
393F7
  8
0
 10
2915.2213638804369111
 20
141.9432440004237037
 30
0.0
 11
2915.2213638804369111
 21
142.8668918916237089
 31
0.0
  0
ARC
  5
393F8
  8
0
 10
2915.2357638804378439
 20
141.9432440004237037
 30
0.0
 40
0.0144
 50
180.0000000000032117
 51
270.0
  0
LINE
  5
393F9
  8
0
 10
2915.362363880437897
 20
141.9288440004237088
 30
0.0
 11
2915.362363880437897
 21
141.9208440004236991
 31
0.0
  0
ARC
  5
393FA
  8
0
 10
2917.0673638804378243
 20
140.5308440004237127
 30
0.0
 40
0.02
 50
0.0
 51
90.0
  0
LINE
  5
393FB
  8
0
 10
2917.0873638804368966
 20
140.5308440004237127
 30
0.0
 11
2917.0873638804368966
 21
140.0208440004236934
 31
0.0
  0
LINE
  5
393FC
  8
0
 10
2916.1833638804878319
 20
141.9208440004236991
 30
0.0
 11
2915.7123638804378061
 21
141.9208440004236991
 31
0.0
  0
ARC
  5
393FD
  8
0
 10
2916.1833638804878319
 20
141.9008440004236888
 30
0.0
 40
0.02
 50
0.0
 51
90.0
  0
LINE
  5
393FE
  8
0
 10
2916.2033638804878137
 20
140.5708440004237048
 30
0.0
 11
2916.2033638804878137
 21
141.9008440004236888
 31
0.0
  0
ARC
  5
393FF
  8
0
 10
2916.223363880486886
 20
140.5708440004237048
 30
0.0
 40
0.02
 50
180.0
 51
270.0
  0
LINE
  5
39400
  8
0
 10
2916.188963880438223
 20
141.9288440004237088
 30
0.0
 11
2915.7123638804378061
 21
141.9288440004237088
 31
0.0
  0
LINE
  5
39401
  8
0
 10
2916.2033638804377915
 20
141.9432440004237037
 30
0.0
 11
2916.2033638804377915
 21
142.7366298276585894
 31
0.0
  0
ARC
  5
39402
  8
0
 10
2916.188963880438223
 20
141.9432440004237037
 30
0.0
 40
0.0144
 50
270.0
 51
359.9999999999968168
  0
LINE
  5
39403
  8
0
 10
2916.0623638804368056
 20
141.9288440004237088
 30
0.0
 11
2916.0623638804368056
 21
141.9208440004236991
 31
0.0
  0
ARC
  5
39404
  8
0
 10
2915.6072982195541954
 20
143.3775248313660029
 30
0.0
 40
0.2282994296710592
 50
56.9961169163501609
 51
159.0038830382601134
  0
ARC
  5
39405
  8
0
 10
2915.9671733821828639
 20
143.931601772144802
 30
0.0
 40
0.4323906557545917
 50
236.9961169163501893
 51
253.8034830820564025
  0
ARC
  5
39406
  8
0
 10
2915.6579669351867778
 20
142.867064654770104
 30
0.0
 40
0.6761434669193959
 50
70.1965170358807597
 51
73.8034830820563741
  0
ARC
  5
39407
  8
0
 10
2916.0335328838850728
 20
143.9100402727787014
 30
0.0
 40
0.4323906649784307
 50
250.1965170358807029
 51
267.0038829746359283
  0
ARC
  5
39408
  8
0
 10
2915.9989997501547805
 20
143.2502532893282989
 30
0.0
 40
0.2282994294348447
 50
344.9961168888444831
 51
87.0038829746358573
  0
ARC
  5
39409
  8
0
 10
2916.637165774443929
 20
143.0792108619230874
 30
0.0
 40
0.4323906541367381
 50
164.9961168888443979
 51
181.8034831696446929
  0
ARC
  5
3940A
  8
0
 10
2915.5291808230031165
 20
143.0443236079312896
 30
0.0
 40
0.676143410793444
 50
358.1965168256969037
 51
1.803483169644744
  0
ARC
  5
3940B
  8
0
 10
2916.6371657732529457
 20
143.0094363538867981
 30
0.0
 40
0.4323906529479847
 50
178.1965168256969037
 51
195.0038831651361022
  0
ARC
  5
3940C
  8
0
 10
2915.9989997505508654
 20
142.8383939262625972
 30
0.0
 40
0.2282994291470614
 50
272.9961167857463806
 51
15.0038831651361093
  0
ARC
  5
3940D
  8
0
 10
2916.0335328806959296
 20
142.1786069584543952
 30
0.0
 40
0.4323906494579517
 50
92.9961167857464375
 51
109.8034832474713056
  0
ARC
  5
3940E
  8
0
 10
2915.5722361811681367
 20
143.4596634665811905
 30
0.0
 40
0.9291894701124057
 50
285.9090972090995137
 51
289.8034832474713198
  0
ARC
  5
3940F
  8
0
 10
2915.91013147750391
 20
142.2741872329951036
 30
0.0
 40
0.3035015421382902
 50
105.9090972090994995
 51
126.0200169674428992
  0
ARC
  5
39410
  8
0
 10
2915.607298219364111
 20
142.7111223842298102
 30
0.0
 40
0.2282994294038943
 50
200.9961169308990918
 51
303.0038830769352103
  0
ARC
  5
39411
  8
0
 10
2915.1210802389718992
 20
142.5406991411352919
 30
0.0
 40
0.2870971122566357
 50
17.9799830403956307
 51
35.1615000041013204
  0
ARC
  5
39412
  8
0
 10
2912.0437500113421265
 20
140.3729768025027056
 30
0.0
 40
4.0512678665250137
 50
35.1615000041013204
 51
36.9430505586456377
  0
ARC
  5
39413
  8
0
 10
2915.0579820658208519
 20
142.6396698109356009
 30
0.0
 40
0.2798633439729448
 50
36.9430505586456377
 51
54.2823459138209969
  0
ARC
  5
39414
  8
0
 10
2915.3653731524741488
 20
143.0442473570130062
 30
0.0
 40
0.2284592557453696
 50
129.0152289515141888
 51
230.9240567799936059
  0
ARC
  5
39415
  8
0
 10
2915.0405531907717886
 20
143.4740415691678095
 30
0.0
 40
0.3104977963920032
 50
305.6569398176765162
 51
329.1426602763249889
  0
ARC
  5
39416
  8
0
 10
2915.5108915796731708
 20
143.1930252707589091
 30
0.0
 40
0.2373966825401075
 50
138.8573396653663963
 51
149.1426602763249889
  0
ARC
  5
39417
  8
0
 10
2915.0982866453578026
 20
143.5535048468200898
 30
0.0
 40
0.3104977932291957
 50
318.8573396653663963
 51
342.3430603180253229
  0
ENDSEC
  0
EOF
