  0
SECTION
  2
HEADER
  9
$ACADVER
  1
AC1009
  9
$INSBASE
 10
2931.7501049150591825
 20
148.2940056080385887
 30
0.0
  9
$EXTMIN
 10
2919.9219664246847969
 20
140.5469535354451978
 30
-0.0000000349181948
  9
$EXTMAX
 10
2943.5030457688030765
 20
149.6711543099094115
 30
0.0000000814935746
  9
$LIMMIN
 10
0.0
 20
0.0
  9
$LIMMAX
 10
11.6929133858000007
 20
8.2677165353999982
  9
$ORTHOMODE
 70
     0
  9
$REGENMODE
 70
     1
  9
$FILLMODE
 70
     1
  9
$QTEXTMODE
 70
     0
  9
$MIRRTEXT
 70
     0
  9
$DRAGMODE
 70
     2
  9
$LTSCALE
 40
0.6431102362
  9
$OSMODE
 70
  4095
  9
$ATTMODE
 70
     1
  9
$TEXTSIZE
 40
0.2
  9
$TRACEWID
 40
0.05
  9
$TEXTSTYLE
  7
STANDARD
  9
$CLAYER
  8
0
  9
$CELTYPE
  6
BYLAYER
  9
$CECOLOR
 62
   256
  9
$DIMSCALE
 40
1.0
  9
$DIMASZ
 40
0.1875
  9
$DIMEXO
 40
0.0625
  9
$DIMDLI
 40
0.4443307087
  9
$DIMRND
 40
0.0
  9
$DIMDLE
 40
0.0
  9
$DIMEXE
 40
0.125
  9
$DIMTP
 40
0.01
  9
$DIMTM
 40
0.01
  9
$DIMTXT
 40
2.0
  9
$DIMCEN
 40
0.1052362205
  9
$DIMTSZ
 40
0.0
  9
$DIMTOL
 70
     1
  9
$DIMLIM
 70
     0
  9
$DIMTIH
 70
     1
  9
$DIMTOH
 70
     1
  9
$DIMSE1
 70
     0
  9
$DIMSE2
 70
     0
  9
$DIMTAD
 70
     0
  9
$DIMZIN
 70
     0
  9
$DIMBLK
  1

  9
$DIMASO
 70
     1
  9
$DIMSHO
 70
     1
  9
$DIMPOST
  1
\X
  9
$DIMAPOST
  1

  9
$DIMALT
 70
     1
  9
$DIMALTD
 70
     2
  9
$DIMALTF
 40
25.3999999999999986
  9
$DIMLFAC
 40
1.0
  9
$DIMTOFL
 70
     0
  9
$DIMTVP
 40
0.0
  9
$DIMTIX
 70
     0
  9
$DIMSOXD
 70
     0
  9
$DIMSAH
 70
     0
  9
$DIMBLK1
  1

  9
$DIMBLK2
  1

  9
$DIMSTYLE
  2
STANDARD
  9
$DIMCLRD
 70
     0
  9
$DIMCLRE
 70
     0
  9
$DIMCLRT
 70
     0
  9
$DIMTFAC
 40
1.0
  9
$DIMGAP
 40
0.09
  9
$LUNITS
 70
     2
  9
$LUPREC
 70
     4
  9
$SKETCHINC
 40
0.1
  9
$FILLETRAD
 40
0.03
  9
$AUNITS
 70
     0
  9
$AUPREC
 70
     0
  9
$MENU
  1
.
  9
$ELEVATION
 40
0.0
  9
$PELEVATION
 40
0.0
  9
$THICKNESS
 40
0.0
  9
$LIMCHECK
 70
     0
  9
$BLIPMODE
 70
     0
  9
$CHAMFERA
 40
0.0
  9
$CHAMFERB
 40
0.0
  9
$SKPOLY
 70
     0
  9
$TDCREATE
 40
2458060.468368056230247
  9
$TDUPDATE
 40
2460111.6227662041783333
  9
$TDINDWG
 40
0.6948681713
  9
$TDUSRTIMER
 40
0.6948681713
  9
$USRTIMER
 70
     1
  9
$ANGBASE
 50
0.0
  9
$ANGDIR
 70
     0
  9
$PDMODE
 70
     0
  9
$PDSIZE
 40
0.3125
  9
$PLINEWID
 40
0.0
  9
$COORDS
 70
     1
  9
$SPLFRAME
 70
     0
  9
$SPLINETYPE
 70
     6
  9
$SPLINESEGS
 70
     8
  9
$ATTDIA
 70
     1
  9
$ATTREQ
 70
     1
  9
$HANDLING
 70
     1
  9
$HANDSEED
  5
3964D
  9
$SURFTAB1
 70
     6
  9
$SURFTAB2
 70
     6
  9
$SURFTYPE
 70
     6
  9
$SURFU
 70
     6
  9
$SURFV
 70
     6
  9
$UCSNAME
  2

  9
$UCSORG
 10
0.0
 20
0.0
 30
0.0
  9
$UCSXDIR
 10
1.0
 20
0.0
 30
0.0
  9
$UCSYDIR
 10
0.0
 20
1.0
 30
0.0
  9
$PUCSNAME
  2

  9
$PUCSORG
 10
0.0
 20
0.0
 30
0.0
  9
$PUCSXDIR
 10
1.0
 20
0.0
 30
0.0
  9
$PUCSYDIR
 10
0.0
 20
1.0
 30
0.0
  9
$USERI1
 70
     0
  9
$USERI2
 70
     0
  9
$USERI3
 70
     0
  9
$USERI4
 70
     0
  9
$USERI5
 70
     0
  9
$USERR1
 40
0.0
  9
$USERR2
 40
0.0
  9
$USERR3
 40
0.0
  9
$USERR4
 40
0.0
  9
$USERR5
 40
0.0
  9
$WORLDVIEW
 70
     1
  9
$SHADEDGE
 70
     3
  9
$SHADEDIF
 70
    70
  9
$TILEMODE
 70
     1
  9
$MAXACTVP
 70
    64
  9
$PLIMCHECK
 70
     0
  9
$PEXTMIN
 10
1.0000000000000000E+20
 20
1.0000000000000000E+20
 30
1.0000000000000000E+20
  9
$PEXTMAX
 10
-1.0000000000000000E+20
 20
-1.0000000000000000E+20
 30
-1.0000000000000000E+20
  9
$PLIMMIN
 10
0.0
 20
0.0
  9
$PLIMMAX
 10
12.0
 20
9.0
  9
$UNITMODE
 70
     0
  9
$VISRETAIN
 70
     1
  9
$PLINEGEN
 70
     0
  9
$PSLTSCALE
 70
     1
  0
ENDSEC
  0
SECTION
  2
TABLES
  0
TABLE
  2
VPORT
 70
     1
  0
VPORT
  2
*ACTIVE
 70
     0
 10
0.0
 20
0.0
 11
1.0
 21
1.0
 12
-371.9806091376312907
 22
-50.1524576532104618
 13
0.0
 23
0.0
 14
1.0
 24
1.0
 15
0.0
 25
0.0
 16
0.0
 26
0.0
 36
96.5995694866707311
 17
3303.693115234375
 27
195.2615115758877096
 37
0.0
 40
16.5698957598524288
 41
1.4307692307692299
 42
50.0
 43
0.0
 44
0.0
 50
0.0
 51
0.0
 71
     0
 72
   100
 73
     1
 74
     1
 75
     0
 76
     0
 77
     0
 78
     0
  0
ENDTAB
  0
TABLE
  2
LTYPE
 70
     2
  0
LTYPE
  2
CONTINUOUS
 70
     0
  3
Solid line
 72
    65
 73
     0
 40
0.0
  0
LTYPE
  2
PHANTOM2
 70
     0
  3
___ _ _ ___ _ _ ___ _ _ ___ _ _
 72
    65
 73
     6
 40
1.25
 49
0.625
 49
-0.125
 49
0.125
 49
-0.125
 49
0.125
 49
-0.125
  0
ENDTAB
  0
TABLE
  2
LAYER
 70
     2
  0
LAYER
  2
0
 70
     0
 62
   255
  6
CONTINUOUS
  0
LAYER
  2
DEFPOINTS
 70
     0
 62
     7
  6
CONTINUOUS
  0
ENDTAB
  0
TABLE
  2
STYLE
 70
     1
  0
STYLE
  2
STANDARD
 70
     0
 40
0.0
 41
0.8
 50
0.0
 71
     0
 42
0.2
  3
txt
  4

  0
ENDTAB
  0
TABLE
  2
VIEW
 70
     0
  0
ENDTAB
  0
TABLE
  2
UCS
 70
     0
  0
ENDTAB
  0
TABLE
  2
APPID
 70
     9
  0
APPID
  2
ACAD
 70
     0
  0
APPID
  2
ACAD_MLEADERVER
 70
     0
  0
APPID
  2
ACAD_EXEMPT_FROM_CAD_STANDARDS
 70
     0
  0
APPID
  2
ACAD_NAV_VCDISPLAY
 70
     0
  0
APPID
  2
ACAECLAYERSTANDARD
 70
     0
  0
APPID
  2
ACCMTRANSPARENCY
 70
     0
  0
APPID
  2
ACAD_DSTYLE_DIMJAG
 70
     0
  0
APPID
  2
ACAD_DSTYLE_DIMTALN
 70
     0
  0
APPID
  2
ACDBATTR
 70
     0
  0
ENDTAB
  0
TABLE
  2
DIMSTYLE
 70
     1
  0
DIMSTYLE
  2
STANDARD
 70
     0
  3

  4

  5

  6

  7

 40
1.0
 41
0.1875
 42
0.0625
 43
0.38
 44
0.125
 45
0.0
 46
0.0
 47
0.01
 48
0.01
140
0.15625
141
0.09
142
0.0
143
25.3999999999999986
144
1.0
145
0.0
146
1.0
147
0.09
 71
     1
 72
     0
 73
     1
 74
     1
 75
     0
 76
     0
 77
     0
 78
     4
170
     0
171
     2
172
     0
173
     0
174
     0
175
     0
176
     0
177
     0
178
     0
  0
ENDTAB
  0
ENDSEC
  0
SECTION
  2
BLOCKS
  0
BLOCK
  8
0
  2
$MODEL_SPACE
 70
     0
 10
0.0
 20
0.0
 30
0.0
  3
$MODEL_SPACE
  1

  0
ENDBLK
  5
21
  8
0
  0
BLOCK
 67
     1
  8
0
  2
$PAPER_SPACE
 70
     0
 10
0.0
 20
0.0
 30
0.0
  3
$PAPER_SPACE
  1

  0
ENDBLK
  5
1D
 67
     1
  8
0
  0
ENDSEC
  0
SECTION
  2
ENTITIES
  0
ATTDEF
  5
35BFF
  8
DEFPOINTS
 10
2931.7451011528360141
 20
148.2923040536400094
 30
0.0
 40
0.001
  1
P32419-BLE
  3

  2
MODELNUMBER
 70
     0
1001
ACDBATTR
1070
     0
1070
     1
  0
ATTDEF
  5
35C00
  8
DEFPOINTS
 10
2931.7451011528360141
 20
148.2906373869732874
 30
0.0
 40
0.001
  1
ONE
  3

  2
TRADENAME
 70
     0
1001
ACDBATTR
1070
     0
1070
     1
  0
ATTDEF
  5
35C01
  8
DEFPOINTS
 10
2931.7451011528360141
 20
148.2889707203067076
 30
0.0
 40
0.001
  1
BATHROOM SINK FAUCET
  3

  2
PRODUCT
 70
     0
1001
ACDBATTR
1070
     0
1070
     1
  0
LINE
  5
394F6
  8
0
 10
2940.4651049150588733
 20
148.7759551080386018
 30
0.0
 11
2940.4651049150588733
 21
147.7142538018273115
 31
0.0
  0
ARC
  5
394F7
  8
0
 10
2940.4507049150602143
 20
148.7706056080386077
 30
0.0
 40
0.0144
 50
0.0
 51
90.0
  0
ARC
  5
394F8
  8
0
 10
2940.4507049150602143
 20
147.8174056080385981
 30
0.0
 40
0.0144
 50
270.0
 51
0.0
  0
LINE
  5
394F9
  8
0
 10
2943.469542109160102
 20
147.719953801827387
 30
0.0
 11
2943.469542109160102
 21
148.7759551080386018
 31
0.0
  0
LINE
  5
394FA
  8
0
 10
2943.4417421091588949
 20
148.6629564321708017
 30
0.0
 11
2940.4929049150600804
 21
148.6629564321708017
 31
0.0
  0
ARC
  5
394FB
  8
0
 10
2940.49383188178399
 20
148.6342339810923079
 30
0.0
 40
0.0287374052980455
 50
91.8484791861450987
 51
178.4556434512722944
  0
LINE
  5
394FC
  8
0
 10
2943.4417424978000781
 20
148.5528479742980039
 30
0.0
 11
2940.4929049150609899
 21
148.5528479742980039
 31
0.0
  0
ARC
  5
394FD
  8
0
 10
2940.4929045264188971
 20
148.5250483629388043
 30
0.0
 40
0.0277996113619034
 50
89.9991989969282287
 51
180.000800999624289
  0
LINE
  5
394FE
  8
0
 10
2943.4417421091588949
 20
148.425386171225199
 30
0.0
 11
2940.4929049150600804
 21
148.425386171225199
 31
0.0
  0
ARC
  5
394FF
  8
0
 10
2940.493563585731863
 20
148.3969275005526072
 30
0.0
 40
0.0284662920575118
 50
91.3258635121888318
 51
178.6741364868956055
  0
LINE
  5
39500
  8
0
 10
2943.4417421091511642
 20
147.8329524777252004
 30
0.0
 11
2940.4929049150669016
 21
147.8329524777252004
 31
0.0
  0
ARC
  5
39501
  8
0
 10
2940.4950180964610809
 20
147.9730397827156025
 30
0.0
 40
0.0299924289858682
 50
184.1660118109492998
 51
268.2756412195278131
  0
LINE
  5
39502
  8
0
 10
2943.4417421091520737
 20
148.0705227386708032
 30
0.0
 11
2940.4929049150669016
 21
148.0705227386708032
 31
0.0
  0
ARC
  5
39503
  8
0
 10
2940.493559051891225
 20
148.0989768755057128
 30
0.0
 40
0.0284616548711296
 50
181.3169504286038887
 51
268.6830498880868845
  0
LINE
  5
39504
  8
0
 10
2943.469542109160102
 20
148.2452546979251906
 30
0.0
 11
2940.4651049150588733
 21
148.2452546979251906
 31
0.0
  0
LINE
  5
39505
  8
0
 10
2943.4405314357918542
 20
147.9430609355777051
 30
0.0
 11
2940.4941155884271211
 21
147.9430609355777051
 31
0.0
  0
LINE
  5
39506
  8
0
 10
2943.4360421091591888
 20
148.8094551080386054
 30
0.0
 11
2940.4986049150597864
 21
148.8094551080386054
 31
0.0
  0
LINE
  5
39507
  8
0
 10
2940.4929049150591709
 20
147.6864538018274118
 30
0.0
 11
2943.4360421091591888
 21
147.6864538018274118
 31
0.0
  0
ARC
  5
39508
  8
0
 10
2940.4929049150591709
 20
147.7142538018273115
 30
0.0
 40
0.0278
 50
180.0000000000015916
 51
270.0
  0
ARC
  5
39509
  8
0
 10
2943.4360421091591888
 20
147.719953801827387
 30
0.0
 40
0.0335
 50
270.0
 51
359.9999999999984084
  0
ARC
  5
3950A
  8
0
 10
2943.4360421091591888
 20
148.7759551080386018
 30
0.0
 40
0.0335
 50
0.0000000000016284
 51
90.0
  0
ARC
  5
3950B
  8
0
 10
2940.4986049150597864
 20
148.7759551080386018
 30
0.0
 40
0.0335
 50
90.0
 51
180.0000000000015916
  0
ARC
  5
3950C
  8
0
 10
2940.4923947425058941
 20
147.8707867460838941
 30
0.0
 40
0.0378377078888025
 50
223.8435745677541036
 51
270.7725526193707992
  0
ARC
  5
3950D
  8
0
 10
2943.4408151424349853
 20
148.6342339810923079
 30
0.0
 40
0.0287374052980455
 50
1.5443565487276569
 51
88.1515208138548871
  0
ARC
  5
3950E
  8
0
 10
2943.4417424978000781
 20
148.5250483629388043
 30
0.0
 40
0.0277996113619034
 50
359.9991990003755973
 51
90.0008010030717855
  0
ARC
  5
3950F
  8
0
 10
2943.4410834384871123
 20
148.3969275005526072
 30
0.0
 40
0.0284662920575118
 50
1.3258635131044121
 51
88.674136487811154
  0
ARC
  5
39510
  8
0
 10
2943.4396289277569849
 20
147.9730397827156025
 30
0.0
 40
0.0299924289858682
 50
271.7243587804720732
 51
355.8339881890506149
  0
ARC
  5
39511
  8
0
 10
2943.4410879723282051
 20
148.0989768755057128
 30
0.0
 40
0.0284616548711296
 50
271.3169501119131155
 51
358.6830495713961113
  0
ARC
  5
39512
  8
0
 10
2943.4422522817130812
 20
147.8707867460838941
 30
0.0
 40
0.0378377078888025
 50
269.2274473806293145
 51
316.1564254322460101
  0
ARC
  5
39513
  8
0
 10
2939.7501049150591825
 20
148.2940056080385887
 30
0.0
 40
0.4909999999999997
 50
90.0
 51
270.0
  0
ARC
  5
39514
  8
0
 10
2939.7501049150591825
 20
148.2940056080385887
 30
0.0
 40
1.375
 50
22.0164243520300715
 51
333.7776476784079023
  0
ARC
  5
39515
  8
0
 10
2939.7501049150591825
 20
148.2940056080385887
 30
0.0
 40
0.5109999937000006
 50
73.9169329522265599
 51
286.0830670477733975
  0
LINE
  5
39516
  8
0
 10
2939.7501049150591825
 20
147.8030056080386032
 30
0.0
 11
2940.4507049150602143
 21
147.8030056080386032
 31
0.0
  0
LINE
  5
39517
  8
0
 10
2939.7501049150591825
 20
148.7850056080386025
 30
0.0
 11
2940.4507049150602143
 21
148.7850056080386025
 31
0.0
  0
LINE
  5
39518
  8
0
 10
2931.2201049150589824
 20
141.0834509167058002
 30
0.0
 11
2931.2201049150589824
 21
148.2940056080385887
 31
0.0
  0
ARC
  5
39519
  8
0
 10
2931.7501049150591825
 20
148.2940056080385887
 30
0.0
 40
1.3649999999999991
 50
292.8474180292711821
 51
247.1525819707287894
  0
ARC
  5
3951A
  8
0
 10
2931.7501049150591825
 20
148.2940056080385887
 30
0.0
 40
0.5300000000000012
 50
0.0
 51
180.0
  0
ARC
  5
3951B
  8
0
 10
2931.7501049150591825
 20
148.2940056080385887
 30
0.0
 40
0.5600000000000001
 50
341.1608030293065212
 51
198.8391969706935072
  0
LINE
  5
3951C
  8
0
 10
2932.2801049150598374
 20
141.0834509167059139
 30
0.0
 11
2932.2801049150598374
 21
148.2940056080385887
 31
0.0
  0
ARC
  5
3951D
  8
0
 10
2931.7771415567458462
 20
141.1202400988291004
 30
0.0
 40
0.5656450061281794
 50
207.6811024296623884
 51
267.2603383721593104
  0
ARC
  5
3951E
  8
0
 10
2931.7485223123858304
 20
141.0947426485221001
 30
0.0
 40
0.5285380298570044
 50
181.2241650843953948
 51
206.6746126188479877
  0
ARC
  5
3951F
  8
0
 10
2931.7230682733720641
 20
141.1202400988291004
 30
0.0
 40
0.5656450061281787
 50
272.7396616278406896
 51
332.3188975703375263
  0
ARC
  5
39520
  8
0
 10
2931.7516875177320799
 20
141.0947426485221001
 30
0.0
 40
0.5285380298570044
 50
333.3253873811519838
 51
358.7758349156046052
  0
LINE
  5
39521
  8
0
 10
2923.035104915059037
 20
148.7759551080386018
 30
0.0
 11
2923.035104915059037
 21
147.7142538018273115
 31
0.0
  0
ARC
  5
39522
  8
0
 10
2923.0495049150590603
 20
148.7706056080386077
 30
0.0
 40
0.0144
 50
90.0
 51
180.0
  0
ARC
  5
39523
  8
0
 10
2923.0495049150590603
 20
147.8174056080385981
 30
0.0
 40
0.0144
 50
180.0
 51
270.0
  0
LINE
  5
39524
  8
0
 10
2920.0306677209591726
 20
147.719953801827387
 30
0.0
 11
2920.0306677209591726
 21
148.7759551080386018
 31
0.0
  0
LINE
  5
39525
  8
0
 10
2920.0584677209599249
 20
148.6629564321708017
 30
0.0
 11
2923.0073049150591942
 21
148.6629564321708017
 31
0.0
  0
ARC
  5
39526
  8
0
 10
2923.0063779483348299
 20
148.6342339810923079
 30
0.0
 40
0.0287374052980455
 50
1.5443565487276569
 51
88.1515208138548871
  0
LINE
  5
39527
  8
0
 10
2920.0584673323191964
 20
148.5528479742980039
 30
0.0
 11
2923.0073049150578299
 21
148.5528479742980039
 31
0.0
  0
ARC
  5
39528
  8
0
 10
2923.0073053036999227
 20
148.5250483629388043
 30
0.0
 40
0.0277996113619034
 50
359.9991990003755973
 51
90.0008010030717855
  0
LINE
  5
39529
  8
0
 10
2920.0584677209599249
 20
148.425386171225199
 30
0.0
 11
2923.0073049150591942
 21
148.425386171225199
 31
0.0
  0
ARC
  5
3952A
  8
0
 10
2923.0066462443869568
 20
148.3969275005526072
 30
0.0
 40
0.0284662920575118
 50
1.3258635131044121
 51
88.674136487811154
  0
LINE
  5
3952B
  8
0
 10
2920.0584677209672009
 20
147.8329524777252004
 30
0.0
 11
2923.0073049150510087
 21
147.8329524777252004
 31
0.0
  0
ARC
  5
3952C
  8
0
 10
2923.0051917336568295
 20
147.9730397827156025
 30
0.0
 40
0.0299924289858682
 50
271.7243587804720732
 51
355.8339881890506149
  0
LINE
  5
3952D
  8
0
 10
2920.0584677209672009
 20
148.0705227386708032
 30
0.0
 11
2923.0073049150510087
 21
148.0705227386708032
 31
0.0
  0
ARC
  5
3952E
  8
0
 10
2923.0066507782280496
 20
148.0989768755057128
 30
0.0
 40
0.0284616548711296
 50
271.3169501119131155
 51
358.6830495713961113
  0
LINE
  5
3952F
  8
0
 10
2920.0306677209591726
 20
148.2452546979251906
 30
0.0
 11
2923.035104915059037
 21
148.2452546979251906
 31
0.0
  0
LINE
  5
39530
  8
0
 10
2920.0596783943269656
 20
147.9430609355777051
 30
0.0
 11
2923.0060942416921534
 21
147.9430609355777051
 31
0.0
  0
LINE
  5
39531
  8
0
 10
2920.0641677209591762
 20
148.8094551080386054
 30
0.0
 11
2923.0016049150590334
 21
148.8094551080386054
 31
0.0
  0
LINE
  5
39532
  8
0
 10
2923.0073049150601037
 20
147.6864538018274118
 30
0.0
 11
2920.0641677209591762
 21
147.6864538018274118
 31
0.0
  0
ARC
  5
39533
  8
0
 10
2923.0073049150601037
 20
147.7142538018273115
 30
0.0
 40
0.0278
 50
270.0
 51
359.9999999999984084
  0
ARC
  5
39534
  8
0
 10
2920.0641677209591762
 20
147.719953801827387
 30
0.0
 40
0.0335
 50
180.0000000000015916
 51
270.0
  0
ARC
  5
39535
  8
0
 10
2920.0641677209591762
 20
148.7759551080386018
 30
0.0
 40
0.0335
 50
90.0
 51
179.9999999999984084
  0
ARC
  5
39536
  8
0
 10
2923.0016049150590334
 20
148.7759551080386018
 30
0.0
 40
0.0335
 50
359.9999999999984084
 51
90.0
  0
ARC
  5
39537
  8
0
 10
2923.0078150876129257
 20
147.8707867460838941
 30
0.0
 40
0.0378377078888025
 50
269.2274473806293145
 51
316.1564254322460101
  0
ARC
  5
39538
  8
0
 10
2920.0593946876838345
 20
148.6342339810923079
 30
0.0
 40
0.0287374052980455
 50
91.8484791861450987
 51
178.4556434512722944
  0
ARC
  5
39539
  8
0
 10
2920.0584673323191964
 20
148.5250483629388043
 30
0.0
 40
0.0277996113619034
 50
89.9991989969282287
 51
180.000800999624289
  0
ARC
  5
3953A
  8
0
 10
2920.0591263916321623
 20
148.3969275005526072
 30
0.0
 40
0.0284662920575118
 50
91.3258635121888318
 51
178.6741364868956055
  0
ARC
  5
3953B
  8
0
 10
2920.0605809023618349
 20
147.9730397827156025
 30
0.0
 40
0.0299924289858682
 50
184.1660118109492998
 51
268.2756412195278131
  0
ARC
  5
3953C
  8
0
 10
2920.0591218577910695
 20
148.0989768755057128
 30
0.0
 40
0.0284616548711296
 50
181.3169504286038887
 51
268.6830498880868845
  0
ARC
  5
3953D
  8
0
 10
2920.0579575484048291
 20
147.8707867460838941
 30
0.0
 40
0.0378377078888025
 50
223.8435745677541036
 51
270.7725526193707992
  0
ARC
  5
3953E
  8
0
 10
2923.7501049150591825
 20
148.2940056080385887
 30
0.0
 40
0.4909999999999997
 50
270.0
 51
90.0
  0
ARC
  5
3953F
  8
0
 10
2923.7501049150591825
 20
148.2940056080385887
 30
0.0
 40
1.375
 50
206.2223523215920125
 51
157.9835756479699
  0
ARC
  5
39540
  8
0
 10
2923.7501049150591825
 20
148.2940056080385887
 30
0.0
 40
0.5109999937000006
 50
253.9169329522266025
 51
106.0830670477733975
  0
LINE
  5
39541
  8
0
 10
2923.7501049150591825
 20
147.8030056080386032
 30
0.0
 11
2923.0495049150590603
 21
147.8030056080386032
 31
0.0
  0
LINE
  5
39542
  8
0
 10
2923.7501049150591825
 20
148.7850056080386025
 30
0.0
 11
2923.0495049150590603
 21
148.7850056080386025
 31
0.0
  0
ENDSEC
  0
EOF
