  0
SECTION
  2
HEADER
  9
$ACADVER
  1
AC1009
  9
$INSBASE
 10
5126.0385657552978955
 20
-24.0176144255965198
 30
0.0
  9
$EXTMIN
 10
5122.9140778391983986
 20
-27.8444894255965103
 30
0.0
  9
$EXTMAX
 10
5129.163053671398302
 20
-24.0125060153437495
 30
0.0
  9
$LIMMIN
 10
0.0
 20
0.0
  9
$LIMMAX
 10
11.6929133858000007
 20
8.2677165353999982
  9
$ORTHOMODE
 70
     0
  9
$REGENMODE
 70
     1
  9
$FILLMODE
 70
     1
  9
$QTEXTMODE
 70
     0
  9
$MIRRTEXT
 70
     0
  9
$DRAGMODE
 70
     2
  9
$LTSCALE
 40
0.6431102362
  9
$OSMODE
 70
  4095
  9
$ATTMODE
 70
     1
  9
$TEXTSIZE
 40
0.2
  9
$TRACEWID
 40
0.05
  9
$TEXTSTYLE
  7
STANDARD
  9
$CLAYER
  8
0
  9
$CELTYPE
  6
BYLAYER
  9
$CECOLOR
 62
   256
  9
$DIMSCALE
 40
1.0
  9
$DIMASZ
 40
0.1875
  9
$DIMEXO
 40
0.0625
  9
$DIMDLI
 40
0.4443307087
  9
$DIMRND
 40
0.0
  9
$DIMDLE
 40
0.0
  9
$DIMEXE
 40
0.125
  9
$DIMTP
 40
0.01
  9
$DIMTM
 40
0.01
  9
$DIMTXT
 40
2.0
  9
$DIMCEN
 40
0.1052362205
  9
$DIMTSZ
 40
0.0
  9
$DIMTOL
 70
     1
  9
$DIMLIM
 70
     0
  9
$DIMTIH
 70
     1
  9
$DIMTOH
 70
     1
  9
$DIMSE1
 70
     0
  9
$DIMSE2
 70
     0
  9
$DIMTAD
 70
     0
  9
$DIMZIN
 70
     0
  9
$DIMBLK
  1

  9
$DIMASO
 70
     1
  9
$DIMSHO
 70
     1
  9
$DIMPOST
  1
\X
  9
$DIMAPOST
  1

  9
$DIMALT
 70
     1
  9
$DIMALTD
 70
     2
  9
$DIMALTF
 40
25.3999999999999986
  9
$DIMLFAC
 40
1.0
  9
$DIMTOFL
 70
     0
  9
$DIMTVP
 40
0.0
  9
$DIMTIX
 70
     0
  9
$DIMSOXD
 70
     0
  9
$DIMSAH
 70
     0
  9
$DIMBLK1
  1

  9
$DIMBLK2
  1

  9
$DIMSTYLE
  2
STANDARD
  9
$DIMCLRD
 70
     0
  9
$DIMCLRE
 70
     0
  9
$DIMCLRT
 70
     0
  9
$DIMTFAC
 40
1.0
  9
$DIMGAP
 40
0.09
  9
$LUNITS
 70
     2
  9
$LUPREC
 70
     4
  9
$SKETCHINC
 40
0.1
  9
$FILLETRAD
 40
0.0
  9
$AUNITS
 70
     0
  9
$AUPREC
 70
     0
  9
$MENU
  1
.
  9
$ELEVATION
 40
0.0
  9
$PELEVATION
 40
0.0
  9
$THICKNESS
 40
0.0
  9
$LIMCHECK
 70
     0
  9
$BLIPMODE
 70
     0
  9
$CHAMFERA
 40
0.0
  9
$CHAMFERB
 40
0.0
  9
$SKPOLY
 70
     0
  9
$TDCREATE
 40
2458060.468368056230247
  9
$TDUPDATE
 40
2460089.6802893518470228
  9
$TDINDWG
 40
0.6016853009000001
  9
$TDUSRTIMER
 40
0.6016853009000001
  9
$USRTIMER
 70
     1
  9
$ANGBASE
 50
0.0
  9
$ANGDIR
 70
     0
  9
$PDMODE
 70
     0
  9
$PDSIZE
 40
0.3125
  9
$PLINEWID
 40
0.0
  9
$COORDS
 70
     1
  9
$SPLFRAME
 70
     0
  9
$SPLINETYPE
 70
     6
  9
$SPLINESEGS
 70
     8
  9
$ATTDIA
 70
     1
  9
$ATTREQ
 70
     1
  9
$HANDLING
 70
     1
  9
$HANDSEED
  5
219C6
  9
$SURFTAB1
 70
     6
  9
$SURFTAB2
 70
     6
  9
$SURFTYPE
 70
     6
  9
$SURFU
 70
     6
  9
$SURFV
 70
     6
  9
$UCSNAME
  2

  9
$UCSORG
 10
0.0
 20
0.0
 30
0.0
  9
$UCSXDIR
 10
1.0
 20
0.0
 30
0.0
  9
$UCSYDIR
 10
0.0
 20
1.0
 30
0.0
  9
$PUCSNAME
  2

  9
$PUCSORG
 10
0.0
 20
0.0
 30
0.0
  9
$PUCSXDIR
 10
1.0
 20
0.0
 30
0.0
  9
$PUCSYDIR
 10
0.0
 20
1.0
 30
0.0
  9
$USERI1
 70
     0
  9
$USERI2
 70
     0
  9
$USERI3
 70
     0
  9
$USERI4
 70
     0
  9
$USERI5
 70
     0
  9
$USERR1
 40
0.0
  9
$USERR2
 40
0.0
  9
$USERR3
 40
0.0
  9
$USERR4
 40
0.0
  9
$USERR5
 40
0.0
  9
$WORLDVIEW
 70
     1
  9
$SHADEDGE
 70
     3
  9
$SHADEDIF
 70
    70
  9
$TILEMODE
 70
     1
  9
$MAXACTVP
 70
    64
  9
$PLIMCHECK
 70
     0
  9
$PEXTMIN
 10
1.0000000000000000E+20
 20
1.0000000000000000E+20
 30
1.0000000000000000E+20
  9
$PEXTMAX
 10
-1.0000000000000000E+20
 20
-1.0000000000000000E+20
 30
-1.0000000000000000E+20
  9
$PLIMMIN
 10
0.0
 20
0.0
  9
$PLIMMAX
 10
12.0
 20
9.0
  9
$UNITMODE
 70
     0
  9
$VISRETAIN
 70
     1
  9
$PLINEGEN
 70
     0
  9
$PSLTSCALE
 70
     1
  0
ENDSEC
  0
SECTION
  2
TABLES
  0
TABLE
  2
VPORT
 70
     1
  0
VPORT
  2
*ACTIVE
 70
     0
 10
0.0
 20
0.0
 11
1.0
 21
1.0
 12
1333.6806555990478955
 22
-146.109154153575588
 13
0.0
 23
0.0
 14
1.0
 24
1.0
 15
0.0
 25
0.0
 16
0.0
 26
0.0
 36
5.1040778033513332
 17
3792.35791015625
 27
120.1806564331053977
 37
0.0
 40
3.8638723151924799
 41
2.6486111111111108
 42
50.0
 43
0.0
 44
0.0
 50
0.0
 51
0.0
 71
     0
 72
   100
 73
     1
 74
     1
 75
     0
 76
     0
 77
     0
 78
     0
  0
ENDTAB
  0
TABLE
  2
LTYPE
 70
     2
  0
LTYPE
  2
CONTINUOUS
 70
     0
  3
Solid line
 72
    65
 73
     0
 40
0.0
  0
LTYPE
  2
PHANTOM2
 70
     0
  3
___ _ _ ___ _ _ ___ _ _ ___ _ _
 72
    65
 73
     6
 40
1.25
 49
0.625
 49
-0.125
 49
0.125
 49
-0.125
 49
0.125
 49
-0.125
  0
ENDTAB
  0
TABLE
  2
LAYER
 70
     2
  0
LAYER
  2
0
 70
     0
 62
   255
  6
CONTINUOUS
  0
LAYER
  2
DEFPOINTS
 70
     0
 62
     7
  6
CONTINUOUS
  0
ENDTAB
  0
TABLE
  2
STYLE
 70
     1
  0
STYLE
  2
STANDARD
 70
     0
 40
0.0
 41
0.8
 50
0.0
 71
     0
 42
0.2
  3
txt
  4

  0
ENDTAB
  0
TABLE
  2
VIEW
 70
     0
  0
ENDTAB
  0
TABLE
  2
UCS
 70
     0
  0
ENDTAB
  0
TABLE
  2
APPID
 70
     9
  0
APPID
  2
ACAD
 70
     0
  0
APPID
  2
ACAD_MLEADERVER
 70
     0
  0
APPID
  2
ACAD_EXEMPT_FROM_CAD_STANDARDS
 70
     0
  0
APPID
  2
ACAD_NAV_VCDISPLAY
 70
     0
  0
APPID
  2
ACAECLAYERSTANDARD
 70
     0
  0
APPID
  2
ACCMTRANSPARENCY
 70
     0
  0
APPID
  2
ACAD_DSTYLE_DIMJAG
 70
     0
  0
APPID
  2
ACAD_DSTYLE_DIMTALN
 70
     0
  0
APPID
  2
ACDBATTR
 70
     0
  0
ENDTAB
  0
TABLE
  2
DIMSTYLE
 70
     1
  0
DIMSTYLE
  2
STANDARD
 70
     0
  3

  4

  5

  6

  7

 40
1.0
 41
0.1875
 42
0.0625
 43
0.38
 44
0.125
 45
0.0
 46
0.0
 47
0.01
 48
0.01
140
0.15625
141
0.09
142
0.0
143
25.3999999999999986
144
1.0
145
0.0
146
1.0
147
0.09
 71
     1
 72
     0
 73
     1
 74
     1
 75
     0
 76
     0
 77
     0
 78
     4
170
     0
171
     2
172
     0
173
     0
174
     0
175
     0
176
     0
177
     0
178
     0
  0
ENDTAB
  0
ENDSEC
  0
SECTION
  2
BLOCKS
  0
BLOCK
  8
0
  2
$MODEL_SPACE
 70
     0
 10
0.0
 20
0.0
 30
0.0
  3
$MODEL_SPACE
  1

  0
ENDBLK
  5
21
  8
0
  0
BLOCK
 67
     1
  8
0
  2
$PAPER_SPACE
 70
     0
 10
0.0
 20
0.0
 30
0.0
  3
$PAPER_SPACE
  1

  0
ENDBLK
  5
1D
 67
     1
  8
0
  0
BLOCK
  8
0
  2
_FILLED
 70
     0
 10
0.0
 20
0.0
 30
0.0
  3
_FILLED
  1

  0
SOLID
  5
1CA7B
  8
0
  6
BYBLOCK
 62
     0
 10
0.0
 20
0.0
 30
0.0
 11
-1.0
 21
0.1666666667
 31
0.0
 12
-1.0
 22
-0.1666666667
 32
0.0
 13
-1.0
 23
-0.1666666667
 33
0.0
  0
ENDBLK
  5
1CA7C
  8
0
  6
BYBLOCK
 62
     0
  0
ENDSEC
  0
SECTION
  2
ENTITIES
  0
ATTDEF
  5
3930
  8
DEFPOINTS
 10
5126.0296756722191276
 20
-24.0135060153437507
 30
0.0
 40
0.001
  1
P32418-CREM
  3

  2
MODELNUMBER
 70
     0
1001
ACDBATTR
1070
     0
1070
     1
  0
ATTDEF
  5
3931
  8
DEFPOINTS
 10
5126.0296756722191276
 20
-24.0151726820104194
 30
0.0
 40
0.001
  1
ONE
  3

  2
TRADENAME
 70
     0
1001
ACDBATTR
1070
     0
1070
     1
  0
ATTDEF
  5
3932
  8
DEFPOINTS
 10
5126.0296756722191276
 20
-24.016839348677081
 30
0.0
 40
0.001
  1
VALVE TRIM
  3

  2
PRODUCT
 70
     0
1001
ACDBATTR
1070
     0
1070
     1
  0
LINE
  5
21760
  8
0
 10
5125.1390778391978529
 20
-25.9576144255965104
 30
0.0
 11
5125.1390778391978529
 21
-24.7176144255965085
 31
0.0
  0
LINE
  5
21761
  8
0
 10
5125.6370778391983549
 20
-27.3640121687168616
 30
0.0
 11
5125.6370778391983549
 21
-26.3326144255965104
 31
0.0
  0
LINE
  5
21762
  8
0
 10
5125.6370778391983549
 20
-26.2676144255965092
 30
0.0
 11
5125.6370778391983549
 21
-25.9876144255965116
 31
0.0
  0
LINE
  5
21763
  8
0
 10
5122.9140778391983986
 20
-24.0176144255962285
 30
0.0
 11
5129.163053671398302
 21
-24.0176144255967898
 31
0.0
  0
LINE
  5
21764
  8
0
 10
5122.994573132223195
 20
-24.7176144255965085
 30
0.0
 11
5129.082558378374415
 21
-24.7176144255965085
 31
0.0
  0
LINE
  5
21765
  8
0
 10
5125.1690778391994172
 20
-25.9876144255965116
 30
0.0
 11
5126.9080536713991023
 21
-25.9876144255965116
 31
0.0
  0
LINE
  5
21766
  8
0
 10
5125.6670778391990098
 20
-26.2976144255965103
 30
0.0
 11
5126.4100536713986003
 21
-26.2976144255965103
 31
0.0
  0
LINE
  5
21767
  8
0
 10
5125.6520778391977728
 20
-26.3176144255965099
 30
0.0
 11
5126.4250536713980182
 21
-26.3176144255965099
 31
0.0
  0
LINE
  5
21768
  8
0
 10
5125.7385657552977136
 20
-26.2976144255965103
 30
0.0
 11
5125.7385657552977136
 21
-26.3176144255965099
 31
0.0
  0
LINE
  5
21769
  8
0
 10
5122.9140778391983986
 20
-24.0176144255962285
 30
0.0
 11
5122.9245828257799076
 21
-24.6487793307172396
 31
0.0
  0
ARC
  5
2176A
  8
0
 10
5122.994573132223195
 20
-24.6476144255965117
 30
0.0
 40
0.07
 50
180.9535318288214114
 51
270.0
  0
ARC
  5
2176B
  8
0
 10
5125.1690778391994172
 20
-25.9576144255965104
 30
0.0
 40
0.03
 50
180.0000000000067075
 51
270.0
  0
ARC
  5
2176C
  8
0
 10
5125.6670778391990098
 20
-26.2676144255965092
 30
0.0
 40
0.03
 50
180.0000000000067075
 51
270.0
  0
ARC
  5
2176D
  8
0
 10
5125.6520778391977728
 20
-26.3326144255965104
 30
0.0
 40
0.015
 50
90.0
 51
179.9999999999930083
  0
ARC
  5
2176E
  8
0
 10
5126.0385657555334546
 20
-27.3640121687168616
 30
0.0
 40
0.4014879160999989
 50
180.0
 51
0.0019619781826667
  0
ARC
  5
2176F
  8
0
 10
5125.7574092494687648
 20
-27.4540773164965088
 30
0.0
 40
0.185059058871526
 50
145.4725183372318043
 51
248.1239767609953049
  0
ARC
  5
21770
  8
0
 10
5125.3556394053975964
 20
-27.1823159787964599
 30
0.0
 40
0.3000000000001457
 50
326.2043877591174805
 51
339.7395366919330968
  0
ARC
  5
21771
  8
0
 10
5125.5090158261082252
 20
-28.04668795471515
 30
0.0
 40
0.457533135496352
 50
52.9727664543033328
 51
66.909082630574531
  0
ARC
  5
21772
  8
0
 10
5126.0389647065458121
 20
-27.3637423629297096
 30
0.0
 40
0.4070000000822411
 50
231.3088102923859992
 51
237.1307326994173934
  0
ARC
  5
21773
  8
0
 10
5125.6552588302929507
 20
-27.9575595082601289
 30
0.0
 40
0.3000000010208512
 50
37.9215679666132175
 51
57.1307326994173721
  0
LINE
  5
21774
  8
0
 10
5126.9380536713979382
 20
-25.9576144255965104
 30
0.0
 11
5126.9380536713979382
 21
-24.7176144255965085
 31
0.0
  0
LINE
  5
21775
  8
0
 10
5126.4400536713983456
 20
-27.3640121687168616
 30
0.0
 11
5126.4400536713983456
 21
-26.3326144255965104
 31
0.0
  0
LINE
  5
21776
  8
0
 10
5126.4400536713983456
 20
-26.2676144255965092
 30
0.0
 11
5126.4400536713983456
 21
-25.9876144255965116
 31
0.0
  0
LINE
  5
21777
  8
0
 10
5126.3385657552980774
 20
-26.2976144255965103
 30
0.0
 11
5126.3385657552980774
 21
-26.3176144255965099
 31
0.0
  0
LINE
  5
21778
  8
0
 10
5129.163053671398302
 20
-24.0176144255962285
 30
0.0
 11
5129.152548684816793
 21
-24.6487793307172396
 31
0.0
  0
ARC
  5
21779
  8
0
 10
5129.082558378374415
 20
-24.6476144255965117
 30
0.0
 40
0.07
 50
270.0
 51
359.046468171178276
  0
ARC
  5
2177A
  8
0
 10
5126.9080536713991023
 20
-25.9576144255965104
 30
0.0
 40
0.03
 50
270.0
 51
359.9999999999932925
  0
ARC
  5
2177B
  8
0
 10
5126.4100536713986003
 20
-26.2676144255965092
 30
0.0
 40
0.03
 50
270.0
 51
359.9999999999932925
  0
ARC
  5
2177C
  8
0
 10
5126.4250536713980182
 20
-26.3326144255965104
 30
0.0
 40
0.015
 50
0.0000000000069209
 51
90.0
  0
ARC
  5
2177D
  8
0
 10
5126.3197222611261168
 20
-27.4540773164965088
 30
0.0
 40
0.185059058871526
 50
291.8760232390047804
 51
34.5274816627552781
  0
ARC
  5
2177E
  8
0
 10
5126.7214921051981946
 20
-27.1823159787964599
 30
0.0
 40
0.3000000000001457
 50
200.2604633080669032
 51
213.7956122408903923
  0
ARC
  5
2177F
  8
0
 10
5126.5681156844875659
 20
-28.04668795471515
 30
0.0
 40
0.457533135496352
 50
113.0909173694254974
 51
127.0272335456967028
  0
ARC
  5
21780
  8
0
 10
5126.038166804049979
 20
-27.3637423629297096
 30
0.0
 40
0.4070000000822411
 50
302.8692673005826919
 51
308.6911897076141145
  0
ARC
  5
21781
  8
0
 10
5126.4218726803028403
 20
-27.9575595082601289
 30
0.0
 40
0.3000000010208512
 50
122.8692673005826066
 51
142.0784320333868891
  0
ARC
  5
21782
  8
0
 10
5126.0385657552978955
 20
-27.6580295568968602
 30
0.0
 40
0.1864598686996536
 50
218.1401775588481939
 51
321.859822441152005
  0
ENDSEC
  0
EOF
