  0
SECTION
  2
HEADER
  9
$ACADVER
  1
AC1009
  9
$INSBASE
 10
5487.8425859148655945
 20
-23.9185354016250784
 30
0.0
  9
$EXTMIN
 10
5484.7180979987660976
 20
-27.0430233177250798
 30
0.0
  9
$EXTMAX
 10
5490.9670738309669105
 20
-20.7940474855250912
 30
0.0
  9
$LIMMIN
 10
0.0
 20
0.0
  9
$LIMMAX
 10
11.6929133858000007
 20
8.2677165353999982
  9
$ORTHOMODE
 70
     0
  9
$REGENMODE
 70
     1
  9
$FILLMODE
 70
     1
  9
$QTEXTMODE
 70
     0
  9
$MIRRTEXT
 70
     0
  9
$DRAGMODE
 70
     2
  9
$LTSCALE
 40
0.6431102362
  9
$OSMODE
 70
  4095
  9
$ATTMODE
 70
     1
  9
$TEXTSIZE
 40
0.2
  9
$TRACEWID
 40
0.05
  9
$TEXTSTYLE
  7
STANDARD
  9
$CLAYER
  8
0
  9
$CELTYPE
  6
BYLAYER
  9
$CECOLOR
 62
   256
  9
$DIMSCALE
 40
1.0
  9
$DIMASZ
 40
0.1875
  9
$DIMEXO
 40
0.0625
  9
$DIMDLI
 40
0.4443307087
  9
$DIMRND
 40
0.0
  9
$DIMDLE
 40
0.0
  9
$DIMEXE
 40
0.125
  9
$DIMTP
 40
0.01
  9
$DIMTM
 40
0.01
  9
$DIMTXT
 40
2.0
  9
$DIMCEN
 40
0.1052362205
  9
$DIMTSZ
 40
0.0
  9
$DIMTOL
 70
     1
  9
$DIMLIM
 70
     0
  9
$DIMTIH
 70
     1
  9
$DIMTOH
 70
     1
  9
$DIMSE1
 70
     0
  9
$DIMSE2
 70
     0
  9
$DIMTAD
 70
     0
  9
$DIMZIN
 70
     0
  9
$DIMBLK
  1

  9
$DIMASO
 70
     1
  9
$DIMSHO
 70
     1
  9
$DIMPOST
  1
\X
  9
$DIMAPOST
  1

  9
$DIMALT
 70
     1
  9
$DIMALTD
 70
     2
  9
$DIMALTF
 40
25.3999999999999986
  9
$DIMLFAC
 40
1.0
  9
$DIMTOFL
 70
     0
  9
$DIMTVP
 40
0.0
  9
$DIMTIX
 70
     0
  9
$DIMSOXD
 70
     0
  9
$DIMSAH
 70
     0
  9
$DIMBLK1
  1

  9
$DIMBLK2
  1

  9
$DIMSTYLE
  2
STANDARD
  9
$DIMCLRD
 70
     0
  9
$DIMCLRE
 70
     0
  9
$DIMCLRT
 70
     0
  9
$DIMTFAC
 40
1.0
  9
$DIMGAP
 40
0.09
  9
$LUNITS
 70
     2
  9
$LUPREC
 70
     4
  9
$SKETCHINC
 40
0.1
  9
$FILLETRAD
 40
0.0
  9
$AUNITS
 70
     0
  9
$AUPREC
 70
     0
  9
$MENU
  1
.
  9
$ELEVATION
 40
0.0
  9
$PELEVATION
 40
0.0
  9
$THICKNESS
 40
0.0
  9
$LIMCHECK
 70
     0
  9
$BLIPMODE
 70
     0
  9
$CHAMFERA
 40
0.0
  9
$CHAMFERB
 40
0.0
  9
$SKPOLY
 70
     0
  9
$TDCREATE
 40
2458060.468368056230247
  9
$TDUPDATE
 40
2460089.6823958340100944
  9
$TDINDWG
 40
0.5974028935
  9
$TDUSRTIMER
 40
0.5974028935
  9
$USRTIMER
 70
     1
  9
$ANGBASE
 50
0.0
  9
$ANGDIR
 70
     0
  9
$PDMODE
 70
     0
  9
$PDSIZE
 40
0.3125
  9
$PLINEWID
 40
0.0
  9
$COORDS
 70
     1
  9
$SPLFRAME
 70
     0
  9
$SPLINETYPE
 70
     6
  9
$SPLINESEGS
 70
     8
  9
$ATTDIA
 70
     1
  9
$ATTREQ
 70
     1
  9
$HANDLING
 70
     1
  9
$HANDSEED
  5
254B1
  9
$SURFTAB1
 70
     6
  9
$SURFTAB2
 70
     6
  9
$SURFTYPE
 70
     6
  9
$SURFU
 70
     6
  9
$SURFV
 70
     6
  9
$UCSNAME
  2

  9
$UCSORG
 10
0.0
 20
0.0
 30
0.0
  9
$UCSXDIR
 10
1.0
 20
0.0
 30
0.0
  9
$UCSYDIR
 10
0.0
 20
1.0
 30
0.0
  9
$PUCSNAME
  2

  9
$PUCSORG
 10
0.0
 20
0.0
 30
0.0
  9
$PUCSXDIR
 10
1.0
 20
0.0
 30
0.0
  9
$PUCSYDIR
 10
0.0
 20
1.0
 30
0.0
  9
$USERI1
 70
     0
  9
$USERI2
 70
     0
  9
$USERI3
 70
     0
  9
$USERI4
 70
     0
  9
$USERI5
 70
     0
  9
$USERR1
 40
0.0
  9
$USERR2
 40
0.0
  9
$USERR3
 40
0.0
  9
$USERR4
 40
0.0
  9
$USERR5
 40
0.0
  9
$WORLDVIEW
 70
     1
  9
$SHADEDGE
 70
     3
  9
$SHADEDIF
 70
    70
  9
$TILEMODE
 70
     1
  9
$MAXACTVP
 70
    64
  9
$PLIMCHECK
 70
     0
  9
$PEXTMIN
 10
1.0000000000000000E+20
 20
1.0000000000000000E+20
 30
1.0000000000000000E+20
  9
$PEXTMAX
 10
-1.0000000000000000E+20
 20
-1.0000000000000000E+20
 30
-1.0000000000000000E+20
  9
$PLIMMIN
 10
0.0
 20
0.0
  9
$PLIMMAX
 10
12.0
 20
9.0
  9
$UNITMODE
 70
     0
  9
$VISRETAIN
 70
     1
  9
$PLINEGEN
 70
     0
  9
$PSLTSCALE
 70
     1
  0
ENDSEC
  0
SECTION
  2
TABLES
  0
TABLE
  2
VPORT
 70
     1
  0
VPORT
  2
*ACTIVE
 70
     0
 10
0.0
 20
0.0
 11
1.0
 21
1.0
 12
1695.4846757586160493
 22
-144.0991918347305045
 13
0.0
 23
0.0
 14
1.0
 24
1.0
 15
0.0
 25
0.0
 16
0.0
 26
0.0
 36
5.1040778033513332
 17
3792.35791015625
 27
120.1806564331053977
 37
0.0
 40
6.3009784050060773
 41
2.6486111111111108
 42
50.0
 43
0.0
 44
0.0
 50
0.0
 51
0.0
 71
     0
 72
   100
 73
     1
 74
     1
 75
     0
 76
     0
 77
     0
 78
     0
  0
ENDTAB
  0
TABLE
  2
LTYPE
 70
     2
  0
LTYPE
  2
CONTINUOUS
 70
     0
  3
Solid line
 72
    65
 73
     0
 40
0.0
  0
LTYPE
  2
PHANTOM2
 70
     0
  3
___ _ _ ___ _ _ ___ _ _ ___ _ _
 72
    65
 73
     6
 40
1.25
 49
0.625
 49
-0.125
 49
0.125
 49
-0.125
 49
0.125
 49
-0.125
  0
ENDTAB
  0
TABLE
  2
LAYER
 70
     2
  0
LAYER
  2
0
 70
     0
 62
   255
  6
CONTINUOUS
  0
LAYER
  2
DEFPOINTS
 70
     0
 62
     7
  6
CONTINUOUS
  0
ENDTAB
  0
TABLE
  2
STYLE
 70
     1
  0
STYLE
  2
STANDARD
 70
     0
 40
0.0
 41
0.8
 50
0.0
 71
     0
 42
0.2
  3
txt
  4

  0
ENDTAB
  0
TABLE
  2
VIEW
 70
     0
  0
ENDTAB
  0
TABLE
  2
UCS
 70
     0
  0
ENDTAB
  0
TABLE
  2
APPID
 70
     9
  0
APPID
  2
ACAD
 70
     0
  0
APPID
  2
ACAD_MLEADERVER
 70
     0
  0
APPID
  2
ACAD_EXEMPT_FROM_CAD_STANDARDS
 70
     0
  0
APPID
  2
ACAD_NAV_VCDISPLAY
 70
     0
  0
APPID
  2
ACAECLAYERSTANDARD
 70
     0
  0
APPID
  2
ACCMTRANSPARENCY
 70
     0
  0
APPID
  2
ACAD_DSTYLE_DIMJAG
 70
     0
  0
APPID
  2
ACAD_DSTYLE_DIMTALN
 70
     0
  0
APPID
  2
ACDBATTR
 70
     0
  0
ENDTAB
  0
TABLE
  2
DIMSTYLE
 70
     1
  0
DIMSTYLE
  2
STANDARD
 70
     0
  3

  4

  5

  6

  7

 40
1.0
 41
0.1875
 42
0.0625
 43
0.38
 44
0.125
 45
0.0
 46
0.0
 47
0.01
 48
0.01
140
0.15625
141
0.09
142
0.0
143
25.3999999999999986
144
1.0
145
0.0
146
1.0
147
0.09
 71
     1
 72
     0
 73
     1
 74
     1
 75
     0
 76
     0
 77
     0
 78
     4
170
     0
171
     2
172
     0
173
     0
174
     0
175
     0
176
     0
177
     0
178
     0
  0
ENDTAB
  0
ENDSEC
  0
SECTION
  2
BLOCKS
  0
BLOCK
  8
0
  2
$MODEL_SPACE
 70
     0
 10
0.0
 20
0.0
 30
0.0
  3
$MODEL_SPACE
  1

  0
ENDBLK
  5
21
  8
0
  0
BLOCK
 67
     1
  8
0
  2
$PAPER_SPACE
 70
     0
 10
0.0
 20
0.0
 30
0.0
  3
$PAPER_SPACE
  1

  0
ENDBLK
  5
1D
 67
     1
  8
0
  0
BLOCK
  8
0
  2
_FILLED
 70
     0
 10
0.0
 20
0.0
 30
0.0
  3
_FILLED
  1

  0
SOLID
  5
1D213
  8
0
  6
BYBLOCK
 62
     0
 10
0.0
 20
0.0
 30
0.0
 11
-1.0
 21
0.1666666667
 31
0.0
 12
-1.0
 22
-0.1666666667
 32
0.0
 13
-1.0
 23
-0.1666666667
 33
0.0
  0
ENDBLK
  5
1D214
  8
0
  6
BYBLOCK
 62
     0
  0
ENDSEC
  0
SECTION
  2
ENTITIES
  0
ATTDEF
  5
3930
  8
DEFPOINTS
 10
5487.8429755862753154
 20
-23.9203569096385387
 30
0.0
 40
0.001
  1
P32418-BLE
  3

  2
MODELNUMBER
 70
     0
1001
ACDBATTR
1070
     0
1070
     1
  0
ATTDEF
  5
3931
  8
DEFPOINTS
 10
5487.8429755862753154
 20
-23.9220235763052109
 30
0.0
 40
0.001
  1
ONE
  3

  2
TRADENAME
 70
     0
1001
ACDBATTR
1070
     0
1070
     1
  0
ATTDEF
  5
3932
  8
DEFPOINTS
 10
5487.8429755862753154
 20
-23.923690242971869
 30
0.0
 40
0.001
  1
VALVE TRIM
  3

  2
PRODUCT
 70
     0
1001
ACDBATTR
1070
     0
1070
     1
  0
LINE
  5
24AE9
  8
0
 10
5487.8425859148655945
 20
-24.5050474855250791
 30
0.0
 11
5487.8425859148655945
 21
-26.7050474855250783
 31
0.0
  0
LINE
  5
24AEA
  8
0
 10
5488.2818014795657291
 20
-24.5050474855250791
 30
0.0
 11
5487.403370350167279
 21
-24.5050474855250791
 31
0.0
  0
LINE
  5
24AEB
  8
0
 10
5488.2818014795657291
 20
-26.7050474855250783
 30
0.0
 11
5487.403370350167279
 21
-26.7050474855250783
 31
0.0
  0
ARC
  5
24AEC
  8
0
 10
5487.8425859148655945
 20
-23.9185354016250784
 30
0.0
 40
0.4014879160999998
 50
0.0
 51
180.0
  0
ARC
  5
24AED
  8
0
 10
5487.8425859148655945
 20
-23.9185354016250891
 30
0.0
 40
0.8994879161000008
 50
301.2191054587485155
 51
238.7808945412515129
  0
CIRCLE
  5
24AEE
  8
0
 10
5487.8425859148655945
 20
-23.9185354016250784
 30
0.0
 40
3.1244879160999992
  0
LINE
  5
24AEF
  8
0
 10
5487.4410979987669634
 20
-23.9185354016250784
 30
0.0
 11
5487.4410979987669634
 21
-24.4900474855250785
 31
0.0
  0
ARC
  5
24AF0
  8
0
 10
5487.4560979987663814
 20
-24.4900474855250785
 30
0.0
 40
0.015
 50
180.0000000000169109
 51
270.0
  0
LINE
  5
24AF1
  8
0
 10
5487.3763703501663258
 20
-26.6780474855250915
 30
0.0
 11
5487.3763703501663258
 21
-24.5320474855250801
 31
0.0
  0
LINE
  5
24AF2
  8
0
 10
5487.3856457050669633
 20
-26.6780474855250915
 30
0.0
 11
5487.3856457050669633
 21
-24.5320474855250801
 31
0.0
  0
LINE
  5
24AF3
  8
0
 10
5487.3870482822667327
 20
-26.6780474855250915
 30
0.0
 11
5487.3870482822667327
 21
-24.5320474855250801
 31
0.0
  0
LINE
  5
24AF4
  8
0
 10
5487.5010764911667138
 20
-26.6780474855250915
 30
0.0
 11
5487.5010764911667138
 21
-24.5320474855250801
 31
0.0
  0
LINE
  5
24AF5
  8
0
 10
5487.5885599502671539
 20
-26.6780474855250915
 30
0.0
 11
5487.5885599502671539
 21
-24.5320474855250801
 31
0.0
  0
LINE
  5
24AF6
  8
0
 10
5487.6220961936669482
 20
-26.6780474855250915
 30
0.0
 11
5487.6220961936669482
 21
-24.5320474855250801
 31
0.0
  0
LINE
  5
24AF7
  8
0
 10
5487.6959348283662621
 20
-26.6780474855250915
 30
0.0
 11
5487.6959348283662621
 21
-24.5320474855250801
 31
0.0
  0
ARC
  5
24AF8
  8
0
 10
5487.403370350167279
 20
-26.6780474855250915
 30
0.0
 40
0.027
 50
179.999999999997101
 51
270.0
  0
ARC
  5
24AF9
  8
0
 10
5487.4126457050670069
 20
-26.6780474855250915
 30
0.0
 40
0.027
 50
179.9999999999986073
 51
270.0
  0
ARC
  5
24AFA
  8
0
 10
5487.4140482822667764
 20
-26.6780474855250915
 30
0.0
 40
0.027
 50
180.0
 51
270.0
  0
ARC
  5
24AFB
  8
0
 10
5487.5280764911667575
 20
-26.6780474855250915
 30
0.0
 40
0.027
 50
179.9999999999986073
 51
270.0
  0
ARC
  5
24AFC
  8
0
 10
5487.6155599502671976
 20
-26.6780474855250915
 30
0.0
 40
0.027
 50
179.9999999999986073
 51
270.0
  0
ARC
  5
24AFD
  8
0
 10
5487.6490961936669919
 20
-26.6780474855250915
 30
0.0
 40
0.027
 50
180.0
 51
270.0
  0
ARC
  5
24AFE
  8
0
 10
5487.7229348283663057
 20
-26.6780474855250915
 30
0.0
 40
0.027
 50
179.9999999999974989
 51
270.0
  0
ARC
  5
24AFF
  8
0
 10
5487.403370350167279
 20
-24.5320474855250801
 30
0.0
 40
0.027
 50
90.0
 51
180.0000000000055138
  0
ARC
  5
24B00
  8
0
 10
5487.4126457050670069
 20
-24.5320474855250801
 30
0.0
 40
0.027
 50
90.0
 51
180.0000000000017906
  0
ARC
  5
24B01
  8
0
 10
5487.4140482822667764
 20
-24.5320474855250801
 30
0.0
 40
0.027
 50
90.0
 51
180.0000000000036096
  0
ARC
  5
24B02
  8
0
 10
5487.5280764911667575
 20
-24.5320474855250801
 30
0.0
 40
0.027
 50
90.0
 51
180.0
  0
ARC
  5
24B03
  8
0
 10
5487.6155599502671976
 20
-24.5320474855250801
 30
0.0
 40
0.027
 50
90.0
 51
180.0000000000036096
  0
ARC
  5
24B04
  8
0
 10
5487.6490961936669919
 20
-24.5320474855250801
 30
0.0
 40
0.027
 50
90.0
 51
180.0000000000017906
  0
ARC
  5
24B05
  8
0
 10
5487.7229348283663057
 20
-24.5320474855250801
 30
0.0
 40
0.027
 50
90.0
 51
180.0000000000017906
  0
LINE
  5
24B06
  8
0
 10
5488.2440738309669541
 20
-23.9185354016250784
 30
0.0
 11
5488.2440738309669541
 21
-24.4900474855250785
 31
0.0
  0
ARC
  5
24B07
  8
0
 10
5488.2290738309666267
 20
-24.4900474855250785
 30
0.0
 40
0.015
 50
270.0
 51
359.9999999999831175
  0
LINE
  5
24B08
  8
0
 10
5488.3088014795666822
 20
-26.6780474855250915
 30
0.0
 11
5488.3088014795666822
 21
-24.5320474855250801
 31
0.0
  0
LINE
  5
24B09
  8
0
 10
5488.2995261246660448
 20
-26.6780474855250915
 30
0.0
 11
5488.2995261246660448
 21
-24.5320474855250801
 31
0.0
  0
LINE
  5
24B0A
  8
0
 10
5488.2981235474662753
 20
-26.6780474855250915
 30
0.0
 11
5488.2981235474662753
 21
-24.5320474855250801
 31
0.0
  0
LINE
  5
24B0B
  8
0
 10
5488.1840953385662942
 20
-26.6780474855250915
 30
0.0
 11
5488.1840953385662942
 21
-24.5320474855250801
 31
0.0
  0
LINE
  5
24B0C
  8
0
 10
5488.0966118794658541
 20
-26.6780474855250915
 30
0.0
 11
5488.0966118794658541
 21
-24.5320474855250801
 31
0.0
  0
LINE
  5
24B0D
  8
0
 10
5488.0630756360669693
 20
-26.6780474855250915
 30
0.0
 11
5488.0630756360669693
 21
-24.5320474855250801
 31
0.0
  0
LINE
  5
24B0E
  8
0
 10
5487.989237001366746
 20
-26.6780474855250915
 30
0.0
 11
5487.989237001366746
 21
-24.5320474855250801
 31
0.0
  0
ARC
  5
24B0F
  8
0
 10
5488.2818014795657291
 20
-26.6780474855250915
 30
0.0
 40
0.027
 50
270.0
 51
0.0000000000028498
  0
ARC
  5
24B10
  8
0
 10
5488.2725261246669106
 20
-26.6780474855250915
 30
0.0
 40
0.027
 50
270.0
 51
0.0000000000014249
  0
ARC
  5
24B11
  8
0
 10
5488.2711235474662317
 20
-26.6780474855250915
 30
0.0
 40
0.027
 50
270.0
 51
0.0
  0
ARC
  5
24B12
  8
0
 10
5488.1570953385662506
 20
-26.6780474855250915
 30
0.0
 40
0.027
 50
270.0
 51
0.0000000000014249
  0
ARC
  5
24B13
  8
0
 10
5488.06961187946672
 20
-26.6780474855250915
 30
0.0
 40
0.027
 50
270.0
 51
0.0000000000014249
  0
ARC
  5
24B14
  8
0
 10
5488.0360756360669257
 20
-26.6780474855250915
 30
0.0
 40
0.027
 50
270.0
 51
0.0
  0
ARC
  5
24B15
  8
0
 10
5487.9622370013667023
 20
-26.6780474855250915
 30
0.0
 40
0.027
 50
270.0
 51
0.0000000000024427
  0
ARC
  5
24B16
  8
0
 10
5488.2818014795657291
 20
-24.5320474855250801
 30
0.0
 40
0.027
 50
359.9999999999943157
 51
90.0
  0
ARC
  5
24B17
  8
0
 10
5488.2725261246669106
 20
-24.5320474855250801
 30
0.0
 40
0.027
 50
359.999999999998181
 51
90.0
  0
ARC
  5
24B18
  8
0
 10
5488.2711235474662317
 20
-24.5320474855250801
 30
0.0
 40
0.027
 50
359.9999999999960778
 51
90.0
  0
ARC
  5
24B19
  8
0
 10
5488.1570953385662506
 20
-24.5320474855250801
 30
0.0
 40
0.027
 50
0.0
 51
90.0
  0
ARC
  5
24B1A
  8
0
 10
5488.06961187946672
 20
-24.5320474855250801
 30
0.0
 40
0.027
 50
359.9999999999960778
 51
90.0
  0
ARC
  5
24B1B
  8
0
 10
5488.0360756360669257
 20
-24.5320474855250801
 30
0.0
 40
0.027
 50
359.999999999998181
 51
90.0
  0
ARC
  5
24B1C
  8
0
 10
5487.9622370013667023
 20
-24.5320474855250801
 30
0.0
 40
0.027
 50
359.999999999998181
 51
90.0
  0
ENDSEC
  0
EOF
