  0
SECTION
  2
HEADER
  9
$ACADVER
  1
AC1009
  9
$INSBASE
 10
5439.3284305956058233
 20
-12.3169744970324295
 30
0.0
  9
$EXTMIN
 10
5432.216426644132298
 20
-19.2250327854516208
 30
-0.0000000000000058
  9
$EXTMAX
 10
5446.3437729898769248
 20
-11.1917368466763492
 30
0.0000000000000104
  9
$LIMMIN
 10
0.0
 20
0.0
  9
$LIMMAX
 10
11.6929133858000007
 20
8.2677165353999982
  9
$ORTHOMODE
 70
     0
  9
$REGENMODE
 70
     1
  9
$FILLMODE
 70
     1
  9
$QTEXTMODE
 70
     0
  9
$MIRRTEXT
 70
     0
  9
$DRAGMODE
 70
     2
  9
$LTSCALE
 40
0.6431102362
  9
$OSMODE
 70
  4095
  9
$ATTMODE
 70
     1
  9
$TEXTSIZE
 40
0.2
  9
$TRACEWID
 40
0.05
  9
$TEXTSTYLE
  7
STANDARD
  9
$CLAYER
  8
0
  9
$CELTYPE
  6
BYLAYER
  9
$CECOLOR
 62
   256
  9
$DIMSCALE
 40
1.0
  9
$DIMASZ
 40
0.1875
  9
$DIMEXO
 40
0.0625
  9
$DIMDLI
 40
0.4443307087
  9
$DIMRND
 40
0.0
  9
$DIMDLE
 40
0.0
  9
$DIMEXE
 40
0.125
  9
$DIMTP
 40
0.01
  9
$DIMTM
 40
0.01
  9
$DIMTXT
 40
2.0
  9
$DIMCEN
 40
0.1052362205
  9
$DIMTSZ
 40
0.0
  9
$DIMTOL
 70
     1
  9
$DIMLIM
 70
     0
  9
$DIMTIH
 70
     1
  9
$DIMTOH
 70
     1
  9
$DIMSE1
 70
     0
  9
$DIMSE2
 70
     0
  9
$DIMTAD
 70
     0
  9
$DIMZIN
 70
     0
  9
$DIMBLK
  1

  9
$DIMASO
 70
     1
  9
$DIMSHO
 70
     1
  9
$DIMPOST
  1
\X
  9
$DIMAPOST
  1

  9
$DIMALT
 70
     1
  9
$DIMALTD
 70
     2
  9
$DIMALTF
 40
25.3999999999999986
  9
$DIMLFAC
 40
1.0
  9
$DIMTOFL
 70
     0
  9
$DIMTVP
 40
0.0
  9
$DIMTIX
 70
     0
  9
$DIMSOXD
 70
     0
  9
$DIMSAH
 70
     0
  9
$DIMBLK1
  1

  9
$DIMBLK2
  1

  9
$DIMSTYLE
  2
STANDARD
  9
$DIMCLRD
 70
     0
  9
$DIMCLRE
 70
     0
  9
$DIMCLRT
 70
     0
  9
$DIMTFAC
 40
1.0
  9
$DIMGAP
 40
0.09
  9
$LUNITS
 70
     2
  9
$LUPREC
 70
     4
  9
$SKETCHINC
 40
0.1
  9
$FILLETRAD
 40
0.0
  9
$AUNITS
 70
     0
  9
$AUPREC
 70
     0
  9
$MENU
  1
.
  9
$ELEVATION
 40
0.0
  9
$PELEVATION
 40
0.0
  9
$THICKNESS
 40
0.0
  9
$LIMCHECK
 70
     0
  9
$BLIPMODE
 70
     0
  9
$CHAMFERA
 40
0.0
  9
$CHAMFERB
 40
0.0
  9
$SKPOLY
 70
     0
  9
$TDCREATE
 40
2458060.468368056230247
  9
$TDUPDATE
 40
2460111.6990509261377156
  9
$TDINDWG
 40
0.6128774306
  9
$TDUSRTIMER
 40
0.6128774306
  9
$USRTIMER
 70
     1
  9
$ANGBASE
 50
0.0
  9
$ANGDIR
 70
     0
  9
$PDMODE
 70
     0
  9
$PDSIZE
 40
0.3125
  9
$PLINEWID
 40
0.0
  9
$COORDS
 70
     1
  9
$SPLFRAME
 70
     0
  9
$SPLINETYPE
 70
     6
  9
$SPLINESEGS
 70
     8
  9
$ATTDIA
 70
     1
  9
$ATTREQ
 70
     1
  9
$HANDLING
 70
     1
  9
$HANDSEED
  5
23817
  9
$SURFTAB1
 70
     6
  9
$SURFTAB2
 70
     6
  9
$SURFTYPE
 70
     6
  9
$SURFU
 70
     6
  9
$SURFV
 70
     6
  9
$UCSNAME
  2

  9
$UCSORG
 10
0.0
 20
0.0
 30
0.0
  9
$UCSXDIR
 10
1.0
 20
0.0
 30
0.0
  9
$UCSYDIR
 10
0.0
 20
1.0
 30
0.0
  9
$PUCSNAME
  2

  9
$PUCSORG
 10
0.0
 20
0.0
 30
0.0
  9
$PUCSXDIR
 10
1.0
 20
0.0
 30
0.0
  9
$PUCSYDIR
 10
0.0
 20
1.0
 30
0.0
  9
$USERI1
 70
     0
  9
$USERI2
 70
     0
  9
$USERI3
 70
     0
  9
$USERI4
 70
     0
  9
$USERI5
 70
     0
  9
$USERR1
 40
0.0
  9
$USERR2
 40
0.0
  9
$USERR3
 40
0.0
  9
$USERR4
 40
0.0
  9
$USERR5
 40
0.0
  9
$WORLDVIEW
 70
     1
  9
$SHADEDGE
 70
     3
  9
$SHADEDIF
 70
    70
  9
$TILEMODE
 70
     1
  9
$MAXACTVP
 70
    64
  9
$PLIMCHECK
 70
     0
  9
$PEXTMIN
 10
1.0000000000000000E+20
 20
1.0000000000000000E+20
 30
1.0000000000000000E+20
  9
$PEXTMAX
 10
-1.0000000000000000E+20
 20
-1.0000000000000000E+20
 30
-1.0000000000000000E+20
  9
$PLIMMIN
 10
0.0
 20
0.0
  9
$PLIMMAX
 10
12.0
 20
9.0
  9
$UNITMODE
 70
     0
  9
$VISRETAIN
 70
     1
  9
$PLINEGEN
 70
     0
  9
$PSLTSCALE
 70
     1
  0
ENDSEC
  0
SECTION
  2
TABLES
  0
TABLE
  2
VPORT
 70
     1
  0
VPORT
  2
*ACTIVE
 70
     0
 10
0.0
 20
0.0
 11
1.0
 21
1.0
 12
1646.9221896607539293
 22
-135.3890412491693951
 13
0.0
 23
0.0
 14
1.0
 24
1.0
 15
0.0
 25
0.0
 16
0.0
 26
0.0
 36
5.1040778033513332
 17
3792.35791015625
 27
120.1806564331053977
 37
0.0
 40
8.1024491319354297
 41
2.7255747126436778
 42
50.0
 43
0.0
 44
0.0
 50
0.0
 51
0.0
 71
     0
 72
   100
 73
     1
 74
     1
 75
     0
 76
     0
 77
     0
 78
     0
  0
ENDTAB
  0
TABLE
  2
LTYPE
 70
     2
  0
LTYPE
  2
CONTINUOUS
 70
     0
  3
Solid line
 72
    65
 73
     0
 40
0.0
  0
LTYPE
  2
PHANTOM2
 70
     0
  3
___ _ _ ___ _ _ ___ _ _ ___ _ _
 72
    65
 73
     6
 40
1.25
 49
0.625
 49
-0.125
 49
0.125
 49
-0.125
 49
0.125
 49
-0.125
  0
ENDTAB
  0
TABLE
  2
LAYER
 70
     2
  0
LAYER
  2
0
 70
     0
 62
   255
  6
CONTINUOUS
  0
LAYER
  2
DEFPOINTS
 70
     0
 62
     7
  6
CONTINUOUS
  0
ENDTAB
  0
TABLE
  2
STYLE
 70
     1
  0
STYLE
  2
STANDARD
 70
     0
 40
0.0
 41
0.8
 50
0.0
 71
     0
 42
0.2
  3
txt
  4

  0
ENDTAB
  0
TABLE
  2
VIEW
 70
     0
  0
ENDTAB
  0
TABLE
  2
UCS
 70
     0
  0
ENDTAB
  0
TABLE
  2
APPID
 70
     9
  0
APPID
  2
ACAD
 70
     0
  0
APPID
  2
ACAD_MLEADERVER
 70
     0
  0
APPID
  2
ACAD_EXEMPT_FROM_CAD_STANDARDS
 70
     0
  0
APPID
  2
ACAD_NAV_VCDISPLAY
 70
     0
  0
APPID
  2
ACAECLAYERSTANDARD
 70
     0
  0
APPID
  2
ACCMTRANSPARENCY
 70
     0
  0
APPID
  2
ACAD_DSTYLE_DIMJAG
 70
     0
  0
APPID
  2
ACAD_DSTYLE_DIMTALN
 70
     0
  0
APPID
  2
ACDBATTR
 70
     0
  0
ENDTAB
  0
TABLE
  2
DIMSTYLE
 70
     1
  0
DIMSTYLE
  2
STANDARD
 70
     0
  3

  4

  5

  6

  7

 40
1.0
 41
0.1875
 42
0.0625
 43
0.38
 44
0.125
 45
0.0
 46
0.0
 47
0.01
 48
0.01
140
0.15625
141
0.09
142
0.0
143
25.3999999999999986
144
1.0
145
0.0
146
1.0
147
0.09
 71
     1
 72
     0
 73
     1
 74
     1
 75
     0
 76
     0
 77
     0
 78
     4
170
     0
171
     2
172
     0
173
     0
174
     0
175
     0
176
     0
177
     0
178
     0
  0
ENDTAB
  0
ENDSEC
  0
SECTION
  2
BLOCKS
  0
BLOCK
  8
0
  2
$MODEL_SPACE
 70
     0
 10
0.0
 20
0.0
 30
0.0
  3
$MODEL_SPACE
  1

  0
ENDBLK
  5
21
  8
0
  0
BLOCK
 67
     1
  8
0
  2
$PAPER_SPACE
 70
     0
 10
0.0
 20
0.0
 30
0.0
  3
$PAPER_SPACE
  1

  0
ENDBLK
  5
1D
 67
     1
  8
0
  0
BLOCK
  8
0
  2
_FILLED
 70
     0
 10
0.0
 20
0.0
 30
0.0
  3
_FILLED
  1

  0
SOLID
  5
1CA7B
  8
0
  6
BYBLOCK
 62
     0
 10
0.0
 20
0.0
 30
0.0
 11
-1.0
 21
0.1666666667
 31
0.0
 12
-1.0
 22
-0.1666666667
 32
0.0
 13
-1.0
 23
-0.1666666667
 33
0.0
  0
ENDBLK
  5
1CA7C
  8
0
  6
BYBLOCK
 62
     0
  0
ENDSEC
  0
SECTION
  2
ENTITIES
  0
ATTDEF
  5
3930
  8
DEFPOINTS
 10
5439.3190579751262703
 20
-12.3126431901881705
 30
0.0
 40
0.001
  1
P32414-CREM
  3

  2
MODELNUMBER
 70
     0
1001
ACDBATTR
1070
     0
1070
     1
  0
ATTDEF
  5
3931
  8
DEFPOINTS
 10
5439.3190579751262703
 20
-12.3143098568548304
 30
0.0
 40
0.001
  1
ONE
  3

  2
TRADENAME
 70
     0
1001
ACDBATTR
1070
     0
1070
     1
  0
ATTDEF
  5
3932
  8
DEFPOINTS
 10
5439.3190579751262703
 20
-12.3159765235215009
 30
0.0
 40
0.001
  1
BATHROOM SINK FAUCET
  3

  2
PRODUCT
 70
     0
1001
ACDBATTR
1070
     0
1070
     1
  0
LINE
  5
2316D
  8
0
 10
5434.7424305956074022
 20
-12.7551900617324296
 30
0.0
 11
5434.7424305956074022
 21
-11.8787589323324294
 31
0.0
  0
ARC
  5
2316E
  8
0
 10
5434.7144305956062453
 20
-11.8787589323324294
 30
0.0
 40
0.028
 50
0.0
 51
90.0
  0
LINE
  5
2316F
  8
0
 10
5432.5424305956057651
 20
-12.7551900617324296
 30
0.0
 11
5432.5424305956057651
 21
-11.8787589323324294
 31
0.0
  0
ARC
  5
23170
  8
0
 10
5432.570430595605103
 20
-11.8787589323324294
 30
0.0
 40
0.028
 50
90.0
 51
180.0000000000019895
  0
LINE
  5
23171
  8
0
 10
5438.9224305956058743
 20
-18.816974497032561
 30
0.0
 11
5438.9224305956058743
 21
-12.3169744970324295
 31
0.0
  0
LINE
  5
23172
  8
0
 10
5439.7344305956057724
 20
-18.816974497032561
 30
0.0
 11
5439.7344305956057724
 21
-12.3169744970324295
 31
0.0
  0
LINE
  5
23173
  8
0
 10
5434.7424305956074022
 20
-12.3169744970324295
 30
0.0
 11
5432.5424305956057651
 21
-12.3169744970324295
 31
0.0
  0
ARC
  5
23174
  8
0
 10
5439.3284305956058233
 20
-12.3169744970324295
 30
0.0
 40
1.1249999999999989
 50
291.1547957660125121
 51
248.8452042339874879
  0
ARC
  5
23175
  8
0
 10
5439.3284305956058233
 20
-12.3169744970324295
 30
0.0
 40
0.4059999999998008
 50
0.0000000000004071
 51
179.9999999999994031
  0
ARC
  5
23176
  8
0
 10
5439.3284305956058233
 20
-18.816974497032561
 30
0.0
 40
0.4059999999998727
 50
179.9999999999994031
 51
0.0000000000004071
  0
ARC
  5
23177
  8
0
 10
5435.3284305956058233
 20
-12.3169744970324295
 30
0.0
 40
1.124999999999998
 50
204.4824083246743101
 51
155.5175916753256899
  0
LINE
  5
23178
  8
0
 10
5435.3284305956058233
 20
-11.9149744970324303
 30
0.0
 11
5434.7564305956066164
 21
-11.9149744970324303
 31
0.0
  0
LINE
  5
23179
  8
0
 10
5435.3284305956058233
 20
-12.7189744970324305
 30
0.0
 11
5434.7564305956066164
 21
-12.7189744970324305
 31
0.0
  0
ARC
  5
2317A
  8
0
 10
5435.3284305956058233
 20
-12.3169744970324295
 30
0.0
 40
0.4019999999999999
 50
270.0
 51
90.0
  0
ARC
  5
2317B
  8
0
 10
5434.7564305956066164
 20
-11.9289744970324403
 30
0.0
 40
0.014
 50
90.0
 51
179.999999999985306
  0
ARC
  5
2317C
  8
0
 10
5434.7564305956066164
 20
-12.7049744970324294
 30
0.0
 40
0.014
 50
180.0000000000144098
 51
270.0
  0
LINE
  5
2317E
  8
0
 10
5432.570430595605103
 20
-11.8507589323324307
 30
0.0
 11
5434.7144305956062453
 21
-11.8507589323324307
 31
0.0
  0
LINE
  5
2317F
  8
0
 10
5432.570430595605103
 20
-12.7831900617324301
 30
0.0
 11
5434.7144305956062453
 21
-12.7831900617324301
 31
0.0
  0
ARC
  5
23180
  8
0
 10
5434.7144305956062453
 20
-12.7551900617324296
 30
0.0
 40
0.028
 50
270.0
 51
0.0
  0
ARC
  5
23181
  8
0
 10
5432.570430595605103
 20
-12.7551900617324296
 30
0.0
 40
0.028
 50
180.0000000000019895
 51
270.0
  0
LINE
  5
23183
  8
0
 10
5432.5624305956062017
 20
-11.9754650733324297
 30
0.0
 11
5434.7224305956060562
 21
-11.9754650733324297
 31
0.0
  0
LINE
  5
23186
  8
0
 10
5432.5624305956062017
 20
-12.1703234104324292
 30
0.0
 11
5434.7224305956060562
 21
-12.1703234104324292
 31
0.0
  0
LINE
  5
23187
  8
0
 10
5432.5624305956062017
 20
-12.4675601548324302
 30
0.0
 11
5434.7224305956060562
 21
-12.4675601548324302
 31
0.0
  0
LINE
  5
2318A
  8
0
 10
5432.5624305956062017
 20
-12.6613354326324306
 30
0.0
 11
5434.7224305956060562
 21
-12.6613354326324306
 31
0.0
  0
ARC
  5
2318C
  8
0
 10
5432.5624305956062017
 20
-11.9954650733324293
 30
0.0
 40
0.02
 50
90.0
 51
180.0
  0
ARC
  5
2318F
  8
0
 10
5432.5624305956062017
 20
-12.1903234104324305
 30
0.0
 40
0.02
 50
90.0
 51
179.9999999999897966
  0
ARC
  5
23191
  8
0
 10
5434.7224305956060562
 20
-11.9954650733324399
 30
0.0
 40
0.02
 50
0.0000000000101778
 51
90.0
  0
ARC
  5
23194
  8
0
 10
5434.7224305956060562
 20
-12.1903234104324305
 30
0.0
 40
0.02
 50
0.0000000000101778
 51
90.0
  0
ARC
  5
23197
  8
0
 10
5432.5624305956062017
 20
-12.6413354326324399
 30
0.0
 40
0.02
 50
179.9999999999795932
 51
270.0
  0
ARC
  5
2319A
  8
0
 10
5432.5624305956062017
 20
-12.4475601548324306
 30
0.0
 40
0.02
 50
179.9999999999897966
 51
270.0
  0
ARC
  5
2319C
  8
0
 10
5434.7224305956060562
 20
-12.6413354326324292
 30
0.0
 40
0.02
 50
270.0
 51
359.999999999989825
  0
ARC
  5
2319F
  8
0
 10
5434.7224305956060562
 20
-12.44756015483242
 30
0.0
 40
0.02
 50
270.0
 51
359.9999999999694751
  0
LINE
  5
231A0
  8
0
 10
5443.9144305956060634
 20
-12.7551900617324296
 30
0.0
 11
5443.9144305956060634
 21
-11.8787589323324294
 31
0.0
  0
ARC
  5
231A1
  8
0
 10
5443.9424305956072203
 20
-11.8787589323324294
 30
0.0
 40
0.028
 50
90.0
 51
180.0
  0
LINE
  5
231A2
  8
0
 10
5446.1144305956058815
 20
-12.7551900617324296
 30
0.0
 11
5446.1144305956058815
 21
-11.8787589323324294
 31
0.0
  0
ARC
  5
231A3
  8
0
 10
5446.0864305956056342
 20
-11.8787589323324294
 30
0.0
 40
0.028
 50
359.9999999999977831
 51
90.0
  0
LINE
  5
231A4
  8
0
 10
5443.9144305956060634
 20
-12.3169744970324295
 30
0.0
 11
5446.1144305956058815
 21
-12.3169744970324295
 31
0.0
  0
ARC
  5
231A5
  8
0
 10
5443.3284305956058233
 20
-12.3169744970324295
 30
0.0
 40
1.124999999999998
 50
24.4824083246742994
 51
335.5175916753257184
  0
LINE
  5
231A6
  8
0
 10
5443.3284305956058233
 20
-11.9149744970324303
 30
0.0
 11
5443.9004305956059397
 21
-11.9149744970324303
 31
0.0
  0
LINE
  5
231A7
  8
0
 10
5443.3284305956058233
 20
-12.7189744970324305
 30
0.0
 11
5443.9004305956059397
 21
-12.7189744970324305
 31
0.0
  0
ARC
  5
231A8
  8
0
 10
5443.3284305956058233
 20
-12.3169744970324295
 30
0.0
 40
0.4019999999999999
 50
90.0
 51
270.0
  0
ARC
  5
231A9
  8
0
 10
5443.9004305956059397
 20
-11.9289744970324403
 30
0.0
 40
0.014
 50
0.000000000014656
 51
90.0
  0
ARC
  5
231AA
  8
0
 10
5443.9004305956059397
 20
-12.7049744970324294
 30
0.0
 40
0.014
 50
270.0
 51
359.9999999999852776
  0
LINE
  5
231AC
  8
0
 10
5446.0864305956056342
 20
-11.8507589323324307
 30
0.0
 11
5443.9424305956072203
 21
-11.8507589323324307
 31
0.0
  0
LINE
  5
231AD
  8
0
 10
5446.0864305956056342
 20
-12.7831900617324301
 30
0.0
 11
5443.9424305956072203
 21
-12.7831900617324301
 31
0.0
  0
ARC
  5
231AE
  8
0
 10
5443.9424305956072203
 20
-12.7551900617324296
 30
0.0
 40
0.028
 50
180.0
 51
270.0
  0
ARC
  5
231AF
  8
0
 10
5446.0864305956056342
 20
-12.7551900617324296
 30
0.0
 40
0.028
 50
270.0
 51
359.9999999999977831
  0
LINE
  5
231B1
  8
0
 10
5446.094430595607264
 20
-11.9754650733324297
 30
0.0
 11
5443.9344305956074095
 21
-11.9754650733324297
 31
0.0
  0
LINE
  5
231B4
  8
0
 10
5446.094430595607264
 20
-12.1703234104324292
 30
0.0
 11
5443.9344305956074095
 21
-12.1703234104324292
 31
0.0
  0
LINE
  5
231B5
  8
0
 10
5446.094430595607264
 20
-12.4675601548324302
 30
0.0
 11
5443.9344305956074095
 21
-12.4675601548324302
 31
0.0
  0
LINE
  5
231B8
  8
0
 10
5446.094430595607264
 20
-12.6613354326324306
 30
0.0
 11
5443.9344305956074095
 21
-12.6613354326324306
 31
0.0
  0
ARC
  5
231BA
  8
0
 10
5446.094430595607264
 20
-11.9954650733324293
 30
0.0
 40
0.02
 50
0.0
 51
90.0
  0
ARC
  5
231BD
  8
0
 10
5446.094430595607264
 20
-12.1903234104324305
 30
0.0
 40
0.02
 50
0.0000000000101778
 51
90.0
  0
ARC
  5
231BF
  8
0
 10
5443.9344305956074095
 20
-11.9954650733324399
 30
0.0
 40
0.02
 50
90.0
 51
179.9999999999897966
  0
ARC
  5
231C2
  8
0
 10
5443.9344305956074095
 20
-12.1903234104324305
 30
0.0
 40
0.02
 50
90.0
 51
179.9999999999897966
  0
ARC
  5
231C5
  8
0
 10
5446.094430595607264
 20
-12.6413354326324399
 30
0.0
 40
0.02
 50
270.0
 51
0.0000000000203555
  0
ARC
  5
231C8
  8
0
 10
5446.094430595607264
 20
-12.4475601548324306
 30
0.0
 40
0.02
 50
270.0
 51
0.0000000000101778
  0
ARC
  5
231CA
  8
0
 10
5443.9344305956074095
 20
-12.6413354326324292
 30
0.0
 40
0.02
 50
180.0000000000100897
 51
270.0
  0
ARC
  5
231CD
  8
0
 10
5443.9344305956074095
 20
-12.44756015483242
 30
0.0
 40
0.02
 50
180.0000000000304965
 51
270.0
  0
ENDSEC
  0
EOF
