  0
SECTION
  2
HEADER
  9
$ACADVER
  1
AC1009
  9
$INSBASE
 10
5807.0621176314652985
 20
-10.0654333625344901
 30
0.0
  9
$EXTMIN
 10
5799.8473037130679586
 20
-10.0713536995999604
 30
-0.0000000000000058
  9
$EXTMAX
 10
5814.0413005305754268
 20
0.7410249960574476
 30
0.0000000000000104
  9
$LIMMIN
 10
0.0
 20
0.0
  9
$LIMMAX
 10
11.6929133858000007
 20
8.2677165353999982
  9
$ORTHOMODE
 70
     0
  9
$REGENMODE
 70
     1
  9
$FILLMODE
 70
     1
  9
$QTEXTMODE
 70
     0
  9
$MIRRTEXT
 70
     0
  9
$DRAGMODE
 70
     2
  9
$LTSCALE
 40
0.6431102362
  9
$OSMODE
 70
  4095
  9
$ATTMODE
 70
     1
  9
$TEXTSIZE
 40
0.2
  9
$TRACEWID
 40
0.05
  9
$TEXTSTYLE
  7
STANDARD
  9
$CLAYER
  8
0
  9
$CELTYPE
  6
BYLAYER
  9
$CECOLOR
 62
   256
  9
$DIMSCALE
 40
1.0
  9
$DIMASZ
 40
0.1875
  9
$DIMEXO
 40
0.0625
  9
$DIMDLI
 40
0.4443307087
  9
$DIMRND
 40
0.0
  9
$DIMDLE
 40
0.0
  9
$DIMEXE
 40
0.125
  9
$DIMTP
 40
0.01
  9
$DIMTM
 40
0.01
  9
$DIMTXT
 40
2.0
  9
$DIMCEN
 40
0.1052362205
  9
$DIMTSZ
 40
0.0
  9
$DIMTOL
 70
     1
  9
$DIMLIM
 70
     0
  9
$DIMTIH
 70
     1
  9
$DIMTOH
 70
     1
  9
$DIMSE1
 70
     0
  9
$DIMSE2
 70
     0
  9
$DIMTAD
 70
     0
  9
$DIMZIN
 70
     0
  9
$DIMBLK
  1

  9
$DIMASO
 70
     1
  9
$DIMSHO
 70
     1
  9
$DIMPOST
  1
\X
  9
$DIMAPOST
  1

  9
$DIMALT
 70
     1
  9
$DIMALTD
 70
     2
  9
$DIMALTF
 40
25.3999999999999986
  9
$DIMLFAC
 40
1.0
  9
$DIMTOFL
 70
     0
  9
$DIMTVP
 40
0.0
  9
$DIMTIX
 70
     0
  9
$DIMSOXD
 70
     0
  9
$DIMSAH
 70
     0
  9
$DIMBLK1
  1

  9
$DIMBLK2
  1

  9
$DIMSTYLE
  2
STANDARD
  9
$DIMCLRD
 70
     0
  9
$DIMCLRE
 70
     0
  9
$DIMCLRT
 70
     0
  9
$DIMTFAC
 40
1.0
  9
$DIMGAP
 40
0.09
  9
$LUNITS
 70
     2
  9
$LUPREC
 70
     4
  9
$SKETCHINC
 40
0.1
  9
$FILLETRAD
 40
0.0
  9
$AUNITS
 70
     0
  9
$AUPREC
 70
     0
  9
$MENU
  1
.
  9
$ELEVATION
 40
0.0
  9
$PELEVATION
 40
0.0
  9
$THICKNESS
 40
0.0
  9
$LIMCHECK
 70
     0
  9
$BLIPMODE
 70
     0
  9
$CHAMFERA
 40
0.0
  9
$CHAMFERB
 40
0.0
  9
$SKPOLY
 70
     0
  9
$TDCREATE
 40
2458060.468368056230247
  9
$TDUPDATE
 40
2460111.6989236110821366
  9
$TDINDWG
 40
0.6081899306
  9
$TDUSRTIMER
 40
0.6081899306
  9
$USRTIMER
 70
     1
  9
$ANGBASE
 50
0.0
  9
$ANGDIR
 70
     0
  9
$PDMODE
 70
     0
  9
$PDSIZE
 40
0.3125
  9
$PLINEWID
 40
0.0
  9
$COORDS
 70
     1
  9
$SPLFRAME
 70
     0
  9
$SPLINETYPE
 70
     6
  9
$SPLINESEGS
 70
     8
  9
$ATTDIA
 70
     1
  9
$ATTREQ
 70
     1
  9
$HANDLING
 70
     1
  9
$HANDSEED
  5
2556C
  9
$SURFTAB1
 70
     6
  9
$SURFTAB2
 70
     6
  9
$SURFTYPE
 70
     6
  9
$SURFU
 70
     6
  9
$SURFV
 70
     6
  9
$UCSNAME
  2

  9
$UCSORG
 10
0.0
 20
0.0
 30
0.0
  9
$UCSXDIR
 10
1.0
 20
0.0
 30
0.0
  9
$UCSYDIR
 10
0.0
 20
1.0
 30
0.0
  9
$PUCSNAME
  2

  9
$PUCSORG
 10
0.0
 20
0.0
 30
0.0
  9
$PUCSXDIR
 10
1.0
 20
0.0
 30
0.0
  9
$PUCSYDIR
 10
0.0
 20
1.0
 30
0.0
  9
$USERI1
 70
     0
  9
$USERI2
 70
     0
  9
$USERI3
 70
     0
  9
$USERI4
 70
     0
  9
$USERI5
 70
     0
  9
$USERR1
 40
0.0
  9
$USERR2
 40
0.0
  9
$USERR3
 40
0.0
  9
$USERR4
 40
0.0
  9
$USERR5
 40
0.0
  9
$WORLDVIEW
 70
     1
  9
$SHADEDGE
 70
     3
  9
$SHADEDIF
 70
    70
  9
$TILEMODE
 70
     1
  9
$MAXACTVP
 70
    64
  9
$PLIMCHECK
 70
     0
  9
$PEXTMIN
 10
1.0000000000000000E+20
 20
1.0000000000000000E+20
 30
1.0000000000000000E+20
  9
$PEXTMAX
 10
-1.0000000000000000E+20
 20
-1.0000000000000000E+20
 30
-1.0000000000000000E+20
  9
$PLIMMIN
 10
0.0
 20
0.0
  9
$PLIMMAX
 10
12.0
 20
9.0
  9
$UNITMODE
 70
     0
  9
$VISRETAIN
 70
     1
  9
$PLINEGEN
 70
     0
  9
$PSLTSCALE
 70
     1
  0
ENDSEC
  0
SECTION
  2
TABLES
  0
TABLE
  2
VPORT
 70
     1
  0
VPORT
  2
*ACTIVE
 70
     0
 10
0.0
 20
0.0
 11
1.0
 21
1.0
 12
2014.5863919655710106
 22
-124.8458207848766932
 13
0.0
 23
0.0
 14
1.0
 24
1.0
 15
0.0
 25
0.0
 16
0.0
 26
0.0
 36
5.1040778033513332
 17
3792.35791015625
 27
120.1806564331053977
 37
0.0
 40
10.9054551263230497
 41
2.7255747126436778
 42
50.0
 43
0.0
 44
0.0
 50
0.0
 51
0.0
 71
     0
 72
   100
 73
     1
 74
     1
 75
     0
 76
     0
 77
     0
 78
     0
  0
ENDTAB
  0
TABLE
  2
LTYPE
 70
     2
  0
LTYPE
  2
CONTINUOUS
 70
     0
  3
Solid line
 72
    65
 73
     0
 40
0.0
  0
LTYPE
  2
PHANTOM2
 70
     0
  3
___ _ _ ___ _ _ ___ _ _ ___ _ _
 72
    65
 73
     6
 40
1.25
 49
0.625
 49
-0.125
 49
0.125
 49
-0.125
 49
0.125
 49
-0.125
  0
ENDTAB
  0
TABLE
  2
LAYER
 70
     2
  0
LAYER
  2
0
 70
     0
 62
   255
  6
CONTINUOUS
  0
LAYER
  2
DEFPOINTS
 70
     0
 62
     7
  6
CONTINUOUS
  0
ENDTAB
  0
TABLE
  2
STYLE
 70
     1
  0
STYLE
  2
STANDARD
 70
     0
 40
0.0
 41
0.8
 50
0.0
 71
     0
 42
0.2
  3
txt
  4

  0
ENDTAB
  0
TABLE
  2
VIEW
 70
     0
  0
ENDTAB
  0
TABLE
  2
UCS
 70
     0
  0
ENDTAB
  0
TABLE
  2
APPID
 70
     9
  0
APPID
  2
ACAD
 70
     0
  0
APPID
  2
ACAD_MLEADERVER
 70
     0
  0
APPID
  2
ACAD_EXEMPT_FROM_CAD_STANDARDS
 70
     0
  0
APPID
  2
ACAD_NAV_VCDISPLAY
 70
     0
  0
APPID
  2
ACAECLAYERSTANDARD
 70
     0
  0
APPID
  2
ACCMTRANSPARENCY
 70
     0
  0
APPID
  2
ACAD_DSTYLE_DIMJAG
 70
     0
  0
APPID
  2
ACAD_DSTYLE_DIMTALN
 70
     0
  0
APPID
  2
ACDBATTR
 70
     0
  0
ENDTAB
  0
TABLE
  2
DIMSTYLE
 70
     1
  0
DIMSTYLE
  2
STANDARD
 70
     0
  3

  4

  5

  6

  7

 40
1.0
 41
0.1875
 42
0.0625
 43
0.38
 44
0.125
 45
0.0
 46
0.0
 47
0.01
 48
0.01
140
0.15625
141
0.09
142
0.0
143
25.3999999999999986
144
1.0
145
0.0
146
1.0
147
0.09
 71
     1
 72
     0
 73
     1
 74
     1
 75
     0
 76
     0
 77
     0
 78
     4
170
     0
171
     2
172
     0
173
     0
174
     0
175
     0
176
     0
177
     0
178
     0
  0
ENDTAB
  0
ENDSEC
  0
SECTION
  2
BLOCKS
  0
BLOCK
  8
0
  2
$MODEL_SPACE
 70
     0
 10
0.0
 20
0.0
 30
0.0
  3
$MODEL_SPACE
  1

  0
ENDBLK
  5
21
  8
0
  0
BLOCK
 67
     1
  8
0
  2
$PAPER_SPACE
 70
     0
 10
0.0
 20
0.0
 30
0.0
  3
$PAPER_SPACE
  1

  0
ENDBLK
  5
1D
 67
     1
  8
0
  0
BLOCK
  8
0
  2
_FILLED
 70
     0
 10
0.0
 20
0.0
 30
0.0
  3
_FILLED
  1

  0
SOLID
  5
1D213
  8
0
  6
BYBLOCK
 62
     0
 10
0.0
 20
0.0
 30
0.0
 11
-1.0
 21
0.1666666667
 31
0.0
 12
-1.0
 22
-0.1666666667
 32
0.0
 13
-1.0
 23
-0.1666666667
 33
0.0
  0
ENDBLK
  5
1D214
  8
0
  6
BYBLOCK
 62
     0
  0
ENDSEC
  0
SECTION
  2
ENTITIES
  0
ATTDEF
  5
3930
  8
DEFPOINTS
 10
5807.0624197750476014
 20
-10.0669357413425207
 30
0.0
 40
0.001
  1
P32414-CREM
  3

  2
MODELNUMBER
 70
     0
1001
ACDBATTR
1070
     0
1070
     1
  0
ATTDEF
  5
3931
  8
DEFPOINTS
 10
5807.0624197750476014
 20
-10.0686024080091805
 30
0.0
 40
0.001
  1
ONE
  3

  2
TRADENAME
 70
     0
1001
ACDBATTR
1070
     0
1070
     1
  0
ATTDEF
  5
3932
  8
DEFPOINTS
 10
5807.0624197750476014
 20
-10.0702690746758492
 30
0.0
 40
0.001
  1
BATHROOM SINK FAUCET
  3

  2
PRODUCT
 70
     0
1001
ACDBATTR
1070
     0
1070
     1
  0
LINE
  5
24B4F
  8
0
 10
5808.1871176314652985
 20
-10.0654333625344901
 30
0.0
 11
5805.9371176314652985
 21
-10.0654333625344901
 31
0.0
  0
LINE
  5
24B50
  8
0
 10
5804.187117631466208
 20
-10.0654333625344901
 30
0.0
 11
5801.937117631466208
 21
-10.0654333625344901
 31
0.0
  0
LINE
  5
24B51
  8
0
 10
5808.1771176314659897
 20
-9.6654333625344862
 30
0.0
 11
5805.9471176314664262
 21
-9.6654333625344862
 31
0.0
  0
LINE
  5
24B52
  8
0
 10
5804.1671176314648619
 20
-9.6654333625344862
 30
0.0
 11
5801.957117631465735
 21
-9.6654333625344862
 31
0.0
  0
LINE
  5
24B53
  8
0
 10
5807.4581176314650293
 20
-4.1654333625344888
 30
0.0
 11
5806.6661176314646582
 21
-4.1654333625344888
 31
0.0
  0
LINE
  5
24B54
  8
0
 10
5803.4501176314661279
 20
-8.4874333625344889
 30
0.0
 11
5802.674117631466288
 21
-8.4874333625344889
 31
0.0
  0
LINE
  5
24B55
  8
0
 10
5803.4241176314653785
 20
-8.4954333625344862
 30
0.0
 11
5802.7001176314661279
 21
-8.4954333625344862
 31
0.0
  0
LINE
  5
24B56
  8
0
 10
5802.4481176314657205
 20
-7.095558839860419
 30
0.0
 11
5800.3041176314663971
 21
-7.095558839860419
 31
0.0
  0
LINE
  5
24B57
  8
0
 10
5802.4481176314657205
 20
-8.0012151322957212
 30
0.0
 11
5800.3041176314663971
 21
-8.0012151322957212
 31
0.0
  0
LINE
  5
24B58
  8
0
 10
5801.937117631466208
 20
-9.6854333625344893
 30
0.0
 11
5801.937117631466208
 21
-10.0654333625344901
 31
0.0
  0
ARC
  5
24B59
  8
0
 10
5801.957117631465735
 20
-9.6854333625344893
 30
0.0
 40
0.02
 50
90.0
 51
180.0000000000005969
  0
LINE
  5
24B5A
  8
0
 10
5802.6601176314652548
 20
-9.6254333625344888
 30
0.0
 11
5802.6601176314652548
 21
-8.5354333625344871
 31
0.0
  0
LINE
  5
24B5B
  8
0
 10
5802.6601176314652548
 20
-8.4734333625344895
 30
0.0
 11
5802.6601176314652548
 21
-8.1628904359800618
 31
0.0
  0
ARC
  5
24B5C
  8
0
 10
5802.6201176314662007
 20
-9.6254333625344888
 30
0.0
 40
0.04
 50
270.0
 51
0.0000000000004071
  0
ARC
  5
24B5D
  8
0
 10
5802.7001176314661279
 20
-8.5354333625344871
 30
0.0
 40
0.04
 50
90.0
 51
180.0000000000005969
  0
LINE
  5
24B5E
  8
0
 10
5802.7121176314649347
 20
-8.4874333625344889
 30
0.0
 11
5802.7121176314649347
 21
-8.4954333625344862
 31
0.0
  0
ARC
  5
24B5F
  8
0
 10
5802.674117631466288
 20
-8.4734333625344895
 30
0.0
 40
0.014
 50
179.9999999999982094
 51
270.0
  0
LINE
  5
24B60
  8
0
 10
5804.187117631466208
 20
-9.6854333625344893
 30
0.0
 11
5804.187117631466208
 21
-10.0654333625344901
 31
0.0
  0
ARC
  5
24B61
  8
0
 10
5804.1671176314648619
 20
-9.6854333625344893
 30
0.0
 40
0.02
 50
359.9999999999993747
 51
90.0
  0
LINE
  5
24B62
  8
0
 10
5803.4641176314662516
 20
-9.6254333625344888
 30
0.0
 11
5803.4641176314662516
 21
-8.5354333625344871
 31
0.0
  0
LINE
  5
24B63
  8
0
 10
5803.4641176314662516
 20
-8.4734333625344895
 30
0.0
 11
5803.4641176314662516
 21
-8.1624951378344885
 31
0.0
  0
ARC
  5
24B64
  8
0
 10
5803.5041176314653057
 20
-9.6254333625344888
 30
0.0
 40
0.04
 50
179.9999999999996021
 51
270.0
  0
ARC
  5
24B65
  8
0
 10
5803.4241176314653785
 20
-8.5354333625344871
 30
0.0
 40
0.04
 50
359.9999999999993747
 51
90.0
  0
LINE
  5
24B66
  8
0
 10
5803.4121176314656623
 20
-8.4874333625344889
 30
0.0
 11
5803.4121176314656623
 21
-8.4954333625344862
 31
0.0
  0
ARC
  5
24B67
  8
0
 10
5803.4501176314661279
 20
-8.4734333625344895
 30
0.0
 40
0.014
 50
270.0
 51
0.000000000001832
  0
ARC
  5
24B68
  8
0
 10
5802.4761176314659679
 20
-8.1624951378344868
 30
0.0
 40
0.9879999999999999
 50
0.0
 51
89.1764183401958093
  0
LINE
  5
24B69
  8
0
 10
5802.4761176314659679
 20
-7.1235588398604177
 30
0.0
 11
5802.4761176314659679
 21
-7.9732151322957199
 31
0.0
  0
ARC
  5
24B6A
  8
0
 10
5802.4901176314660916
 20
-7.1885957590483631
 30
0.0
 40
0.014
 50
89.1764183401958093
 51
179.9999999999982094
  0
ARC
  5
24B6B
  8
0
 10
5802.4761176314659679
 20
-8.1628904359800618
 30
0.0
 40
0.184
 50
359.9999999999997726
 51
85.9453999801255435
  0
ARC
  5
24B6C
  8
0
 10
5802.4901176314660916
 20
-7.9653860056500054
 30
0.0
 40
0.014
 50
180.0
 51
265.9453999801256145
  0
ARC
  5
24B6D
  8
0
 10
5802.4481176314657205
 20
-7.9732151322957199
 30
0.0
 40
0.028
 50
270.0
 51
0.0
  0
ARC
  5
24B6E
  8
0
 10
5802.4481176314657205
 20
-7.1235588398604177
 30
0.0
 40
0.028
 50
359.9999999999989768
 51
90.0
  0
LINE
  5
24B6F
  8
0
 10
5800.2761176314652403
 20
-7.1235588398604204
 30
0.0
 11
5800.2761176314652403
 21
-7.9732151322957217
 31
0.0
  0
ARC
  5
24B70
  8
0
 10
5800.3041176314663971
 20
-7.1235588398604177
 30
0.0
 40
0.028
 50
90.0
 51
180.0000000000017906
  0
ARC
  5
24B71
  8
0
 10
5800.3041176314663971
 20
-7.9732151322957199
 30
0.0
 40
0.028
 50
180.0000000000017906
 51
270.0
  0
LINE
  5
24B72
  8
0
 10
5800.2961176314647673
 20
-7.1680030657344878
 30
0.0
 11
5802.4561176314646218
 21
-7.1680030657344878
 31
0.0
  0
LINE
  5
24B75
  8
0
 10
5800.2961176314647673
 20
-7.3099278419344884
 30
0.0
 11
5802.4561176314646218
 21
-7.3099278419344884
 31
0.0
  0
LINE
  5
24B77
  8
0
 10
5800.2961176314647673
 20
-7.4316391966344879
 30
0.0
 11
5802.4561176314646218
 21
-7.4316391966344879
 31
0.0
  0
ARC
  5
24B78
  8
0
 10
5800.2961176314647673
 20
-7.1880030657344882
 30
0.0
 40
0.02
 50
90.0
 51
180.0000000000036096
  0
ARC
  5
24B7B
  8
0
 10
5800.2961176314647673
 20
-7.3299278419344871
 30
0.0
 40
0.02
 50
90.0
 51
180.0000000000011937
  0
ARC
  5
24B7D
  8
0
 10
5800.2961176314647673
 20
-7.4516391966344884
 30
0.0
 40
0.02
 50
90.0
 51
180.0000000000023874
  0
ARC
  5
24B7E
  8
0
 10
5802.4561176314646218
 20
-7.1880030657344882
 30
0.0
 40
0.02
 50
0.0
 51
90.0
  0
ARC
  5
24B81
  8
0
 10
5802.4561176314646218
 20
-7.3299278419344871
 30
0.0
 40
0.02
 50
359.9999999999973284
 51
90.0
  0
ARC
  5
24B83
  8
0
 10
5802.4561176314646218
 20
-7.4516391966344884
 30
0.0
 40
0.02
 50
359.9999999999960778
 51
90.0
  0
LINE
  5
24B84
  8
0
 10
5800.2961176314647673
 20
-7.5929691032344868
 30
0.0
 11
5802.4561176314646218
 21
-7.5929691032344868
 31
0.0
  0
LINE
  5
24B87
  8
0
 10
5800.2961176314647673
 20
-7.8211175116344878
 30
0.0
 11
5802.4561176314646218
 21
-7.8211175116344878
 31
0.0
  0
LINE
  5
24B88
  8
0
 10
5800.2961176314647673
 20
-7.967624796534488
 30
0.0
 11
5802.4561176314646218
 21
-7.967624796534488
 31
0.0
  0
ARC
  5
24B8A
  8
0
 10
5800.2961176314647673
 20
-7.9476247965344866
 30
0.0
 40
0.02
 50
180.0000000000023874
 51
270.0
  0
ARC
  5
24B8C
  8
0
 10
5800.2961176314647673
 20
-7.8011175116344891
 30
0.0
 40
0.02
 50
180.0000000000023874
 51
270.0
  0
ARC
  5
24B8F
  8
0
 10
5800.2961176314647673
 20
-7.5729691032344881
 30
0.0
 40
0.02
 50
180.0000000000023874
 51
270.0
  0
ARC
  5
24B90
  8
0
 10
5802.4561176314646218
 20
-7.9476247965344866
 30
0.0
 40
0.02
 50
270.0
 51
359.9999999999988063
  0
ARC
  5
24B92
  8
0
 10
5802.4561176314646218
 20
-7.8011175116344891
 30
0.0
 40
0.02
 50
270.0
 51
0.0000000000012213
  0
ARC
  5
24B95
  8
0
 10
5802.4561176314646218
 20
-7.5729691032344881
 30
0.0
 40
0.02
 50
270.0
 51
0.0
  0
LINE
  5
24B96
  8
0
 10
5805.9371176314652985
 20
-9.6754333625344842
 30
0.0
 11
5805.9371176314652985
 21
-10.0654333625344901
 31
0.0
  0
ARC
  5
24B97
  8
0
 10
5805.9471176314664262
 20
-9.6754333625344877
 30
0.0
 40
0.01
 50
90.0
 51
180.0
  0
LINE
  5
24B98
  8
0
 10
5806.6561176314653494
 20
-9.6654333625344862
 30
0.0
 11
5806.6561176314653494
 21
0.3345666374656133
 31
0.0
  0
LINE
  5
24B99
  8
0
 10
5807.4681176314652475
 20
-9.6654333625344862
 30
0.0
 11
5807.4681176314652475
 21
0.3345666374656133
 31
0.0
  0
LINE
  5
24B9A
  8
0
 10
5808.1871176314652985
 20
-9.6754333625344842
 30
0.0
 11
5808.1871176314652985
 21
-10.0654333625344901
 31
0.0
  0
ARC
  5
24B9B
  8
0
 10
5808.1771176314659897
 20
-9.6754333625344877
 30
0.0
 40
0.01
 50
0.0
 51
90.0
  0
ARC
  5
24B9C
  8
0
 10
5806.6661176314646582
 20
-4.1554333625344881
 30
0.0
 40
0.01
 50
180.0
 51
270.0
  0
ARC
  5
24B9D
  8
0
 10
5807.4581176314650293
 20
-4.1554333625344881
 30
0.0
 40
0.01
 50
270.0
 51
359.9999999999948841
  0
ARC
  5
24B9E
  8
0
 10
5807.0621176314652985
 20
0.3345666374656062
 30
0.0
 40
0.4059999999998958
 50
0.0000000000004071
 51
179.9999999999994031
  0
LINE
  5
24B9F
  8
0
 10
5809.937117631466208
 20
-10.0654333625344901
 30
0.0
 11
5812.187117631466208
 21
-10.0654333625344901
 31
0.0
  0
LINE
  5
24BA0
  8
0
 10
5809.957117631465735
 20
-9.6654333625344862
 30
0.0
 11
5812.1671176314648619
 21
-9.6654333625344862
 31
0.0
  0
LINE
  5
24BA1
  8
0
 10
5810.674117631466288
 20
-8.4874333625344889
 30
0.0
 11
5811.4501176314661279
 21
-8.4874333625344889
 31
0.0
  0
LINE
  5
24BA2
  8
0
 10
5810.7001176314661279
 20
-8.4954333625344862
 30
0.0
 11
5811.424117631466288
 21
-8.4954333625344862
 31
0.0
  0
LINE
  5
24BA3
  8
0
 10
5811.676117631465786
 20
-7.095558839860419
 30
0.0
 11
5813.8201176314660188
 21
-7.095558839860419
 31
0.0
  0
LINE
  5
24BA4
  8
0
 10
5811.676117631465786
 20
-8.0012151322957212
 30
0.0
 11
5813.8201176314660188
 21
-8.0012151322957212
 31
0.0
  0
LINE
  5
24BA5
  8
0
 10
5812.187117631466208
 20
-9.6854333625344893
 30
0.0
 11
5812.187117631466208
 21
-10.0654333625344901
 31
0.0
  0
ARC
  5
24BA6
  8
0
 10
5812.1671176314648619
 20
-9.6854333625344893
 30
0.0
 40
0.02
 50
359.9999999999993747
 51
90.0
  0
LINE
  5
24BA7
  8
0
 10
5811.4641176314662516
 20
-9.6254333625344888
 30
0.0
 11
5811.4641176314662516
 21
-8.5354333625344871
 31
0.0
  0
LINE
  5
24BA8
  8
0
 10
5811.4641176314662516
 20
-8.4734333625344895
 30
0.0
 11
5811.4641176314662516
 21
-8.1628904359800618
 31
0.0
  0
ARC
  5
24BA9
  8
0
 10
5811.5041176314653057
 20
-9.6254333625344888
 30
0.0
 40
0.04
 50
179.9999999999996021
 51
270.0
  0
ARC
  5
24BAA
  8
0
 10
5811.424117631466288
 20
-8.5354333625344871
 30
0.0
 40
0.04
 50
359.9999999999993747
 51
90.0
  0
LINE
  5
24BAB
  8
0
 10
5811.4121176314656623
 20
-8.4874333625344889
 30
0.0
 11
5811.4121176314656623
 21
-8.4954333625344862
 31
0.0
  0
ARC
  5
24BAC
  8
0
 10
5811.4501176314661279
 20
-8.4734333625344895
 30
0.0
 40
0.014
 50
270.0
 51
0.000000000001832
  0
LINE
  5
24BAD
  8
0
 10
5809.937117631466208
 20
-9.6854333625344893
 30
0.0
 11
5809.937117631466208
 21
-10.0654333625344901
 31
0.0
  0
ARC
  5
24BAE
  8
0
 10
5809.957117631465735
 20
-9.6854333625344893
 30
0.0
 40
0.02
 50
90.0
 51
180.0000000000005969
  0
LINE
  5
24BAF
  8
0
 10
5810.6601176314652548
 20
-9.6254333625344888
 30
0.0
 11
5810.6601176314652548
 21
-8.5354333625344871
 31
0.0
  0
LINE
  5
24BB0
  8
0
 10
5810.6601176314652548
 20
-8.4734333625344895
 30
0.0
 11
5810.6601176314652548
 21
-8.1624951378344885
 31
0.0
  0
ARC
  5
24BB1
  8
0
 10
5810.6201176314652912
 20
-9.6254333625344888
 30
0.0
 40
0.04
 50
270.0
 51
0.0000000000004071
  0
ARC
  5
24BB2
  8
0
 10
5810.7001176314661279
 20
-8.5354333625344871
 30
0.0
 40
0.04
 50
90.0
 51
180.0000000000005969
  0
LINE
  5
24BB3
  8
0
 10
5810.7121176314658442
 20
-8.4874333625344889
 30
0.0
 11
5810.7121176314658442
 21
-8.4954333625344862
 31
0.0
  0
ARC
  5
24BB4
  8
0
 10
5810.674117631466288
 20
-8.4734333625344895
 30
0.0
 40
0.014
 50
179.9999999999982094
 51
270.0
  0
ARC
  5
24BB5
  8
0
 10
5811.6481176314664481
 20
-8.1624951378344868
 30
0.0
 40
0.9879999999999999
 50
90.8235816598041765
 51
180.0
  0
LINE
  5
24BB6
  8
0
 10
5811.6481176314664481
 20
-7.1235588398604177
 30
0.0
 11
5811.6481176314664481
 21
-7.9732151322957199
 31
0.0
  0
ARC
  5
24BB7
  8
0
 10
5811.6341176314663244
 20
-7.1885957590483631
 30
0.0
 40
0.014
 50
0.000000000001832
 51
90.8235816598041765
  0
ARC
  5
24BB8
  8
0
 10
5811.6481176314664481
 20
-8.1628904359800618
 30
0.0
 40
0.184
 50
94.0546000198744423
 51
180.000000000000199
  0
ARC
  5
24BB9
  8
0
 10
5811.6341176314663244
 20
-7.9653860056500054
 30
0.0
 40
0.014
 50
274.0546000198743855
 51
0.0
  0
ARC
  5
24BBA
  8
0
 10
5811.676117631465786
 20
-7.9732151322957199
 30
0.0
 40
0.028
 50
180.0
 51
270.0
  0
ARC
  5
24BBB
  8
0
 10
5811.676117631465786
 20
-7.1235588398604177
 30
0.0
 40
0.028
 50
90.0
 51
180.0000000000007958
  0
LINE
  5
24BBC
  8
0
 10
5813.8481176314653567
 20
-7.1235588398604204
 30
0.0
 11
5813.8481176314653567
 21
-7.9732151322957217
 31
0.0
  0
ARC
  5
24BBD
  8
0
 10
5813.8201176314660188
 20
-7.1235588398604177
 30
0.0
 40
0.028
 50
359.999999999998181
 51
90.0
  0
ARC
  5
24BBE
  8
0
 10
5813.8201176314660188
 20
-7.9732151322957199
 30
0.0
 40
0.028
 50
270.0
 51
359.999999999998181
  0
LINE
  5
24BBF
  8
0
 10
5813.8281176314658296
 20
-7.1680030657344878
 30
0.0
 11
5811.6681176314659751
 21
-7.1680030657344878
 31
0.0
  0
LINE
  5
24BC2
  8
0
 10
5813.8281176314658296
 20
-7.3099278419344884
 30
0.0
 11
5811.6681176314659751
 21
-7.3099278419344884
 31
0.0
  0
LINE
  5
24BC4
  8
0
 10
5813.8281176314658296
 20
-7.4316391966344879
 30
0.0
 11
5811.6681176314659751
 21
-7.4316391966344879
 31
0.0
  0
ARC
  5
24BC5
  8
0
 10
5813.8281176314658296
 20
-7.1880030657344882
 30
0.0
 40
0.02
 50
359.9999999999960778
 51
90.0
  0
ARC
  5
24BC8
  8
0
 10
5813.8281176314658296
 20
-7.3299278419344871
 30
0.0
 40
0.02
 50
359.9999999999988063
 51
90.0
  0
ARC
  5
24BCA
  8
0
 10
5813.8281176314658296
 20
-7.4516391966344884
 30
0.0
 40
0.02
 50
359.9999999999973284
 51
90.0
  0
ARC
  5
24BCB
  8
0
 10
5811.6681176314659751
 20
-7.1880030657344882
 30
0.0
 40
0.02
 50
90.0
 51
180.0
  0
ARC
  5
24BCE
  8
0
 10
5811.6681176314659751
 20
-7.3299278419344871
 30
0.0
 40
0.02
 50
90.0
 51
180.0000000000023874
  0
ARC
  5
24BD0
  8
0
 10
5811.6681176314659751
 20
-7.4516391966344884
 30
0.0
 40
0.02
 50
90.0
 51
180.0000000000038085
  0
LINE
  5
24BD1
  8
0
 10
5813.8281176314658296
 20
-7.5929691032344868
 30
0.0
 11
5811.6681176314659751
 21
-7.5929691032344868
 31
0.0
  0
LINE
  5
24BD4
  8
0
 10
5813.8281176314658296
 20
-7.8211175116344878
 30
0.0
 11
5811.6681176314659751
 21
-7.8211175116344878
 31
0.0
  0
LINE
  5
24BD5
  8
0
 10
5813.8281176314658296
 20
-7.967624796534488
 30
0.0
 11
5811.6681176314659751
 21
-7.967624796534488
 31
0.0
  0
ARC
  5
24BD7
  8
0
 10
5813.8281176314658296
 20
-7.9476247965344866
 30
0.0
 40
0.02
 50
270.0
 51
359.9999999999973284
  0
ARC
  5
24BD9
  8
0
 10
5813.8281176314658296
 20
-7.8011175116344891
 30
0.0
 40
0.02
 50
270.0
 51
359.9999999999973284
  0
ARC
  5
24BDC
  8
0
 10
5813.8281176314658296
 20
-7.5729691032344881
 30
0.0
 40
0.02
 50
270.0
 51
359.9999999999973284
  0
ARC
  5
24BDD
  8
0
 10
5811.6681176314659751
 20
-7.9476247965344866
 30
0.0
 40
0.02
 50
180.0000000000011937
 51
270.0
  0
ARC
  5
24BDF
  8
0
 10
5811.6681176314659751
 20
-7.8011175116344891
 30
0.0
 40
0.02
 50
179.9999999999988063
 51
270.0
  0
ARC
  5
24BE2
  8
0
 10
5811.6681176314659751
 20
-7.5729691032344881
 30
0.0
 40
0.02
 50
180.0
 51
270.0
  0
ENDSEC
  0
EOF
