  0
SECTION
  2
HEADER
  9
$ACADVER
  1
AC1009
  9
$INSBASE
 10
2901.0840814583998508
 20
144.5219823639899062
 30
0.0
  9
$EXTMIN
 10
2894.0995904407991475
 20
138.7668007167708879
 30
-0.0000000000112498
  9
$EXTMAX
 10
2908.076885996872079
 20
145.656468396447508
 30
0.0000000000002956
  9
$LIMMIN
 10
0.0
 20
0.0
  9
$LIMMAX
 10
11.6929133858000007
 20
8.2677165353999982
  9
$ORTHOMODE
 70
     0
  9
$REGENMODE
 70
     1
  9
$FILLMODE
 70
     1
  9
$QTEXTMODE
 70
     0
  9
$MIRRTEXT
 70
     0
  9
$DRAGMODE
 70
     2
  9
$LTSCALE
 40
0.6431102362
  9
$OSMODE
 70
  4095
  9
$ATTMODE
 70
     1
  9
$TEXTSIZE
 40
0.2
  9
$TRACEWID
 40
0.05
  9
$TEXTSTYLE
  7
STANDARD
  9
$CLAYER
  8
0
  9
$CELTYPE
  6
BYLAYER
  9
$CECOLOR
 62
   256
  9
$DIMSCALE
 40
1.0
  9
$DIMASZ
 40
0.1875
  9
$DIMEXO
 40
0.0625
  9
$DIMDLI
 40
0.4443307087
  9
$DIMRND
 40
0.0
  9
$DIMDLE
 40
0.0
  9
$DIMEXE
 40
0.125
  9
$DIMTP
 40
0.01
  9
$DIMTM
 40
0.01
  9
$DIMTXT
 40
2.0
  9
$DIMCEN
 40
0.1052362205
  9
$DIMTSZ
 40
0.0
  9
$DIMTOL
 70
     1
  9
$DIMLIM
 70
     0
  9
$DIMTIH
 70
     1
  9
$DIMTOH
 70
     1
  9
$DIMSE1
 70
     0
  9
$DIMSE2
 70
     0
  9
$DIMTAD
 70
     0
  9
$DIMZIN
 70
     0
  9
$DIMBLK
  1

  9
$DIMASO
 70
     1
  9
$DIMSHO
 70
     1
  9
$DIMPOST
  1
\X
  9
$DIMAPOST
  1

  9
$DIMALT
 70
     1
  9
$DIMALTD
 70
     2
  9
$DIMALTF
 40
25.3999999999999986
  9
$DIMLFAC
 40
1.0
  9
$DIMTOFL
 70
     0
  9
$DIMTVP
 40
0.0
  9
$DIMTIX
 70
     0
  9
$DIMSOXD
 70
     0
  9
$DIMSAH
 70
     0
  9
$DIMBLK1
  1

  9
$DIMBLK2
  1

  9
$DIMSTYLE
  2
STANDARD
  9
$DIMCLRD
 70
     0
  9
$DIMCLRE
 70
     0
  9
$DIMCLRT
 70
     0
  9
$DIMTFAC
 40
1.0
  9
$DIMGAP
 40
0.09
  9
$LUNITS
 70
     2
  9
$LUPREC
 70
     4
  9
$SKETCHINC
 40
0.1
  9
$FILLETRAD
 40
0.03
  9
$AUNITS
 70
     0
  9
$AUPREC
 70
     0
  9
$MENU
  1
.
  9
$ELEVATION
 40
0.0
  9
$PELEVATION
 40
0.0
  9
$THICKNESS
 40
0.0
  9
$LIMCHECK
 70
     0
  9
$BLIPMODE
 70
     0
  9
$CHAMFERA
 40
0.0
  9
$CHAMFERB
 40
0.0
  9
$SKPOLY
 70
     0
  9
$TDCREATE
 40
2458060.468368056230247
  9
$TDUPDATE
 40
2460105.5128587959334254
  9
$TDINDWG
 40
0.6894515046
  9
$TDUSRTIMER
 40
0.6894515046
  9
$USRTIMER
 70
     1
  9
$ANGBASE
 50
0.0
  9
$ANGDIR
 70
     0
  9
$PDMODE
 70
     0
  9
$PDSIZE
 40
0.3125
  9
$PLINEWID
 40
0.0
  9
$COORDS
 70
     1
  9
$SPLFRAME
 70
     0
  9
$SPLINETYPE
 70
     6
  9
$SPLINESEGS
 70
     8
  9
$ATTDIA
 70
     1
  9
$ATTREQ
 70
     1
  9
$HANDLING
 70
     1
  9
$HANDSEED
  5
393A6
  9
$SURFTAB1
 70
     6
  9
$SURFTAB2
 70
     6
  9
$SURFTYPE
 70
     6
  9
$SURFU
 70
     6
  9
$SURFV
 70
     6
  9
$UCSNAME
  2

  9
$UCSORG
 10
0.0
 20
0.0
 30
0.0
  9
$UCSXDIR
 10
1.0
 20
0.0
 30
0.0
  9
$UCSYDIR
 10
0.0
 20
1.0
 30
0.0
  9
$PUCSNAME
  2

  9
$PUCSORG
 10
0.0
 20
0.0
 30
0.0
  9
$PUCSXDIR
 10
1.0
 20
0.0
 30
0.0
  9
$PUCSYDIR
 10
0.0
 20
1.0
 30
0.0
  9
$USERI1
 70
     0
  9
$USERI2
 70
     0
  9
$USERI3
 70
     0
  9
$USERI4
 70
     0
  9
$USERI5
 70
     0
  9
$USERR1
 40
0.0
  9
$USERR2
 40
0.0
  9
$USERR3
 40
0.0
  9
$USERR4
 40
0.0
  9
$USERR5
 40
0.0
  9
$WORLDVIEW
 70
     1
  9
$SHADEDGE
 70
     3
  9
$SHADEDIF
 70
    70
  9
$TILEMODE
 70
     1
  9
$MAXACTVP
 70
    64
  9
$PLIMCHECK
 70
     0
  9
$PEXTMIN
 10
1.0000000000000000E+20
 20
1.0000000000000000E+20
 30
1.0000000000000000E+20
  9
$PEXTMAX
 10
-1.0000000000000000E+20
 20
-1.0000000000000000E+20
 30
-1.0000000000000000E+20
  9
$PLIMMIN
 10
0.0
 20
0.0
  9
$PLIMMAX
 10
12.0
 20
9.0
  9
$UNITMODE
 70
     0
  9
$VISRETAIN
 70
     1
  9
$PLINEGEN
 70
     0
  9
$PSLTSCALE
 70
     1
  0
ENDSEC
  0
SECTION
  2
TABLES
  0
TABLE
  2
VPORT
 70
     1
  0
VPORT
  2
*ACTIVE
 70
     0
 10
0.0
 20
0.0
 11
1.0
 21
1.0
 12
-402.6048770155392731
 22
-53.04987701927854
 13
0.0
 23
0.0
 14
1.0
 24
1.0
 15
0.0
 25
0.0
 16
0.0
 26
0.0
 36
96.5995694866707311
 17
3303.693115234375
 27
195.2615115758877096
 37
0.0
 40
6.924789180167692
 41
2.0416666666666661
 42
50.0
 43
0.0
 44
0.0
 50
0.0
 51
0.0
 71
     0
 72
   100
 73
     1
 74
     1
 75
     0
 76
     0
 77
     0
 78
     0
  0
ENDTAB
  0
TABLE
  2
LTYPE
 70
     2
  0
LTYPE
  2
CONTINUOUS
 70
     0
  3
Solid line
 72
    65
 73
     0
 40
0.0
  0
LTYPE
  2
PHANTOM2
 70
     0
  3
___ _ _ ___ _ _ ___ _ _ ___ _ _
 72
    65
 73
     6
 40
1.25
 49
0.625
 49
-0.125
 49
0.125
 49
-0.125
 49
0.125
 49
-0.125
  0
ENDTAB
  0
TABLE
  2
LAYER
 70
     2
  0
LAYER
  2
0
 70
     0
 62
   255
  6
CONTINUOUS
  0
LAYER
  2
DEFPOINTS
 70
     0
 62
     7
  6
CONTINUOUS
  0
ENDTAB
  0
TABLE
  2
STYLE
 70
     1
  0
STYLE
  2
STANDARD
 70
     0
 40
0.0
 41
0.8
 50
0.0
 71
     0
 42
0.2
  3
txt
  4

  0
ENDTAB
  0
TABLE
  2
VIEW
 70
     0
  0
ENDTAB
  0
TABLE
  2
UCS
 70
     0
  0
ENDTAB
  0
TABLE
  2
APPID
 70
     9
  0
APPID
  2
ACAD
 70
     0
  0
APPID
  2
ACAD_MLEADERVER
 70
     0
  0
APPID
  2
ACAD_EXEMPT_FROM_CAD_STANDARDS
 70
     0
  0
APPID
  2
ACAD_NAV_VCDISPLAY
 70
     0
  0
APPID
  2
ACAECLAYERSTANDARD
 70
     0
  0
APPID
  2
ACCMTRANSPARENCY
 70
     0
  0
APPID
  2
ACAD_DSTYLE_DIMJAG
 70
     0
  0
APPID
  2
ACAD_DSTYLE_DIMTALN
 70
     0
  0
APPID
  2
ACDBATTR
 70
     0
  0
ENDTAB
  0
TABLE
  2
DIMSTYLE
 70
     1
  0
DIMSTYLE
  2
STANDARD
 70
     0
  3

  4

  5

  6

  7

 40
1.0
 41
0.1875
 42
0.0625
 43
0.38
 44
0.125
 45
0.0
 46
0.0
 47
0.01
 48
0.01
140
0.15625
141
0.09
142
0.0
143
25.3999999999999986
144
1.0
145
0.0
146
1.0
147
0.09
 71
     1
 72
     0
 73
     1
 74
     1
 75
     0
 76
     0
 77
     0
 78
     4
170
     0
171
     2
172
     0
173
     0
174
     0
175
     0
176
     0
177
     0
178
     0
  0
ENDTAB
  0
ENDSEC
  0
SECTION
  2
BLOCKS
  0
BLOCK
  8
0
  2
$MODEL_SPACE
 70
     0
 10
0.0
 20
0.0
 30
0.0
  3
$MODEL_SPACE
  1

  0
ENDBLK
  5
21
  8
0
  0
BLOCK
 67
     1
  8
0
  2
$PAPER_SPACE
 70
     0
 10
0.0
 20
0.0
 30
0.0
  3
$PAPER_SPACE
  1

  0
ENDBLK
  5
1D
 67
     1
  8
0
  0
ENDSEC
  0
SECTION
  2
ENTITIES
  0
ATTDEF
  5
35BFF
  8
DEFPOINTS
 10
2901.0810780322758546
 20
144.5197047870881022
 30
0.0
 40
0.001
  1
P32412-PNK
  3

  2
MODELNUMBER
 70
     0
1001
ACDBATTR
1070
     0
1070
     1
  0
ATTDEF
  5
35C00
  8
DEFPOINTS
 10
2901.0810780322758546
 20
144.5180381204214939
 30
0.0
 40
0.001
  1
ONE
  3

  2
TRADENAME
 70
     0
1001
ACDBATTR
1070
     0
1070
     1
  0
ATTDEF
  5
35C01
  8
DEFPOINTS
 10
2901.0810780322758546
 20
144.5163714537548003
 30
0.0
 40
0.001
  1
BATHROOM SINK FAUCET
  3

  2
PRODUCT
 70
     0
1001
ACDBATTR
1070
     0
1070
     1
  0
ARC
  5
3921D
  8
0
 10
2901.0840808685097727
 20
144.5219822573623958
 30
0.0
 40
0.4400001066276662
 50
0.056396781704569
 51
179.9436032182954079
  0
ARC
  5
3921E
  8
0
 10
2901.0836029693828095
 20
139.2115122093696868
 30
0.0
 40
0.439403741614318
 50
216.7022772537887079
 51
270.0623933626009148
  0
ARC
  5
3921F
  8
0
 10
2901.0831487325831404
 20
139.2115661167322003
 30
0.0
 40
0.4390718872924478
 50
189.0891750438960912
 51
216.7433431406849991
  0
ARC
  5
39220
  8
0
 10
2901.0835609490977731
 20
139.2115727469877982
 30
0.0
 40
0.4394799791764202
 50
180.0087379585613974
 51
189.0815389791229961
  0
LINE
  5
39221
  8
0
 10
2900.6440809750329208
 20
139.2115057235899087
 30
0.0
 11
2900.6440809750329208
 21
144.5224153535897926
 31
0.0
  0
ARC
  5
39222
  8
0
 10
2901.0845599474741903
 20
139.2115122093042885
 30
0.0
 40
0.4394037415310647
 50
269.937608770714121
 51
323.2977227487451728
  0
ARC
  5
39223
  8
0
 10
2901.0850141842179255
 20
139.2115661167322003
 30
0.0
 40
0.4390718872924478
 50
323.2566568593136935
 51
350.9108249561037951
  0
ARC
  5
39224
  8
0
 10
2901.0847890045961321
 20
139.2115504000215083
 30
0.0
 40
0.4392917596632275
 50
350.9174886770106809
 51
359.9941729592565025
  0
LINE
  5
39225
  8
0
 10
2901.5240807619870793
 20
139.2115057235899087
 30
0.0
 11
2901.5240807619870793
 21
144.5224153535897926
 31
0.0
  0
ARC
  5
39226
  8
0
 10
2901.0840814583998508
 20
144.5219823639899062
 30
0.0
 40
1.125
 50
293.0236536600605177
 51
246.9763463399395107
  0
ARC
  5
39227
  8
0
 10
2897.0840814583998508
 20
144.5219823639899062
 30
0.0
 40
1.125
 50
204.5653423370683868
 51
155.5175916753260026
  0
ARC
  5
39228
  8
0
 10
2897.0840814583998508
 20
144.5219823639899062
 30
0.0
 40
0.4019999999999957
 50
270.0
 51
90.0
  0
LINE
  5
39229
  8
0
 10
2894.3258814584000902
 20
144.9881979286899139
 30
0.0
 11
2896.4702814584002226
 21
144.9881979286899139
 31
0.0
  0
LINE
  5
3922A
  8
0
 10
2894.3258814584000902
 20
144.0542841882898131
 30
0.0
 11
2896.4700864692549658
 21
144.0542855559770032
 31
0.0
  0
LINE
  5
3922B
  8
0
 10
2896.4980814584000655
 20
144.9603979286897868
 30
0.0
 11
2896.4980814584000655
 21
144.0820848721417917
 31
0.0
  0
ARC
  5
3922C
  8
0
 10
2896.4702814584002226
 20
144.0820848721417917
 30
0.0
 40
0.0278
 50
269.5981242189822069
 51
0.0
  0
LINE
  5
3922D
  8
0
 10
2894.2980814583997926
 20
144.0820841882899117
 30
0.0
 11
2894.2980814583997926
 21
144.9603979286897868
 31
0.0
  0
ARC
  5
3922E
  8
0
 10
2894.3258814584000902
 20
144.0820841882899117
 30
0.0
 40
0.0278
 50
180.0
 51
270.0
  0
ARC
  5
3922F
  8
0
 10
2894.3258814584000902
 20
144.9603979286897868
 30
0.0
 40
0.0278
 50
90.0
 51
179.9999999999967031
  0
ARC
  5
39230
  8
0
 10
2896.4702814584002226
 20
144.9603979286897868
 30
0.0
 40
0.0278
 50
0.0000000000032569
 51
90.0
  0
LINE
  5
39231
  8
0
 10
2897.0840814583998508
 20
144.9239823639898077
 30
0.0
 11
2896.5120814584001891
 21
144.9239823639898077
 31
0.0
  0
LINE
  5
39232
  8
0
 10
2897.0840814583998508
 20
144.1199823639898909
 30
0.0
 11
2896.5120814584001891
 21
144.1199823639898909
 31
0.0
  0
ARC
  5
39233
  8
0
 10
2896.5120814584001891
 20
144.1339823639897872
 30
0.0
 40
0.014
 50
179.999999999985306
 51
270.0
  0
ARC
  5
39234
  8
0
 10
2896.5120814584001891
 20
144.9099823639899114
 30
0.0
 40
0.014
 50
90.0
 51
180.0
  0
LINE
  5
39235
  8
0
 10
2894.3258814584000902
 20
144.3710384153118014
 30
0.0
 11
2896.4700864692549658
 21
144.3710397829989915
 31
0.0
  0
ARC
  5
39236
  8
0
 10
2896.4702814584002226
 20
144.3988390991638084
 30
0.0
 40
0.0278
 50
269.5981242189822069
 51
0.0
  0
ARC
  5
39237
  8
0
 10
2894.3258814584000902
 20
144.3988384153117863
 30
0.0
 40
0.0278
 50
180.0
 51
270.0
  0
LINE
  5
39238
  8
0
 10
2894.3258814584000902
 20
144.2644805256504128
 30
0.0
 11
2896.4700864692549658
 21
144.2644818933374893
 31
0.0
  0
ARC
  5
39239
  8
0
 10
2896.4702814584002226
 20
144.2922812095023914
 30
0.0
 40
0.0278
 50
269.5981242189822069
 51
0.0
  0
ARC
  5
3923A
  8
0
 10
2894.3258814584000902
 20
144.2922805256503977
 30
0.0
 40
0.0278
 50
180.0
 51
270.0
  0
LINE
  5
3923B
  8
0
 10
2894.3258814584000902
 20
144.6714443855198056
 30
0.0
 11
2896.4700864692549658
 21
144.6714430178327007
 31
0.0
  0
ARC
  5
3923C
  8
0
 10
2896.4702814584002226
 20
144.6436437016679122
 30
0.0
 40
0.0278
 50
0.0
 51
90.4018757810178357
  0
ARC
  5
3923D
  8
0
 10
2894.3258814584000902
 20
144.6436443855199059
 30
0.0
 40
0.0278
 50
90.0
 51
180.0
  0
LINE
  5
3923E
  8
0
 10
2894.3258814584000902
 20
144.7780022751813078
 30
0.0
 11
2896.4700864692549658
 21
144.7780009074940892
 31
0.0
  0
ARC
  5
3923F
  8
0
 10
2896.4702814584002226
 20
144.7502015913293008
 30
0.0
 40
0.0278
 50
0.0
 51
90.4018757810178357
  0
ARC
  5
39240
  8
0
 10
2894.3258814584000902
 20
144.7502022751812945
 30
0.0
 40
0.0278
 50
90.0
 51
180.0
  0
ARC
  5
39241
  8
0
 10
2905.0840814584012151
 20
144.5219823639899062
 30
0.0
 40
1.125
 50
24.4824083246739299
 51
335.4346576629314995
  0
ARC
  5
39242
  8
0
 10
2905.0840814584012151
 20
144.5219823639899062
 30
0.0
 40
0.4019999999999957
 50
90.0
 51
270.0
  0
LINE
  5
39243
  8
0
 10
2907.8422814584000662
 20
144.9881979286899139
 30
0.0
 11
2905.6978814583999338
 21
144.9881979286899139
 31
0.0
  0
LINE
  5
39244
  8
0
 10
2907.8422814584000662
 20
144.0542841882898131
 30
0.0
 11
2905.6980764475461001
 21
144.0542855559770032
 31
0.0
  0
LINE
  5
39245
  8
0
 10
2905.6700814584000909
 20
144.9603979286897868
 30
0.0
 11
2905.6700814584000909
 21
144.0820848721417917
 31
0.0
  0
ARC
  5
39246
  8
0
 10
2905.6978814583999338
 20
144.0820848721417917
 30
0.0
 40
0.0278
 50
180.0
 51
270.4018757810177931
  0
LINE
  5
39247
  8
0
 10
2907.870081458399909
 20
144.0820841882899117
 30
0.0
 11
2907.870081458399909
 21
144.9603979286897868
 31
0.0
  0
ARC
  5
39248
  8
0
 10
2907.8422814584000662
 20
144.0820841882899117
 30
0.0
 40
0.0278
 50
270.0
 51
0.0
  0
ARC
  5
39249
  8
0
 10
2907.8422814584000662
 20
144.9603979286897868
 30
0.0
 40
0.0278
 50
0.0000000000032569
 51
90.0
  0
ARC
  5
3924A
  8
0
 10
2905.6978814583999338
 20
144.9603979286897868
 30
0.0
 40
0.0278
 50
90.0
 51
179.9999999999967031
  0
LINE
  5
3924B
  8
0
 10
2905.0840814584012151
 20
144.9239823639898077
 30
0.0
 11
2905.6560814583999672
 21
144.9239823639898077
 31
0.0
  0
LINE
  5
3924C
  8
0
 10
2905.0840814584012151
 20
144.1199823639898909
 30
0.0
 11
2905.6560814583999672
 21
144.1199823639898909
 31
0.0
  0
ARC
  5
3924D
  8
0
 10
2905.6560814583999672
 20
144.1339823639897872
 30
0.0
 40
0.014
 50
270.0
 51
0.000000000014656
  0
ARC
  5
3924E
  8
0
 10
2905.6560814583999672
 20
144.9099823639899114
 30
0.0
 40
0.014
 50
0.0
 51
90.0
  0
LINE
  5
3924F
  8
0
 10
2907.8422814584000662
 20
144.3710384153118014
 30
0.0
 11
2905.6980764475461001
 21
144.3710397829989915
 31
0.0
  0
ARC
  5
39250
  8
0
 10
2905.6978814583999338
 20
144.3988390991638084
 30
0.0
 40
0.0278
 50
180.0
 51
270.4018757810177931
  0
ARC
  5
39251
  8
0
 10
2907.8422814584000662
 20
144.3988384153117863
 30
0.0
 40
0.0278
 50
270.0
 51
0.0
  0
LINE
  5
39252
  8
0
 10
2907.8422814584000662
 20
144.2644805256504128
 30
0.0
 11
2905.6980764475461001
 21
144.2644818933374893
 31
0.0
  0
ARC
  5
39253
  8
0
 10
2905.6978814583999338
 20
144.2922812095023914
 30
0.0
 40
0.0278
 50
180.0
 51
270.4018757810177931
  0
ARC
  5
39254
  8
0
 10
2907.8422814584000662
 20
144.2922805256503977
 30
0.0
 40
0.0278
 50
270.0
 51
0.0
  0
LINE
  5
39255
  8
0
 10
2907.8422814584000662
 20
144.6714443855198056
 30
0.0
 11
2905.6980764475461001
 21
144.6714430178327007
 31
0.0
  0
ARC
  5
39256
  8
0
 10
2905.6978814583999338
 20
144.6436437016679122
 30
0.0
 40
0.0278
 50
89.5981242189821643
 51
180.0
  0
ARC
  5
39257
  8
0
 10
2907.8422814584000662
 20
144.6436443855199059
 30
0.0
 40
0.0278
 50
0.0
 51
90.0
  0
LINE
  5
39258
  8
0
 10
2907.8422814584000662
 20
144.7780022751813078
 30
0.0
 11
2905.6980764475461001
 21
144.7780009074940892
 31
0.0
  0
ARC
  5
39259
  8
0
 10
2905.6978814583999338
 20
144.7502015913293008
 30
0.0
 40
0.0278
 50
89.5981242189821643
 51
180.0
  0
ARC
  5
3925A
  8
0
 10
2907.8422814584000662
 20
144.7502022751812945
 30
0.0
 40
0.0278
 50
0.0
 51
90.0
  0
ENDSEC
  0
EOF
