  0
SECTION
  2
HEADER
  9
$ACADVER
  1
AC1009
  9
$INSBASE
 10
4409.067880592567235
 20
263.0478492840697982
 30
0.0
  9
$EXTMIN
 10
4405.8683805925666093
 20
259.025578426569723
 30
0.0
  9
$EXTMAX
 10
4409.0807783951895544
 20
267.0701225902698184
 30
0.0
  9
$LIMMIN
 10
0.0
 20
0.0
  9
$LIMMAX
 10
11.6929133858000007
 20
8.2677165353999982
  9
$ORTHOMODE
 70
     0
  9
$REGENMODE
 70
     1
  9
$FILLMODE
 70
     1
  9
$QTEXTMODE
 70
     0
  9
$MIRRTEXT
 70
     0
  9
$DRAGMODE
 70
     2
  9
$LTSCALE
 40
0.6431102362
  9
$OSMODE
 70
  4095
  9
$ATTMODE
 70
     1
  9
$TEXTSIZE
 40
0.2
  9
$TRACEWID
 40
0.05
  9
$TEXTSTYLE
  7
STANDARD
  9
$CLAYER
  8
0
  9
$CELTYPE
  6
BYLAYER
  9
$CECOLOR
 62
   256
  9
$DIMSCALE
 40
1.0
  9
$DIMASZ
 40
0.1875
  9
$DIMEXO
 40
0.0625
  9
$DIMDLI
 40
0.4443307087
  9
$DIMRND
 40
0.0
  9
$DIMDLE
 40
0.0
  9
$DIMEXE
 40
0.125
  9
$DIMTP
 40
0.01
  9
$DIMTM
 40
0.01
  9
$DIMTXT
 40
2.0
  9
$DIMCEN
 40
0.1052362205
  9
$DIMTSZ
 40
0.0
  9
$DIMTOL
 70
     1
  9
$DIMLIM
 70
     0
  9
$DIMTIH
 70
     1
  9
$DIMTOH
 70
     1
  9
$DIMSE1
 70
     0
  9
$DIMSE2
 70
     0
  9
$DIMTAD
 70
     0
  9
$DIMZIN
 70
     0
  9
$DIMBLK
  1

  9
$DIMASO
 70
     1
  9
$DIMSHO
 70
     1
  9
$DIMPOST
  1
\X
  9
$DIMAPOST
  1

  9
$DIMALT
 70
     1
  9
$DIMALTD
 70
     2
  9
$DIMALTF
 40
25.3999999999999986
  9
$DIMLFAC
 40
1.0
  9
$DIMTOFL
 70
     0
  9
$DIMTVP
 40
0.0
  9
$DIMTIX
 70
     0
  9
$DIMSOXD
 70
     0
  9
$DIMSAH
 70
     0
  9
$DIMBLK1
  1

  9
$DIMBLK2
  1

  9
$DIMSTYLE
  2
STANDARD
  9
$DIMCLRD
 70
     0
  9
$DIMCLRE
 70
     0
  9
$DIMCLRT
 70
     0
  9
$DIMTFAC
 40
1.0
  9
$DIMGAP
 40
0.09
  9
$LUNITS
 70
     2
  9
$LUPREC
 70
     4
  9
$SKETCHINC
 40
0.1
  9
$FILLETRAD
 40
0.0
  9
$AUNITS
 70
     0
  9
$AUPREC
 70
     0
  9
$MENU
  1
.
  9
$ELEVATION
 40
0.0
  9
$PELEVATION
 40
0.0
  9
$THICKNESS
 40
0.0
  9
$LIMCHECK
 70
     0
  9
$BLIPMODE
 70
     0
  9
$CHAMFERA
 40
0.0
  9
$CHAMFERB
 40
0.0
  9
$SKPOLY
 70
     0
  9
$TDCREATE
 40
2458060.468368056230247
  9
$TDUPDATE
 40
2459979.4725115741603076
  9
$TDINDWG
 40
0.6238496528
  9
$TDUSRTIMER
 40
0.6238496528
  9
$USRTIMER
 70
     1
  9
$ANGBASE
 50
0.0
  9
$ANGDIR
 70
     0
  9
$PDMODE
 70
     0
  9
$PDSIZE
 40
0.3125
  9
$PLINEWID
 40
0.0
  9
$COORDS
 70
     1
  9
$SPLFRAME
 70
     0
  9
$SPLINETYPE
 70
     6
  9
$SPLINESEGS
 70
     8
  9
$ATTDIA
 70
     1
  9
$ATTREQ
 70
     1
  9
$HANDLING
 70
     1
  9
$HANDSEED
  5
B5BD
  9
$SURFTAB1
 70
     6
  9
$SURFTAB2
 70
     6
  9
$SURFTYPE
 70
     6
  9
$SURFU
 70
     6
  9
$SURFV
 70
     6
  9
$UCSNAME
  2

  9
$UCSORG
 10
0.0
 20
0.0
 30
0.0
  9
$UCSXDIR
 10
1.0
 20
0.0
 30
0.0
  9
$UCSYDIR
 10
0.0
 20
1.0
 30
0.0
  9
$PUCSNAME
  2

  9
$PUCSORG
 10
0.0
 20
0.0
 30
0.0
  9
$PUCSXDIR
 10
1.0
 20
0.0
 30
0.0
  9
$PUCSYDIR
 10
0.0
 20
1.0
 30
0.0
  9
$USERI1
 70
     0
  9
$USERI2
 70
     0
  9
$USERI3
 70
     0
  9
$USERI4
 70
     0
  9
$USERI5
 70
     0
  9
$USERR1
 40
0.0
  9
$USERR2
 40
0.0
  9
$USERR3
 40
0.0
  9
$USERR4
 40
0.0
  9
$USERR5
 40
0.0
  9
$WORLDVIEW
 70
     1
  9
$SHADEDGE
 70
     3
  9
$SHADEDIF
 70
    70
  9
$TILEMODE
 70
     1
  9
$MAXACTVP
 70
    64
  9
$PLIMCHECK
 70
     0
  9
$PEXTMIN
 10
1.0000000000000000E+20
 20
1.0000000000000000E+20
 30
1.0000000000000000E+20
  9
$PEXTMAX
 10
-1.0000000000000000E+20
 20
-1.0000000000000000E+20
 30
-1.0000000000000000E+20
  9
$PLIMMIN
 10
0.0
 20
0.0
  9
$PLIMMAX
 10
12.0
 20
9.0
  9
$UNITMODE
 70
     0
  9
$VISRETAIN
 70
     1
  9
$PLINEGEN
 70
     0
  9
$PSLTSCALE
 70
     1
  0
ENDSEC
  0
SECTION
  2
TABLES
  0
TABLE
  2
VPORT
 70
     1
  0
VPORT
  2
*ACTIVE
 70
     0
 10
0.0
 20
0.0
 11
1.0
 21
1.0
 12
123.405731837628494
 22
37.799490828243961
 13
0.0
 23
0.0
 14
1.0
 24
1.0
 15
0.0
 25
0.0
 16
0.0
 26
0.0
 36
27.5337298366232197
 17
4284.0688476562490905
 27
225.2483596801758097
 37
0.0
 40
8.0864792331893511
 41
1.811304347826086
 42
50.0
 43
0.0
 44
0.0
 50
0.0
 51
0.0
 71
     0
 72
   100
 73
     1
 74
     1
 75
     0
 76
     0
 77
     0
 78
     0
  0
ENDTAB
  0
TABLE
  2
LTYPE
 70
     2
  0
LTYPE
  2
CONTINUOUS
 70
     0
  3
Solid line
 72
    65
 73
     0
 40
0.0
  0
LTYPE
  2
PHANTOM2
 70
     0
  3
___ _ _ ___ _ _ ___ _ _ ___ _ _
 72
    65
 73
     6
 40
1.25
 49
0.625
 49
-0.125
 49
0.125
 49
-0.125
 49
0.125
 49
-0.125
  0
ENDTAB
  0
TABLE
  2
LAYER
 70
     2
  0
LAYER
  2
0
 70
     0
 62
   255
  6
CONTINUOUS
  0
LAYER
  2
DEFPOINTS
 70
     0
 62
     7
  6
CONTINUOUS
  0
ENDTAB
  0
TABLE
  2
STYLE
 70
     1
  0
STYLE
  2
STANDARD
 70
     0
 40
0.0
 41
0.8
 50
0.0
 71
     0
 42
0.2
  3
txt
  4

  0
ENDTAB
  0
TABLE
  2
VIEW
 70
     0
  0
ENDTAB
  0
TABLE
  2
UCS
 70
     0
  0
ENDTAB
  0
TABLE
  2
APPID
 70
     9
  0
APPID
  2
ACAD
 70
     0
  0
APPID
  2
ACAD_MLEADERVER
 70
     0
  0
APPID
  2
ACAD_EXEMPT_FROM_CAD_STANDARDS
 70
     0
  0
APPID
  2
ACAD_NAV_VCDISPLAY
 70
     0
  0
APPID
  2
ACAECLAYERSTANDARD
 70
     0
  0
APPID
  2
ACCMTRANSPARENCY
 70
     0
  0
APPID
  2
ACAD_DSTYLE_DIMJAG
 70
     0
  0
APPID
  2
ACAD_DSTYLE_DIMTALN
 70
     0
  0
APPID
  2
ACDBATTR
 70
     0
  0
ENDTAB
  0
TABLE
  2
DIMSTYLE
 70
     1
  0
DIMSTYLE
  2
STANDARD
 70
     0
  3

  4

  5

  6

  7

 40
1.0
 41
0.1875
 42
0.0625
 43
0.38
 44
0.125
 45
0.0
 46
0.0
 47
0.01
 48
0.01
140
0.15625
141
0.09
142
0.0
143
25.3999999999999986
144
1.0
145
0.0
146
1.0
147
0.09
 71
     1
 72
     0
 73
     1
 74
     1
 75
     0
 76
     0
 77
     0
 78
     4
170
     0
171
     2
172
     0
173
     0
174
     0
175
     0
176
     0
177
     0
178
     0
  0
ENDTAB
  0
ENDSEC
  0
SECTION
  2
BLOCKS
  0
BLOCK
  8
0
  2
$MODEL_SPACE
 70
     0
 10
0.0
 20
0.0
 30
0.0
  3
$MODEL_SPACE
  1

  0
ENDBLK
  5
21
  8
0
  0
BLOCK
 67
     1
  8
0
  2
$PAPER_SPACE
 70
     0
 10
0.0
 20
0.0
 30
0.0
  3
$PAPER_SPACE
  1

  0
ENDBLK
  5
1D
 67
     1
  8
0
  0
ENDSEC
  0
SECTION
  2
ENTITIES
  0
ATTDEF
  5
3930
  8
DEFPOINTS
 10
4409.0701117285207147
 20
263.0487528325231779
 30
0.0
 40
0.001
  1
P32361-AD
  3

  2
MODELNUMBER
 70
     0
1001
ACDBATTR
1070
     0
1070
     1
  0
ATTDEF
  5
3931
  8
DEFPOINTS
 10
4409.0701117285207147
 20
263.0470861658565127
 30
0.0
 40
0.001
  1
ONE
  3

  2
TRADENAME
 70
     0
1001
ACDBATTR
1070
     0
1070
     1
  0
ATTDEF
  5
3932
  8
DEFPOINTS
 10
4409.0701117285207147
 20
263.0454194991897907
 30
0.0
 40
0.001
  1
VALVE TRIM
  3

  2
PRODUCT
 70
     0
1001
ACDBATTR
1070
     0
1070
     1
  0
LINE
  5
B441
  8
0
 10
4409.067880592567235
 20
267.0701225902698184
 30
0.0
 11
4408.7376469969385653
 21
267.0528157808682863
 31
0.0
  0
LINE
  5
B442
  8
0
 10
4409.067880592567235
 20
267.0701225902698184
 30
0.0
 11
4409.067880592567235
 21
259.025578426569723
 31
0.0
  0
ARC
  5
B443
  8
0
 10
4408.6328805925659253
 20
266.6415496963645069
 30
0.0
 40
0.01
 50
290.8274969321943786
 51
359.9999999995017106
  0
ARC
  5
B444
  8
0
 10
4408.6648805925660781
 20
266.5574307329852104
 30
0.0
 40
0.08
 50
110.8274969323057064
 51
179.9999999999544116
  0
ARC
  5
B445
  8
0
 10
4408.6138805925656925
 20
265.9717905823699766
 30
0.0
 40
0.08
 50
115.6792886103811071
 51
180.0000000000813998
  0
ARC
  5
B446
  8
0
 10
4408.5748805925659326
 20
266.0529016173779269
 30
0.0
 40
0.01
 50
295.6792886202676982
 51
359.9999999995831104
  0
LINE
  5
B447
  8
0
 10
4408.3758805925681372
 20
265.0668409925489186
 30
0.0
 11
4408.3758805925681372
 21
265.1409184082398269
 31
0.0
  0
LINE
  5
B448
  8
0
 10
4408.3178805925681445
 20
264.9978772339504189
 30
0.0
 11
4408.3178805925681445
 21
261.0978237828891224
 31
0.0
  0
ARC
  5
B449
  8
0
 10
4408.3778805925658162
 20
264.9978772339504189
 30
0.0
 40
0.06
 50
99.8708896060477684
 51
180.0000000000293028
  0
ARC
  5
B44A
  8
0
 10
4408.3658805925670094
 20
265.0668409925489755
 30
0.0
 40
0.01
 50
279.8708896077397981
 51
359.9999999993062829
  0
ARC
  5
B44B
  8
0
 10
4410.0408270477200858
 20
265.1409184082398269
 30
0.0
 40
1.6649464551677819
 50
154.9134844156839108
 51
180.0
  0
ARC
  5
B44C
  8
0
 10
4408.523880592565547
 20
265.8510726730846727
 30
0.0
 40
0.01
 50
334.913486862174409
 51
359.9999999998079261
  0
ARC
  5
B44D
  8
0
 10
4408.7428805925674169
 20
266.9529528273930055
 30
0.0
 40
0.1
 50
93.0000000017276278
 51
180.0000000000032117
  0
LINE
  5
B44E
  8
0
 10
4407.817880592567235
 20
263.8248492840697281
 30
0.0
 11
4407.817880592567235
 21
262.2708517327698132
 31
0.0
  0
LINE
  5
B44F
  8
0
 10
4407.8278805925674533
 20
263.834849284069719
 30
0.0
 11
4408.3178805925681445
 21
263.834849284069719
 31
0.0
  0
ARC
  5
B450
  8
0
 10
4407.8278805925674533
 20
263.8248492840697281
 30
0.0
 40
0.01
 50
90.0
 51
179.9999999999934914
  0
LINE
  5
B451
  8
0
 10
4407.3278805925674533
 20
263.4498492840697281
 30
0.0
 11
4407.817880592567235
 21
263.4498492840697281
 31
0.0
  0
LINE
  5
B452
  8
0
 10
4407.317880592567235
 20
263.4398492840697941
 30
0.0
 11
4407.317880592567235
 21
262.6558517327698041
 31
0.0
  0
ARC
  5
B453
  8
0
 10
4407.3278805925674533
 20
263.4398492840697941
 30
0.0
 40
0.01
 50
90.0
 51
179.9999999999901945
  0
LINE
  5
B454
  8
0
 10
4407.3028805925659981
 20
263.4498492840697281
 30
0.0
 11
4406.856380592566893
 21
263.4498492840697281
 31
0.0
  0
ARC
  5
B455
  8
0
 10
4407.3028805925659981
 20
263.4348492840696849
 30
0.0
 40
0.015
 50
0.0000000000097707
 51
90.0
  0
LINE
  5
B456
  8
0
 10
4406.6753805925673078
 20
262.4518492840696808
 30
0.0
 11
4406.6753805925673078
 21
260.2818492840697218
 31
0.0
  0
LINE
  5
B457
  8
0
 10
4405.8683805925666093
 20
262.4518492840696808
 30
0.0
 11
4405.8683805925666093
 21
260.2818492840697218
 31
0.0
  0
LINE
  5
B458
  8
0
 10
4405.8783805925668275
 20
262.4618492840696717
 30
0.0
 11
4406.6653805925670895
 21
262.4618492840696717
 31
0.0
  0
ARC
  5
B459
  8
0
 10
4405.8783805925668275
 20
262.4518492840696808
 30
0.0
 40
0.01
 50
90.0
 51
180.0
  0
ARC
  5
B45A
  8
0
 10
4406.6653805925670895
 20
262.4518492840696808
 30
0.0
 40
0.01
 50
0.0000000000065138
 51
90.0
  0
ARC
  5
B45B
  8
0
 10
4406.856380592566893
 20
262.4618492840696717
 30
0.0
 40
0.9879999999999999
 50
90.0
 51
179.1166796108090011
  0
ARC
  5
B45C
  8
0
 10
4405.8834962212258688
 20
262.4768492840697149
 30
0.0
 40
0.015
 50
179.1166796108090011
 51
270.0
  0
LINE
  5
B45D
  8
0
 10
4407.3278805925674533
 20
262.6458517327696995
 30
0.0
 11
4407.817880592567235
 21
262.6458517327696995
 31
0.0
  0
ARC
  5
B45E
  8
0
 10
4407.3278805925674533
 20
262.6558517327698041
 30
0.0
 40
0.01
 50
180.0000000000098055
 51
270.0
  0
LINE
  5
B45F
  8
0
 10
4407.3028805925659981
 20
262.6458517327696995
 30
0.0
 11
4406.8593805925665947
 21
262.6458517327696995
 31
0.0
  0
ARC
  5
B460
  8
0
 10
4407.3028805925659981
 20
262.6608517327697996
 30
0.0
 40
0.015
 50
270.0
 51
359.9999999999902229
  0
ARC
  5
B461
  8
0
 10
4406.8593805925665947
 20
262.4618517327696736
 30
0.0
 40
0.184
 50
90.0
 51
175.6778295471563069
  0
ARC
  5
B462
  8
0
 10
4406.6609465394021754
 20
262.4768492840697149
 30
0.0
 40
0.015
 50
270.0
 51
355.6778295471564206
  0
LINE
  5
B463
  8
0
 10
4405.8883805925670458
 20
260.2618492840696831
 30
0.0
 11
4406.6553805925668712
 21
260.2618492840696831
 31
0.0
  0
ARC
  5
B464
  8
0
 10
4405.8883805925670458
 20
260.2818492840697218
 30
0.0
 40
0.02
 50
180.0000000000032117
 51
270.0
  0
ARC
  5
B465
  8
0
 10
4406.6553805925668712
 20
260.2818492840697218
 30
0.0
 40
0.02
 50
270.0
 51
359.9999999999935199
  0
LINE
  5
B466
  8
0
 10
4409.067880592567235
 20
259.025578426569723
 30
0.0
 11
4408.7376469969385653
 21
259.0428852359711982
 31
0.0
  0
LINE
  5
B467
  8
0
 10
4408.6428805925670531
 20
266.9529528273930055
 30
0.0
 11
4408.6428805925670531
 21
259.142748189446479
 31
0.0
  0
LINE
  5
B468
  8
0
 10
4408.5848805925670604
 20
259.5382702838542741
 30
0.0
 11
4408.5848805925670604
 21
266.5574307329852104
 31
0.0
  0
ARC
  5
B469
  8
0
 10
4408.6328805925659253
 20
259.4541513204749776
 30
0.0
 40
0.01
 50
0.0000000004983039
 51
69.1725030678055646
  0
ARC
  5
B46A
  8
0
 10
4408.6648805925660781
 20
259.5382702838542741
 30
0.0
 40
0.08
 50
180.0000000000455884
 51
249.1725030676942083
  0
LINE
  5
B46B
  8
0
 10
4408.5338805925666747
 20
260.1239104344696216
 30
0.0
 11
4408.5338805925666747
 21
265.9717905823699766
 31
0.0
  0
ARC
  5
B46C
  8
0
 10
4408.6138805925656925
 20
260.1239104344695079
 30
0.0
 40
0.08
 50
179.9999999999186002
 51
244.3207113896189071
  0
ARC
  5
B46D
  8
0
 10
4408.5748805925659326
 20
260.0427993994616145
 30
0.0
 40
0.01
 50
0.0000000004168817
 51
64.3207113797322734
  0
LINE
  5
B46E
  8
0
 10
4408.3758805925681372
 20
265.1409184082398269
 30
0.0
 11
4408.3758805925681372
 21
260.9547826085997144
 31
0.0
  0
ARC
  5
B46F
  8
0
 10
4408.3778805925658162
 20
261.0978237828891224
 30
0.0
 40
0.06
 50
179.9999999999706972
 51
260.1291103939522031
  0
ARC
  5
B470
  8
0
 10
4408.3658805925670094
 20
261.028860024290509
 30
0.0
 40
0.01
 50
0.0000000006937171
 51
80.1291103922602446
  0
ARC
  5
B471
  8
0
 10
4410.0408270477200858
 20
260.9547826085997144
 30
0.0
 40
1.6649464551677819
 50
180.0
 51
205.0865155843160039
  0
ARC
  5
B472
  8
0
 10
4408.523880592565547
 20
260.2446283437548118
 30
0.0
 40
0.01
 50
0.0000000001921564
 51
25.0865131378256692
  0
ARC
  5
B473
  8
0
 10
4408.7428805925674169
 20
259.142748189446479
 30
0.0
 40
0.1
 50
179.9999999999967031
 51
266.9999999982723011
  0
LINE
  5
B474
  8
0
 10
4407.8278805925674533
 20
262.2608517327698223
 30
0.0
 11
4408.3178805925681445
 21
262.2608517327698223
 31
0.0
  0
ARC
  5
B475
  8
0
 10
4407.8278805925674533
 20
262.2708517327698132
 30
0.0
 40
0.01
 50
180.0000000000065086
 51
270.0
  0
ENDSEC
  0
EOF
