  0
SECTION
  2
HEADER
  9
$ACADVER
  1
AC1009
  9
$INSBASE
 10
3441.7223729901520528
 20
99.4175424715851364
 30
0.0
  9
$EXTMIN
 10
3434.9324090624418204
 20
99.4124324464996647
 30
-0.0015258207003583
  9
$EXTMAX
 10
3448.6136211431448828
 20
110.2269064837917938
 30
0.0000000349246037
  9
$LIMMIN
 10
0.0
 20
0.0
  9
$LIMMAX
 10
11.6929133858000007
 20
8.2677165353999982
  9
$ORTHOMODE
 70
     0
  9
$REGENMODE
 70
     1
  9
$FILLMODE
 70
     1
  9
$QTEXTMODE
 70
     0
  9
$MIRRTEXT
 70
     0
  9
$DRAGMODE
 70
     2
  9
$LTSCALE
 40
0.6431102362
  9
$OSMODE
 70
  4095
  9
$ATTMODE
 70
     1
  9
$TEXTSIZE
 40
0.2
  9
$TRACEWID
 40
0.05
  9
$TEXTSTYLE
  7
STANDARD
  9
$CLAYER
  8
0
  9
$CELTYPE
  6
BYLAYER
  9
$CECOLOR
 62
   256
  9
$DIMSCALE
 40
1.0
  9
$DIMASZ
 40
0.1875
  9
$DIMEXO
 40
0.0625
  9
$DIMDLI
 40
0.4443307087
  9
$DIMRND
 40
0.0
  9
$DIMDLE
 40
0.0
  9
$DIMEXE
 40
0.125
  9
$DIMTP
 40
0.01
  9
$DIMTM
 40
0.01
  9
$DIMTXT
 40
2.0
  9
$DIMCEN
 40
0.1052362205
  9
$DIMTSZ
 40
0.0
  9
$DIMTOL
 70
     1
  9
$DIMLIM
 70
     0
  9
$DIMTIH
 70
     1
  9
$DIMTOH
 70
     1
  9
$DIMSE1
 70
     0
  9
$DIMSE2
 70
     0
  9
$DIMTAD
 70
     0
  9
$DIMZIN
 70
     0
  9
$DIMBLK
  1

  9
$DIMASO
 70
     1
  9
$DIMSHO
 70
     1
  9
$DIMPOST
  1
\X
  9
$DIMAPOST
  1

  9
$DIMALT
 70
     1
  9
$DIMALTD
 70
     2
  9
$DIMALTF
 40
25.3999999999999986
  9
$DIMLFAC
 40
1.0
  9
$DIMTOFL
 70
     0
  9
$DIMTVP
 40
0.0
  9
$DIMTIX
 70
     0
  9
$DIMSOXD
 70
     0
  9
$DIMSAH
 70
     0
  9
$DIMBLK1
  1

  9
$DIMBLK2
  1

  9
$DIMSTYLE
  2
STANDARD
  9
$DIMCLRD
 70
     0
  9
$DIMCLRE
 70
     0
  9
$DIMCLRT
 70
     0
  9
$DIMTFAC
 40
1.0
  9
$DIMGAP
 40
0.09
  9
$LUNITS
 70
     2
  9
$LUPREC
 70
     4
  9
$SKETCHINC
 40
0.1
  9
$FILLETRAD
 40
0.0
  9
$AUNITS
 70
     0
  9
$AUPREC
 70
     0
  9
$MENU
  1
.
  9
$ELEVATION
 40
0.0
  9
$PELEVATION
 40
0.0
  9
$THICKNESS
 40
0.0
  9
$LIMCHECK
 70
     0
  9
$BLIPMODE
 70
     0
  9
$CHAMFERA
 40
0.0
  9
$CHAMFERB
 40
0.0
  9
$SKPOLY
 70
     0
  9
$TDCREATE
 40
2458060.468368056230247
  9
$TDUPDATE
 40
2459996.4321874999441206
  9
$TDINDWG
 40
0.3339538194
  9
$TDUSRTIMER
 40
0.3339538194
  9
$USRTIMER
 70
     1
  9
$ANGBASE
 50
0.0
  9
$ANGDIR
 70
     0
  9
$PDMODE
 70
     0
  9
$PDSIZE
 40
0.3125
  9
$PLINEWID
 40
0.0
  9
$COORDS
 70
     1
  9
$SPLFRAME
 70
     0
  9
$SPLINETYPE
 70
     6
  9
$SPLINESEGS
 70
     8
  9
$ATTDIA
 70
     1
  9
$ATTREQ
 70
     1
  9
$HANDLING
 70
     1
  9
$HANDSEED
  5
9CDB
  9
$SURFTAB1
 70
     6
  9
$SURFTAB2
 70
     6
  9
$SURFTYPE
 70
     6
  9
$SURFU
 70
     6
  9
$SURFV
 70
     6
  9
$UCSNAME
  2

  9
$UCSORG
 10
0.0
 20
0.0
 30
0.0
  9
$UCSXDIR
 10
1.0
 20
0.0
 30
0.0
  9
$UCSYDIR
 10
0.0
 20
1.0
 30
0.0
  9
$PUCSNAME
  2

  9
$PUCSORG
 10
0.0
 20
0.0
 30
0.0
  9
$PUCSXDIR
 10
1.0
 20
0.0
 30
0.0
  9
$PUCSYDIR
 10
0.0
 20
1.0
 30
0.0
  9
$USERI1
 70
     0
  9
$USERI2
 70
     0
  9
$USERI3
 70
     0
  9
$USERI4
 70
     0
  9
$USERI5
 70
     0
  9
$USERR1
 40
0.0
  9
$USERR2
 40
0.0
  9
$USERR3
 40
0.0
  9
$USERR4
 40
0.0
  9
$USERR5
 40
0.0
  9
$WORLDVIEW
 70
     1
  9
$SHADEDGE
 70
     3
  9
$SHADEDIF
 70
    70
  9
$TILEMODE
 70
     1
  9
$MAXACTVP
 70
    64
  9
$PLIMCHECK
 70
     0
  9
$PEXTMIN
 10
1.0000000000000000E+20
 20
1.0000000000000000E+20
 30
1.0000000000000000E+20
  9
$PEXTMAX
 10
-1.0000000000000000E+20
 20
-1.0000000000000000E+20
 30
-1.0000000000000000E+20
  9
$PLIMMIN
 10
0.0
 20
0.0
  9
$PLIMMAX
 10
12.0
 20
9.0
  9
$UNITMODE
 70
     0
  9
$VISRETAIN
 70
     1
  9
$PLINEGEN
 70
     0
  9
$PSLTSCALE
 70
     1
  0
ENDSEC
  0
SECTION
  2
TABLES
  0
TABLE
  2
VPORT
 70
     1
  0
VPORT
  2
*ACTIVE
 70
     0
 10
0.0
 20
0.0
 11
1.0
 21
1.0
 12
522.0176440090434653
 22
17.5450188914152783
 13
0.0
 23
0.0
 14
1.0
 24
1.0
 15
0.0
 25
0.0
 16
0.0
 26
0.0
 36
215.6888699471975031
 17
2919.75537109375
 27
87.2746505737304688
 37
0.0
 40
10.9081058471388808
 41
2.7341040462427739
 42
50.0
 43
0.0
 44
0.0
 50
0.0
 51
0.0
 71
     0
 72
   100
 73
     1
 74
     1
 75
     0
 76
     0
 77
     0
 78
     0
  0
ENDTAB
  0
TABLE
  2
LTYPE
 70
     2
  0
LTYPE
  2
CONTINUOUS
 70
     0
  3
Solid line
 72
    65
 73
     0
 40
0.0
  0
LTYPE
  2
PHANTOM2
 70
     0
  3
___ _ _ ___ _ _ ___ _ _ ___ _ _
 72
    65
 73
     6
 40
1.25
 49
0.625
 49
-0.125
 49
0.125
 49
-0.125
 49
0.125
 49
-0.125
  0
ENDTAB
  0
TABLE
  2
LAYER
 70
     2
  0
LAYER
  2
0
 70
     0
 62
   255
  6
CONTINUOUS
  0
LAYER
  2
DEFPOINTS
 70
     0
 62
     7
  6
CONTINUOUS
  0
ENDTAB
  0
TABLE
  2
STYLE
 70
     1
  0
STYLE
  2
STANDARD
 70
     0
 40
0.0
 41
0.8
 50
0.0
 71
     0
 42
0.2
  3
txt
  4

  0
ENDTAB
  0
TABLE
  2
VIEW
 70
     0
  0
ENDTAB
  0
TABLE
  2
UCS
 70
     0
  0
ENDTAB
  0
TABLE
  2
APPID
 70
     9
  0
APPID
  2
ACAD
 70
     0
  0
APPID
  2
ACAD_MLEADERVER
 70
     0
  0
APPID
  2
ACAD_EXEMPT_FROM_CAD_STANDARDS
 70
     0
  0
APPID
  2
ACAD_NAV_VCDISPLAY
 70
     0
  0
APPID
  2
ACAECLAYERSTANDARD
 70
     0
  0
APPID
  2
ACCMTRANSPARENCY
 70
     0
  0
APPID
  2
ACAD_DSTYLE_DIMJAG
 70
     0
  0
APPID
  2
ACAD_DSTYLE_DIMTALN
 70
     0
  0
APPID
  2
ACDBATTR
 70
     0
  0
ENDTAB
  0
TABLE
  2
DIMSTYLE
 70
     1
  0
DIMSTYLE
  2
STANDARD
 70
     0
  3

  4

  5

  6

  7

 40
1.0
 41
0.1875
 42
0.0625
 43
0.38
 44
0.125
 45
0.0
 46
0.0
 47
0.01
 48
0.01
140
0.15625
141
0.09
142
0.0
143
25.3999999999999986
144
1.0
145
0.0
146
1.0
147
0.09
 71
     1
 72
     0
 73
     1
 74
     1
 75
     0
 76
     0
 77
     0
 78
     4
170
     0
171
     2
172
     0
173
     0
174
     0
175
     0
176
     0
177
     0
178
     0
  0
ENDTAB
  0
ENDSEC
  0
SECTION
  2
BLOCKS
  0
BLOCK
  8
0
  2
$MODEL_SPACE
 70
     0
 10
0.0
 20
0.0
 30
0.0
  3
$MODEL_SPACE
  1

  0
ENDBLK
  5
21
  8
0
  0
BLOCK
 67
     1
  8
0
  2
$PAPER_SPACE
 70
     0
 10
0.0
 20
0.0
 30
0.0
  3
$PAPER_SPACE
  1

  0
ENDBLK
  5
1D
 67
     1
  8
0
  0
BLOCK
  8
0
  2
_FILLED
 70
     0
 10
0.0
 20
0.0
 30
0.0
  3
_FILLED
  1

  0
SOLID
  5
5A61
  8
0
  6
BYBLOCK
 62
     0
 10
0.0
 20
0.0
 30
0.0
 11
-1.0
 21
0.1666666667
 31
0.0
 12
-1.0
 22
-0.1666666667
 32
0.0
 13
-1.0
 23
-0.1666666667
 33
0.0
  0
ENDBLK
  5
5A62
  8
0
  6
BYBLOCK
 62
     0
  0
ENDSEC
  0
SECTION
  2
ENTITIES
  0
ATTDEF
  5
3930
  8
DEFPOINTS
 10
3441.7224725713599582
 20
99.4159675101511908
 30
0.0
 40
0.001
  1
P32358-AD
  3

  2
MODELNUMBER
 70
     0
1001
ACDBATTR
1070
     0
1070
     1
  0
ATTDEF
  5
3931
  8
DEFPOINTS
 10
3441.7224725713599582
 20
99.4143008434845257
 30
0.0
 40
0.001
  1
ONE
  3

  2
TRADENAME
 70
     0
1001
ACDBATTR
1070
     0
1070
     1
  0
ATTDEF
  5
3932
  8
DEFPOINTS
 10
3441.7224725713599582
 20
99.4126341768178747
 30
0.0
 40
0.001
  1
BATHROOM SINK FAUCET
  3

  2
PRODUCT
 70
     0
1001
ACDBATTR
1070
     0
1070
     1
  0
LINE
  5
962F
  8
0
 10
3442.8473729901511433
 20
99.4175424715851364
 30
0.0
 11
3440.5973729901511433
 21
99.4175424715851364
 31
0.0
  0
LINE
  5
9630
  8
0
 10
3438.8473729901520528
 20
99.4175424715851364
 30
0.0
 11
3436.5973729901511433
 21
99.4175424715851364
 31
0.0
  0
LINE
  5
9631
  8
0
 10
3437.1263729901520492
 20
102.3100424715851062
 30
0.0
 11
3434.9563729901510669
 21
102.3100424715851062
 31
0.0
  0
ARC
  5
9632
  8
0
 10
3437.1263729901520492
 20
102.3000424715851011
 30
0.0
 40
0.01
 50
0.0
 51
90.0
  0
LINE
  5
9633
  8
0
 10
3434.9363729901510851
 20
102.290042471585096
 30
0.0
 11
3434.9363729901510851
 21
101.5230424715851001
 31
0.0
  0
LINE
  5
9634
  8
0
 10
3437.1263729901520492
 20
101.5030424715851041
 30
0.0
 11
3434.9563729901510669
 21
101.5030424715851041
 31
0.0
  0
ARC
  5
9635
  8
0
 10
3434.9563729901510669
 20
102.290042471585096
 30
0.0
 40
0.02
 50
90.0
 51
179.9999999999974989
  0
ARC
  5
9636
  8
0
 10
3434.9563729901510669
 20
101.5230424715851001
 30
0.0
 40
0.02
 50
180.0
 51
270.0
  0
LINE
  5
9637
  8
0
 10
3437.3203729901510997
 20
101.0095424715851067
 30
0.0
 11
3437.3203729901510997
 21
101.3200854127401982
 31
0.0
  0
LINE
  5
9638
  8
0
 10
3437.3203729901510997
 20
100.9475424715850949
 30
0.0
 11
3437.3203729901510997
 21
99.8575424715851341
 31
0.0
  0
LINE
  5
9639
  8
0
 10
3438.1103729901510633
 20
100.9955424715850967
 30
0.0
 11
3437.3343729901512233
 21
100.9955424715850967
 31
0.0
  0
LINE
  5
963A
  8
0
 10
3437.3603729901510633
 20
100.9875424715851011
 30
0.0
 11
3438.0843729901521328
 21
100.9875424715853001
 31
0.0
  0
ARC
  5
963B
  8
0
 10
3437.3343729901512233
 20
101.0095424715851067
 30
0.0
 40
0.014
 50
180.0000000000057128
 51
270.0
  0
ARC
  5
963C
  8
0
 10
3437.3603729901510633
 20
100.9475424715850949
 30
0.0
 40
0.04
 50
90.0000000000260485
 51
180.0000000000007958
  0
LINE
  5
963D
  8
0
 10
3437.1363729901518127
 20
101.513042471585095
 30
0.0
 11
3437.1363729901518127
 21
102.3000424715851011
 31
0.0
  0
ARC
  5
963E
  8
0
 10
3437.1263729901520492
 20
101.513042471585095
 30
0.0
 40
0.01
 50
270.0
 51
0.0000000000097707
  0
LINE
  5
963F
  8
0
 10
3438.8273729901511615
 20
99.8175424715851136
 30
0.0
 11
3436.6173729901511251
 21
99.8175424715851136
 31
0.0
  0
LINE
  5
9640
  8
0
 10
3436.5973729901511433
 20
99.7975424715851318
 30
0.0
 11
3436.5973729901511433
 21
99.4175424715851364
 31
0.0
  0
ARC
  5
9641
  8
0
 10
3436.6173729901511251
 20
99.7975424715851318
 30
0.0
 40
0.02
 50
90.0
 51
179.9999999999984084
  0
ARC
  5
9642
  8
0
 10
3437.280372990151136
 20
99.8575424715851341
 30
0.0
 40
0.04
 50
270.0
 51
0.0
  0
ARC
  5
9643
  8
0
 10
3438.1103729901169572
 20
101.0095424716704002
 30
0.0
 40
0.0140000000853506
 50
270.0000001446840088
 51
359.9999996506857087
  0
ARC
  5
9644
  8
0
 10
3438.0843729901162078
 20
100.9475424714997018
 30
0.0
 40
0.0400000000853531
 50
0.0000001222578757
 51
89.9999999493488758
  0
LINE
  5
9645
  8
0
 10
3438.8473729901520528
 20
99.7975424715851318
 30
0.0
 11
3438.8473729901520528
 21
99.4175424715851364
 31
0.0
  0
ARC
  5
9646
  8
0
 10
3438.8273729901511615
 20
99.7975424715851318
 30
0.0
 40
0.02
 50
0.0000000000016284
 51
90.0
  0
ARC
  5
9647
  8
0
 10
3438.164372990116135
 20
99.8575424714997553
 30
0.0
 40
0.039999999914647
 50
179.9999998777412884
 51
270.0000000506511242
  0
LINE
  5
9648
  8
0
 10
3437.3723729901507795
 20
100.9955424715850967
 30
0.0
 11
3437.3723729901507795
 21
100.9875424715851011
 31
0.0
  0
LINE
  5
9649
  8
0
 10
3438.0723729901510524
 20
100.9955424715850967
 30
0.0
 11
3438.0723729901510524
 21
100.9875424715851011
 31
0.0
  0
ARC
  5
964A
  8
0
 10
3437.1363729901149782
 20
101.3204411726424041
 30
0.0
 40
0.9880000000868527
 50
0.0000000050066511
 51
89.1764183381372533
  0
ARC
  5
964B
  8
0
 10
3437.1503729901519364
 20
102.294340551514793
 30
0.0
 40
0.014
 50
89.1764183402218862
 51
180.0
  0
ARC
  5
964C
  8
0
 10
3437.1363729901518127
 20
101.3200854127401982
 30
0.0
 40
0.184
 50
0.0
 51
85.9453999800995376
  0
ARC
  5
964D
  8
0
 10
3437.1503729901519364
 20
101.5175898430702972
 30
0.0
 40
0.014
 50
180.0
 51
265.9453999800995234
  0
LINE
  5
964E
  8
0
 10
3440.5973729901511433
 20
99.8075424715851796
 30
0.0
 11
3440.5973729901511433
 21
99.4175424715851364
 31
0.0
  0
LINE
  5
964F
  8
0
 10
3440.6073729901518163
 20
99.8175424715851847
 30
0.0
 11
3442.8373729901518345
 21
99.817542471585071
 31
0.0
  0
ARC
  5
9650
  8
0
 10
3440.6073729901518163
 20
99.8075424715851796
 30
0.0
 40
0.01
 50
90.0
 51
180.0
  0
LINE
  5
9651
  8
0
 10
3441.3163729901511942
 20
109.8175424715850994
 30
0.0
 11
3441.3163729901511942
 21
99.817542471585142
 31
0.0
  0
ARC
  5
9652
  8
0
 10
3441.7223729901520528
 20
109.8175424715850994
 30
0.0
 40
0.4060000000000006
 50
0.0
 51
180.0
  0
LINE
  5
9653
  8
0
 10
3442.8473729901511433
 20
99.8075424715851796
 30
0.0
 11
3442.8473729901511433
 21
99.4175424715851364
 31
0.0
  0
ARC
  5
9654
  8
0
 10
3442.8373729901518345
 20
99.8075424715851796
 30
0.0
 40
0.01
 50
0.0
 51
90.0
  0
LINE
  5
9655
  8
0
 10
3442.1283729901510924
 20
109.8175424715850994
 30
0.0
 11
3442.1283729901510924
 21
99.817542471585142
 31
0.0
  0
LINE
  5
9656
  8
0
 10
3442.1283729901510924
 20
105.3175424715850994
 30
0.0
 11
3441.3163729901511942
 21
105.3175424715850994
 31
0.0
  0
LINE
  5
9657
  8
0
 10
3444.5973729901511433
 20
99.4175424715851364
 30
0.0
 11
3446.8473729901511433
 21
99.4175424715851364
 31
0.0
  0
LINE
  5
9658
  8
0
 10
3446.318372990151147
 20
102.3100424715851062
 30
0.0
 11
3448.4883729901512197
 21
102.3100424715851062
 31
0.0
  0
ARC
  5
9659
  8
0
 10
3446.318372990151147
 20
102.3000424715851011
 30
0.0
 40
0.01
 50
90.0
 51
180.0
  0
LINE
  5
965A
  8
0
 10
3448.5083729901512015
 20
102.290042471585096
 30
0.0
 11
3448.5083729901512015
 21
101.5230424715851001
 31
0.0
  0
LINE
  5
965B
  8
0
 10
3446.318372990151147
 20
101.5030424715851041
 30
0.0
 11
3448.4883729901512197
 21
101.5030424715851041
 31
0.0
  0
ARC
  5
965C
  8
0
 10
3448.4883729901512197
 20
102.290042471585096
 30
0.0
 40
0.02
 50
0.0000000000024427
 51
90.0
  0
ARC
  5
965D
  8
0
 10
3448.4883729901512197
 20
101.5230424715851001
 30
0.0
 40
0.02
 50
270.0
 51
0.0
  0
LINE
  5
965E
  8
0
 10
3446.124372990151187
 20
101.0095424715851067
 30
0.0
 11
3446.124372990151187
 21
101.3200854127401982
 31
0.0
  0
LINE
  5
965F
  8
0
 10
3446.124372990151187
 20
100.9475424715850949
 30
0.0
 11
3446.124372990151187
 21
99.8575424715851341
 31
0.0
  0
LINE
  5
9660
  8
0
 10
3445.3343729901512233
 20
100.9955424715850967
 30
0.0
 11
3446.1103729901510633
 21
100.9955424715850967
 31
0.0
  0
LINE
  5
9661
  8
0
 10
3446.0843729901521328
 20
100.9875424715851011
 30
0.0
 11
3445.3603729901510633
 21
100.9875424715853001
 31
0.0
  0
ARC
  5
9662
  8
0
 10
3446.1103729901510633
 20
101.0095424715851067
 30
0.0
 40
0.014
 50
270.0
 51
359.9999999999943157
  0
ARC
  5
9663
  8
0
 10
3446.0843729901521328
 20
100.9475424715850949
 30
0.0
 40
0.04
 50
359.9999999999992042
 51
89.9999999999739515
  0
LINE
  5
9664
  8
0
 10
3446.3083729901509287
 20
101.513042471585095
 30
0.0
 11
3446.3083729901509287
 21
102.3000424715851011
 31
0.0
  0
ARC
  5
9665
  8
0
 10
3446.318372990151147
 20
101.513042471585095
 30
0.0
 40
0.01
 50
179.9999999999893987
 51
270.0
  0
LINE
  5
9666
  8
0
 10
3444.6173729901511251
 20
99.8175424715851136
 30
0.0
 11
3446.8273729901511615
 21
99.8175424715851136
 31
0.0
  0
LINE
  5
9667
  8
0
 10
3446.8473729901511433
 20
99.7975424715851318
 30
0.0
 11
3446.8473729901511433
 21
99.4175424715851364
 31
0.0
  0
ARC
  5
9668
  8
0
 10
3446.8273729901511615
 20
99.7975424715851318
 30
0.0
 40
0.02
 50
0.0000000000016284
 51
90.0
  0
ARC
  5
9669
  8
0
 10
3446.1643729901511506
 20
99.8575424715851341
 30
0.0
 40
0.04
 50
180.0
 51
270.0
  0
ARC
  5
966A
  8
0
 10
3445.3343729901871484
 20
101.0095424716704002
 30
0.0
 40
0.0140000000853498
 50
180.0000003493101985
 51
269.9999998553420824
  0
ARC
  5
966B
  8
0
 10
3445.3603729901869883
 20
100.9475424714997018
 30
0.0
 40
0.0400000000853504
 50
90.0000000506511242
 51
179.9999998777454095
  0
LINE
  5
966C
  8
0
 10
3444.5973729901511433
 20
99.7975424715851318
 30
0.0
 11
3444.5973729901511433
 21
99.4175424715851364
 31
0.0
  0
ARC
  5
966D
  8
0
 10
3444.6173729901511251
 20
99.7975424715851318
 30
0.0
 40
0.02
 50
90.0
 51
179.9999999999984084
  0
ARC
  5
966E
  8
0
 10
3445.2803729901870611
 20
99.8575424714997553
 30
0.0
 40
0.0399999999146488
 50
269.9999999493488758
 51
0.0000001222570615
  0
LINE
  5
966F
  8
0
 10
3446.0723729901510524
 20
100.9955424715850967
 30
0.0
 11
3446.0723729901510524
 21
100.9875424715851011
 31
0.0
  0
LINE
  5
9670
  8
0
 10
3445.3723729901507795
 20
100.9955424715850967
 30
0.0
 11
3445.3723729901507795
 21
100.9875424715851011
 31
0.0
  0
ARC
  5
9671
  8
0
 10
3446.308372990188218
 20
101.3204411726424041
 30
0.0
 40
0.9880000000868514
 50
90.8235816618627609
 51
179.9999999949932885
  0
ARC
  5
9672
  8
0
 10
3446.294372990150805
 20
102.294340551514793
 30
0.0
 40
0.014
 50
0.0
 51
90.823581659778128
  0
ARC
  5
9673
  8
0
 10
3446.3083729901509287
 20
101.3200854127401982
 30
0.0
 40
0.184
 50
94.0546000199004482
 51
180.0
  0
ARC
  5
9674
  8
0
 10
3446.294372990150805
 20
101.5175898430702972
 30
0.0
 40
0.014
 50
274.0546000199004766
 51
0.0
  0
LINE
  5
9676
  8
0
 10
3438.1243729902012092
 20
101.3204411726424041
 30
0.0
 11
3438.1243729902012092
 21
101.0095424716704002
 31
0.0
  0
LINE
  5
9677
  8
0
 10
3438.1243729902012092
 20
100.9475424714997018
 30
0.0
 11
3438.1243729902012092
 21
99.8575424714997553
 31
0.0
  0
LINE
  5
9678
  8
0
 10
3445.3203729901019869
 20
99.8575424714997837
 30
0.0
 11
3445.3203729901019869
 21
100.9475424714997018
 31
0.0
  0
LINE
  5
9679
  8
0
 10
3445.3203729901019869
 20
101.0095424716704002
 30
0.0
 11
3445.3203729901019869
 21
101.3204411726424041
 31
0.0
  0
ENDSEC
  0
EOF
