  0
SECTION
  2
HEADER
  9
$ACADVER
  1
AC1009
  9
$INSBASE
 10
467.4726832867856956
 20
69.8726828715676618
 30
0.0
  9
$EXTMIN
 10
460.6866832867856942
 20
69.8675517275090101
 30
0.0
  9
$EXTMAX
 10
474.258683286785697
 20
76.3626828715676567
 30
0.0
  9
$LIMMIN
 10
0.0
 20
0.0
  9
$LIMMAX
 10
11.6929133858000007
 20
8.2677165353999982
  9
$ORTHOMODE
 70
     0
  9
$REGENMODE
 70
     1
  9
$FILLMODE
 70
     1
  9
$QTEXTMODE
 70
     0
  9
$MIRRTEXT
 70
     0
  9
$DRAGMODE
 70
     2
  9
$LTSCALE
 40
0.6431102362
  9
$OSMODE
 70
  4095
  9
$ATTMODE
 70
     1
  9
$TEXTSIZE
 40
0.2
  9
$TRACEWID
 40
0.05
  9
$TEXTSTYLE
  7
STANDARD
  9
$CLAYER
  8
0
  9
$CELTYPE
  6
BYLAYER
  9
$CECOLOR
 62
   256
  9
$DIMSCALE
 40
1.0
  9
$DIMASZ
 40
0.1875
  9
$DIMEXO
 40
0.0625
  9
$DIMDLI
 40
0.4443307087
  9
$DIMRND
 40
0.0
  9
$DIMDLE
 40
0.0
  9
$DIMEXE
 40
0.125
  9
$DIMTP
 40
0.01
  9
$DIMTM
 40
0.01
  9
$DIMTXT
 40
1.0
  9
$DIMCEN
 40
0.1052362205
  9
$DIMTSZ
 40
0.0
  9
$DIMTOL
 70
     1
  9
$DIMLIM
 70
     0
  9
$DIMTIH
 70
     1
  9
$DIMTOH
 70
     1
  9
$DIMSE1
 70
     0
  9
$DIMSE2
 70
     0
  9
$DIMTAD
 70
     0
  9
$DIMZIN
 70
     0
  9
$DIMBLK
  1

  9
$DIMASO
 70
     1
  9
$DIMSHO
 70
     1
  9
$DIMPOST
  1
\X
  9
$DIMAPOST
  1

  9
$DIMALT
 70
     1
  9
$DIMALTD
 70
     2
  9
$DIMALTF
 40
25.3999999999999986
  9
$DIMLFAC
 40
1.0
  9
$DIMTOFL
 70
     0
  9
$DIMTVP
 40
0.0
  9
$DIMTIX
 70
     0
  9
$DIMSOXD
 70
     0
  9
$DIMSAH
 70
     0
  9
$DIMBLK1
  1

  9
$DIMBLK2
  1

  9
$DIMSTYLE
  2
STANDARD
  9
$DIMCLRD
 70
     0
  9
$DIMCLRE
 70
     0
  9
$DIMCLRT
 70
     0
  9
$DIMTFAC
 40
1.0
  9
$DIMGAP
 40
0.09
  9
$LUNITS
 70
     2
  9
$LUPREC
 70
     4
  9
$SKETCHINC
 40
0.1
  9
$FILLETRAD
 40
0.0
  9
$AUNITS
 70
     0
  9
$AUPREC
 70
     0
  9
$MENU
  1
.
  9
$ELEVATION
 40
0.0
  9
$PELEVATION
 40
0.0
  9
$THICKNESS
 40
0.0
  9
$LIMCHECK
 70
     0
  9
$BLIPMODE
 70
     0
  9
$CHAMFERA
 40
0.0
  9
$CHAMFERB
 40
0.0
  9
$SKPOLY
 70
     0
  9
$TDCREATE
 40
2458306.6094560190103948
  9
$TDUPDATE
 40
2459989.7321875002235174
  9
$TDINDWG
 40
0.0602505324
  9
$TDUSRTIMER
 40
0.0602505324
  9
$USRTIMER
 70
     1
  9
$ANGBASE
 50
0.0
  9
$ANGDIR
 70
     0
  9
$PDMODE
 70
     0
  9
$PDSIZE
 40
0.3125
  9
$PLINEWID
 40
0.0
  9
$COORDS
 70
     1
  9
$SPLFRAME
 70
     0
  9
$SPLINETYPE
 70
     6
  9
$SPLINESEGS
 70
     8
  9
$ATTDIA
 70
     1
  9
$ATTREQ
 70
     1
  9
$HANDLING
 70
     1
  9
$HANDSEED
  5
6ED1
  9
$SURFTAB1
 70
     6
  9
$SURFTAB2
 70
     6
  9
$SURFTYPE
 70
     6
  9
$SURFU
 70
     6
  9
$SURFV
 70
     6
  9
$UCSNAME
  2

  9
$UCSORG
 10
0.0
 20
0.0
 30
0.0
  9
$UCSXDIR
 10
1.0
 20
0.0
 30
0.0
  9
$UCSYDIR
 10
0.0
 20
1.0
 30
0.0
  9
$PUCSNAME
  2

  9
$PUCSORG
 10
0.0
 20
0.0
 30
0.0
  9
$PUCSXDIR
 10
1.0
 20
0.0
 30
0.0
  9
$PUCSYDIR
 10
0.0
 20
1.0
 30
0.0
  9
$USERI1
 70
     0
  9
$USERI2
 70
     0
  9
$USERI3
 70
     0
  9
$USERI4
 70
     0
  9
$USERI5
 70
     0
  9
$USERR1
 40
0.0
  9
$USERR2
 40
0.0
  9
$USERR3
 40
0.0
  9
$USERR4
 40
0.0
  9
$USERR5
 40
0.0
  9
$WORLDVIEW
 70
     1
  9
$SHADEDGE
 70
     3
  9
$SHADEDIF
 70
    70
  9
$TILEMODE
 70
     1
  9
$MAXACTVP
 70
    64
  9
$PLIMCHECK
 70
     0
  9
$PEXTMIN
 10
1.0000000000000000E+20
 20
1.0000000000000000E+20
 30
1.0000000000000000E+20
  9
$PEXTMAX
 10
-1.0000000000000000E+20
 20
-1.0000000000000000E+20
 30
-1.0000000000000000E+20
  9
$PLIMMIN
 10
0.0
 20
0.0
  9
$PLIMMAX
 10
12.0
 20
9.0
  9
$UNITMODE
 70
     0
  9
$VISRETAIN
 70
     1
  9
$PLINEGEN
 70
     0
  9
$PSLTSCALE
 70
     1
  0
ENDSEC
  0
SECTION
  2
TABLES
  0
TABLE
  2
VPORT
 70
     1
  0
VPORT
  2
*ACTIVE
 70
     0
 10
0.0
 20
0.0
 11
1.0
 21
1.0
 12
126.7376875716960996
 22
51.0071607917194427
 13
0.0
 23
0.0
 14
1.0
 24
1.0
 15
0.0
 25
0.0
 16
0.0
 26
0.0
 36
20.8152009923093715
 17
341.9466339173652045
 27
22.1065852756951884
 37
0.0
 40
6.8704088439771347
 41
2.5251322751322749
 42
50.0
 43
0.0
 44
0.0
 50
0.0
 51
0.0
 71
     0
 72
   100
 73
     1
 74
     1
 75
     0
 76
     0
 77
     0
 78
     0
  0
ENDTAB
  0
TABLE
  2
LTYPE
 70
     2
  0
LTYPE
  2
CONTINUOUS
 70
     0
  3
Solid line
 72
    65
 73
     0
 40
0.0
  0
LTYPE
  2
PHANTOM2
 70
     0
  3
___ _ _ ___ _ _ ___ _ _ ___ _ _
 72
    65
 73
     6
 40
1.25
 49
0.625
 49
-0.125
 49
0.125
 49
-0.125
 49
0.125
 49
-0.125
  0
ENDTAB
  0
TABLE
  2
LAYER
 70
     2
  0
LAYER
  2
0
 70
     0
 62
   255
  6
CONTINUOUS
  0
LAYER
  2
DEFPOINTS
 70
     0
 62
     7
  6
CONTINUOUS
  0
ENDTAB
  0
TABLE
  2
STYLE
 70
     1
  0
STYLE
  2
STANDARD
 70
     0
 40
0.0
 41
0.8
 50
0.0
 71
     0
 42
0.2
  3
txt
  4

  0
ENDTAB
  0
TABLE
  2
VIEW
 70
     0
  0
ENDTAB
  0
TABLE
  2
UCS
 70
     0
  0
ENDTAB
  0
TABLE
  2
APPID
 70
     9
  0
APPID
  2
ACAD
 70
     0
  0
APPID
  2
ACAD_MLEADERVER
 70
     0
  0
APPID
  2
ACAD_EXEMPT_FROM_CAD_STANDARDS
 70
     0
  0
APPID
  2
ACAD_DSTYLE_DIMJAG
 70
     0
  0
APPID
  2
ACAD_DSTYLE_DIMTALN
 70
     0
  0
APPID
  2
ACAD_NAV_VCDISPLAY
 70
     0
  0
APPID
  2
ACAECLAYERSTANDARD
 70
     0
  0
APPID
  2
ACCMTRANSPARENCY
 70
     0
  0
APPID
  2
ACDBATTR
 70
     0
  0
ENDTAB
  0
TABLE
  2
DIMSTYLE
 70
     1
  0
DIMSTYLE
  2
STANDARD
 70
     0
  3

  4

  5

  6

  7

 40
1.0
 41
0.1875
 42
0.0625
 43
0.38
 44
0.125
 45
0.0
 46
0.0
 47
0.01
 48
0.01
140
0.15625
141
0.09
142
0.0
143
25.3999999999999986
144
1.0
145
0.0
146
1.0
147
0.09
 71
     1
 72
     0
 73
     1
 74
     1
 75
     0
 76
     0
 77
     0
 78
     4
170
     0
171
     2
172
     0
173
     0
174
     0
175
     0
176
     0
177
     0
178
     0
  0
ENDTAB
  0
ENDSEC
  0
SECTION
  2
BLOCKS
  0
BLOCK
  8
0
  2
$MODEL_SPACE
 70
     0
 10
0.0
 20
0.0
 30
0.0
  3
$MODEL_SPACE
  1

  0
ENDBLK
  5
21
  8
0
  0
BLOCK
 67
     1
  8
0
  2
$PAPER_SPACE
 70
     0
 10
0.0
 20
0.0
 30
0.0
  3
$PAPER_SPACE
  1

  0
ENDBLK
  5
1D
 67
     1
  8
0
  0
BLOCK
  8
0
  2
_FILLED
 70
     0
 10
0.0
 20
0.0
 30
0.0
  3
_FILLED
  1

  0
SOLID
  5
1C83
  8
0
  6
BYBLOCK
 62
     0
 10
0.0
 20
0.0
 30
0.0
 11
-1.0
 21
0.1666666667
 31
0.0
 12
-1.0
 22
-0.1666666667
 32
0.0
 13
-1.0
 23
-0.1666666667
 33
0.0
  0
ENDBLK
  5
1C84
  8
0
  6
BYBLOCK
 62
     0
  0
ENDSEC
  0
SECTION
  2
ENTITIES
  0
ATTDEF
  5
659
  8
DEFPOINTS
 10
467.4737397855498102
 20
69.8708850608423688
 30
0.0
 40
0.001
  1
P32357-AD
  3

  2
MODELNUMBER
 70
     0
1001
ACDBATTR
1070
     0
1070
     1
  0
ATTDEF
  5
65A
  8
DEFPOINTS
 10
467.4737397855498102
 20
69.8692183941757037
 30
0.0
 40
0.001
  1
ONE
  3

  2
TRADENAME
 70
     0
1001
ACDBATTR
1070
     0
1070
     1
  0
ATTDEF
  5
65B
  8
DEFPOINTS
 10
467.4737397855498102
 20
69.8675517275090243
 30
0.0
 40
0.001
  1
BATHROOM SINK FAUCET
  3

  2
PRODUCT
 70
     0
1001
ACDBATTR
1070
     0
1070
     1
  0
LINE
  5
6B9B
  8
0
 10
472.5976832867858093
 20
69.8726828715676618
 30
0.0
 11
470.3476832867858093
 21
69.8726828715676618
 31
0.0
  0
LINE
  5
6B9C
  8
0
 10
468.5976832867858093
 20
69.8726828715676618
 30
0.0
 11
466.3476832867858093
 21
69.8726828715676618
 31
0.0
  0
LINE
  5
6B9D
  8
0
 10
474.258683286785697
 20
72.7391828715676638
 30
0.0
 11
474.258683286785697
 21
71.9721828715676537
 31
0.0
  0
ARC
  5
6B9F
  8
0
 10
467.4726832867856956
 20
75.9226828715676589
 30
0.0
 40
0.4400000000000001
 50
90.0
 51
180.0
  0
LINE
  5
6BA2
  8
0
 10
468.5876832867857047
 20
70.2726828715676533
 30
0.0
 11
466.3576832867858002
 21
70.2726828715676533
 31
0.0
  0
LINE
  5
6BA3
  8
0
 10
466.3476832867858093
 20
70.2626828715676339
 30
0.0
 11
466.3476832867858093
 21
69.8726828715676618
 31
0.0
  0
ARC
  5
6BA4
  8
0
 10
466.3576832867858002
 20
70.2626828715676339
 30
0.0
 40
0.01
 50
90.0
 51
180.0
  0
LINE
  5
6BA5
  8
0
 10
468.5976832867858093
 20
70.2626828715676339
 30
0.0
 11
468.5976832867858093
 21
69.8726828715676618
 31
0.0
  0
ARC
  5
6BA6
  8
0
 10
468.5876832867857047
 20
70.2626828715676339
 30
0.0
 40
0.01
 50
0.0
 51
90.0
  0
LINE
  5
6BA7
  8
0
 10
467.0326832867856979
 20
75.9226828715676589
 30
0.0
 11
467.0326832867856979
 21
70.2726828715676533
 31
0.0
  0
LINE
  5
6BA9
  8
0
 10
467.9126832867856933
 20
75.9226828715676589
 30
0.0
 11
467.912683286785807
 21
70.2726828715676533
 31
0.0
  0
ARC
  5
6BAA
  8
0
 10
467.4726832867856956
 20
75.9226828715676589
 30
0.0
 40
0.4400000000000001
 50
0.0
 51
90.0
  0
LINE
  5
6BAC
  8
0
 10
470.3476832868166184
 20
70.246682871567657
 30
0.0
 11
470.3476832868166184
 21
69.8726828715676618
 31
0.0
  0
LINE
  5
6BAD
  8
0
 10
472.058683286785822
 20
72.7491828715676547
 30
0.0
 11
472.058683286785822
 21
71.9621828715676486
 31
0.0
  0
ARC
  5
6BAE
  8
0
 10
472.0686832867856992
 20
72.7491828715676547
 30
0.0
 40
0.01
 50
90.0
 51
180.0
  0
ARC
  5
6BAF
  8
0
 10
472.0686832867856992
 20
71.9621828715676486
 30
0.0
 40
0.01
 50
180.0
 51
270.0
  0
LINE
  5
6BB1
  8
0
 10
467.5222044561372741
 20
74.6901784186676565
 30
0.0
 11
467.423162117434174
 21
74.6901784186676565
 31
0.0
  0
LINE
  5
6BB2
  8
0
 10
474.238683286785772
 20
72.7591828715676598
 30
0.0
 11
472.0686832867856992
 21
72.7591828715676598
 31
0.0
  0
ARC
  5
6BB3
  8
0
 10
472.058683286785822
 20
71.7711828715676603
 30
0.0
 40
0.9879999999999999
 50
90.8235816597911452
 51
180.0
  0
ARC
  5
6BB4
  8
0
 10
472.044683286785812
 20
72.7450822503537893
 30
0.0
 40
0.014
 50
0.0
 51
90.8235816597878909
  0
LINE
  5
6BB6
  8
0
 10
474.238683286785772
 20
71.9521828715676577
 30
0.0
 11
472.0686832867856992
 21
71.9521828715676577
 31
0.0
  0
ARC
  5
6BB7
  8
0
 10
472.058683286785822
 20
71.7681828715676602
 30
0.0
 40
0.184
 50
94.0546000198939538
 51
180.0
  0
ARC
  5
6BB8
  8
0
 10
472.044683286785812
 20
71.9656873018977024
 30
0.0
 40
0.014
 50
274.0546000198971797
 51
0.0
  0
LINE
  5
6BDF
  8
0
 10
472.5776832867857138
 20
70.266682871567653
 30
0.0
 11
470.3676832867856774
 21
70.266682871567653
 31
0.0
  0
ARC
  5
6BE0
  8
0
 10
470.3676832868166002
 20
70.246682871567657
 30
0.0
 40
0.02
 50
90.0
 51
180.0
  0
LINE
  5
6BEB
  8
0
 10
471.8606832867856724
 20
71.4446828715676645
 30
0.0
 11
471.0846832867857188
 21
71.4446828715676645
 31
0.0
  0
LINE
  5
6BED
  8
0
 10
471.8346832867857188
 20
71.4366828715676547
 30
0.0
 11
471.1106832867857861
 21
71.4366828715676547
 31
0.0
  0
ARC
  5
6BF0
  8
0
 10
467.4642486976574105
 20
67.7263417816901239
 30
0.0
 40
7.0193602735560958
 50
89.9311523477288546
 51
92.1916036580542055
  0
ARC
  5
6BF1
  8
0
 10
467.2766679521714082
 20
72.6279319158292225
 30
0.0
 40
2.114182154550964
 50
92.1916036580542055
 51
95.5553638077389564
  0
ARC
  5
6BF2
  8
0
 10
467.0941578296923922
 20
74.5043652461808108
 30
0.0
 40
0.2288938508526526
 50
95.5553638077389564
 51
104.117500332952801
  0
ARC
  5
6BF3
  8
0
 10
467.0416937307753074
 20
74.7129638981347171
 30
0.0
 40
0.0137988037870096
 50
104.117500332952801
 51
119.1648269066527064
  0
ARC
  5
6BF4
  8
0
 10
467.0420372810897902
 20
74.7123483001401212
 30
0.0
 40
0.0145037773394081
 50
119.1648269066531043
 51
125.9868308286035017
  0
ARC
  5
6BF5
  8
0
 10
467.0347986304846017
 20
74.7223162651485211
 30
0.0
 40
0.002184751850619
 50
125.9868308286074949
 51
157.5358267348308061
  0
ARC
  5
6BF6
  8
0
 10
467.0340395962587081
 20
74.7226381956329675
 30
0.0
 40
0.00136032322633
 50
157.8504879924934983
 51
175.5975061213615902
  0
ARC
  5
6BF7
  8
0
 10
467.0554914685403105
 20
74.7245160605527161
 30
0.0
 40
0.0228887345597845
 50
184.8083328611870968
 51
191.591321184271294
  0
ARC
  5
6BF8
  8
0
 10
467.0432047312145869
 20
74.7219958950692273
 30
0.0
 40
0.0103462009970035
 50
191.5913211842749035
 51
230.7655909446019962
  0
ARC
  5
6BF9
  8
0
 10
467.0512585631739171
 20
74.7318587694324634
 30
0.0
 40
0.0230796412208148
 50
230.765590944602792
 51
249.9588427300031981
  0
ARC
  5
6BFA
  8
0
 10
467.0654259796913266
 20
74.7706965993618269
 30
0.0
 40
0.0644208159066293
 50
249.9588427300031981
 51
260.3263695071930783
  0
ARC
  5
6BFB
  8
0
 10
467.1587416328682139
 20
75.3181325652751923
 30
0.0
 40
0.6197531019330244
 50
260.3263695071930783
 51
262.4821399898046934
  0
ARC
  5
6BFC
  8
0
 10
467.1362295036033174
 20
75.1475468830114437
 30
0.0
 40
0.4476883729574819
 50
262.4821399898046934
 51
266.1154568590858958
  0
ARC
  5
6BFD
  8
0
 10
464.324964780640812
 20
33.7458359401943326
 30
0.0
 40
41.0493582488824273
 50
86.0426153021260234
 51
86.1154568590858389
  0
ARC
  5
6BFE
  8
0
 10
467.2489706653183248
 20
76.0128163420034326
 30
0.0
 40
1.3186419718094
 50
266.0426153021260802
 51
268.6281472598662958
  0
ARC
  5
6BFF
  8
0
 10
467.1128751465275855
 20
70.3298385310508962
 30
0.0
 40
4.3659652081119882
 50
87.765266896765084
 51
88.6281472598662674
  0
ARC
  5
6C00
  8
0
 10
467.3456387569528943
 20
76.2945817296764801
 30
0.0
 40
1.603317858043311
 50
267.7652668967651266
 51
269.7649790615234906
  0
ARC
  5
6C01
  8
0
 10
467.32198471049918
 20
70.5279915785475708
 30
0.0
 40
4.1633208062923064
 50
88.8124399430757165
 51
89.7649790615235332
  0
ARC
  5
6C02
  8
0
 10
467.4416006515705249
 20
76.2982320767523134
 30
0.0
 40
1.608159366114112
 50
268.8124399430756739
 51
269.3430543284972032
  0
ARC
  5
6C03
  8
0
 10
467.4705792712007906
 20
67.1046534637610961
 30
0.0
 40
7.6305341506782582
 50
89.9842014710623346
 51
91.3923203298355844
  0
ARC
  5
6C04
  8
0
 10
467.3980523609067177
 20
70.0886419733113257
 30
0.0
 40
4.6456643749854214
 50
91.3923203298355844
 51
92.2064378512332041
  0
ARC
  5
6C05
  8
0
 10
467.3585668834269882
 20
71.1134760750080659
 30
0.0
 40
3.6200698942415208
 50
92.2064378512299356
 51
93.4580761727776945
  0
ARC
  5
6C06
  8
0
 10
467.2178967248145227
 20
73.4413650851926718
 30
0.0
 40
1.2879345342629469
 50
93.4580761727776945
 51
95.8617091396802863
  0
ARC
  5
6C07
  8
0
 10
467.129462371367822
 20
74.3027563711534924
 30
0.0
 40
0.4220156105762316
 50
95.8617091396802863
 51
99.3263317191610042
  0
ARC
  5
6C08
  8
0
 10
467.0794987131898779
 20
74.6069894666699014
 30
0.0
 40
0.1137070905090453
 50
99.3263317191610042
 51
105.4630511782402067
  0
ARC
  5
6C09
  8
0
 10
467.0554846223803906
 20
74.693798829668296
 30
0.0
 40
0.0236374393406958
 50
105.4630511782370945
 51
118.5953712893985994
  0
ARC
  5
6C0A
  8
0
 10
467.0459284480517113
 20
74.7113294628190516
 30
0.0
 40
0.0036713789764735
 50
118.5953712894022942
 51
143.8451861534649083
  0
ARC
  5
6C0B
  8
0
 10
467.0441343696338095
 20
74.7126403581794989
 30
0.0
 40
0.0014494059758173
 50
143.845186153452488
 51
180.4976018051764868
  0
ARC
  5
6C0C
  8
0
 10
467.0439286276700841
 20
74.7126385713088439
 30
0.0
 40
0.0012436562526526
 50
180.497601805186207
 51
224.066214831352994
  0
ARC
  5
6C0D
  8
0
 10
467.0491368794054097
 20
74.7176797666018615
 30
0.0
 40
0.0084920723638239
 50
224.0662148313531929
 51
232.2274362433367116
  0
ARC
  5
6C0E
  8
0
 10
467.0468846927215054
 20
74.7147733923569177
 30
0.0
 40
0.0048152046601268
 50
232.2274362433367116
 51
248.14592225700369
  0
ARC
  5
6C0F
  8
0
 10
466.9349233500236096
 20
74.4356144857870703
 30
0.0
 40
0.2959588590089244
 50
67.6356272463377479
 51
68.1459222570037326
  0
ARC
  5
6C10
  8
0
 10
467.0539367316719108
 20
74.7248729815523234
 30
0.0
 40
0.0168264705443498
 50
247.6356272463378048
 51
258.7598173299625728
  0
ARC
  5
6C11
  8
0
 10
467.0427133118431016
 20
74.6683984691312332
 30
0.0
 40
0.040752481389978
 50
73.8573972734588153
 51
78.7598173299626438
  0
ARC
  5
6C12
  8
0
 10
467.0686497400827193
 20
74.7620412281450655
 30
0.0
 40
0.0564204228545497
 50
254.9964487734208092
 51
259.7095268594013078
  0
ARC
  5
6C13
  8
0
 10
467.4699499583007878
 20
67.8299822888838264
 30
0.0
 40
6.9025227465809911
 50
89.9773114558901028
 51
90.8501470696908768
  0
ARC
  5
6C14
  8
0
 10
467.4501980554944112
 20
69.1610668208351456
 30
0.0
 40
5.5712916739025742
 50
90.8501470696908768
 51
91.5536511833038986
  0
ARC
  5
6C15
  8
0
 10
467.4226773204175061
 20
70.1757318179815996
 30
0.0
 40
4.5562535232435053
 50
91.5536511833038986
 51
92.2313491345369556
  0
ARC
  5
6C16
  8
0
 10
467.3600496496359824
 20
71.7830495135393249
 30
0.0
 40
2.9477161753399779
 50
92.2313491345369556
 51
93.6407322607268497
  0
ARC
  5
6C17
  8
0
 10
467.2305459649952013
 20
73.8183613095989131
 30
0.0
 40
0.9082884831883621
 50
93.6407322607268497
 51
97.2120251350237368
  0
ARC
  5
6C18
  8
0
 10
467.133564075068989
 20
74.5847584035771405
 30
0.0
 40
0.135779588332173
 50
97.2120251350237368
 51
102.7495611302619949
  0
ARC
  5
6C19
  8
0
 10
467.117381850074878
 20
74.6562760926201889
 30
0.0
 40
0.0624539839922275
 50
102.7495611302619949
 51
108.8323357467896955
  0
ARC
  5
6C1A
  8
0
 10
467.1003732126188197
 20
74.7061463622599291
 30
0.0
 40
0.0097630213700454
 50
108.832335746789596
 51
129.5222891556649074
  0
ARC
  5
6C1B
  8
0
 10
467.0949917083174796
 20
74.7126694771216506
 30
0.0
 40
0.0013065672642324
 50
129.5222891556948923
 51
171.4979421453585928
  0
ARC
  5
6C1C
  8
0
 10
467.094845607413788
 20
74.7126913174126628
 30
0.0
 40
0.0011588429521362
 50
171.497942145360696
 51
200.4783683362396971
  0
ARC
  5
6C1D
  8
0
 10
467.09527897937528
 20
74.7128531620870575
 30
0.0
 40
0.0016214496486385
 50
200.4783683362385034
 51
230.2892134119688876
  0
ARC
  5
6C1E
  8
0
 10
467.0999388812630855
 20
74.7184638914599759
 30
0.0
 40
0.0089149378196254
 50
230.2892134119688876
 51
238.3059938475294928
  0
ARC
  5
6C1F
  8
0
 10
467.100983776313285
 20
74.7201561166655495
 30
0.0
 40
0.0109037645622718
 50
238.3059938475261106
 51
256.3120258980798098
  0
ARC
  5
6C20
  8
0
 10
467.1579362745432036
 20
74.9539979474330806
 30
0.0
 40
0.251581118859138
 50
256.3120258980798098
 51
260.011767592125409
  0
ARC
  5
6C21
  8
0
 10
467.2355904526364156
 20
75.6405169741330781
 30
0.0
 40
0.942127111140002
 50
262.6031845851954927
 51
267.077976942960106
  0
ARC
  5
6C22
  8
0
 10
467.3769242003775162
 20
77.9954977656404083
 30
0.0
 40
3.3013182214459289
 50
266.7117652471853262
 51
268.3114392578333991
  0
ARC
  5
6C23
  8
0
 10
467.4605083921497908
 20
80.721556121199697
 30
0.0
 40
6.0286566304464886
 50
268.2808365791565848
 51
269.676187009668979
  0
ARC
  5
6C24
  8
0
 10
467.4724030676841835
 20
81.8204644276142261
 30
0.0
 40
7.1276168769549288
 50
269.6304964271835161
 51
270.0022525582031108
  0
LINE
  5
6C25
  8
0
 10
467.4726832867856956
 20
74.6937265347676487
 30
0.0
 11
467.4097870965974266
 21
74.6940145302008176
 31
0.0
  0
ARC
  5
6C26
  8
0
 10
467.4097532631694207
 20
74.6941316112367986
 30
0.0
 40
0.0001218715300846
 50
261.454204363360418
 51
286.1179428574507142
  0
ARC
  5
6C27
  8
0
 10
467.4097604962834112
 20
74.6941601857511728
 30
0.0
 40
0.0001512315680775
 50
229.7843206866118919
 51
260.3529238492844229
  0
ARC
  5
6C28
  8
0
 10
467.410047127343887
 20
74.6944861754847551
 30
0.0
 40
0.0005852919953856
 50
217.2051367037103091
 51
228.9623545686876867
  0
ARC
  5
6C29
  8
0
 10
467.412167811113477
 20
74.695430868749483
 30
0.0
 40
0.002894509324967
 50
187.5025841351150007
 51
206.6566697952144125
  0
ARC
  5
6C2A
  8
0
 10
467.4225575972745901
 20
74.6972463221181329
 30
0.0
 40
0.0134397068605809
 50
182.5142350604110959
 51
189.3928226707789975
  0
LINE
  5
6C2B
  8
0
 10
467.4091308280998192
 20
74.6966567544573508
 30
0.0
 11
467.409103442185824
 21
74.7289394195556724
 31
0.0
  0
LINE
  5
6C2C
  8
0
 10
467.1065311941404161
 20
74.7178197426518693
 30
0.0
 11
467.1065415548778788
 21
74.7166153566112712
 31
0.0
  0
ARC
  5
6C2D
  8
0
 10
467.1118383447733891
 20
74.7166609222749116
 30
0.0
 40
0.0052969858814114
 50
180.4928750945265961
 51
227.2917970939174097
  0
ARC
  5
6C2E
  8
0
 10
467.1157047570461032
 20
74.7208497096894035
 30
0.0
 40
0.01099743181707
 50
227.2917970939170971
 51
254.1401712156219048
  0
ARC
  5
6C2F
  8
0
 10
467.1055650591504786
 20
74.6851590691009477
 30
0.0
 40
0.0261056044337018
 50
69.0659512051623494
 51
74.1401712156218622
  0
LINE
  5
6C30
  8
0
 10
467.1148924114858119
 20
74.7095415029676531
 30
0.0
 11
467.1159812659856811
 21
74.7093911392676517
 31
0.0
  0
LINE
  5
6C31
  8
0
 10
467.1159812659856811
 20
74.7093911392676517
 30
0.0
 11
467.1487847322187008
 21
74.7097409323549755
 31
0.0
  0
ARC
  5
6C32
  8
0
 10
467.1487363991976736
 20
74.7142735851757038
 30
0.0
 40
0.004532910508071
 50
270.6109387312224044
 51
305.0786591015402109
  0
ARC
  5
6C33
  8
0
 10
467.1494058293886837
 20
74.7133203278203979
 30
0.0
 40
0.0033680773156365
 50
305.0786591015440194
 51
354.7356824230033112
  0
ARC
  5
6C34
  8
0
 10
466.9898354065730928
 20
74.728023002357304
 30
0.0
 40
0.1636144141726761
 50
354.7356824230029133
 51
354.9485546331936234
  0
LINE
  5
6C35
  8
0
 10
467.1528143489338163
 20
74.7136167234469468
 30
0.0
 11
467.1528103800521876
 21
74.723317191134683
 31
0.0
  0
ARC
  5
6C36
  8
0
 10
467.115815814752807
 20
74.7196728107083317
 30
0.0
 40
0.0036148021798089
 50
192.9695854072355132
 51
238.5622477530397987
  0
ARC
  5
6C37
  8
0
 10
467.1161485136465785
 20
74.7202170522939184
 30
0.0
 40
0.0042526794857809
 50
238.5622477530392018
 51
267.469906488494189
  0
LINE
  5
6C38
  8
0
 10
467.1159607828859066
 20
74.7159685184326747
 30
0.0
 11
467.1502585727743053
 21
74.7158956001588734
 31
0.0
  0
ARC
  5
6C39
  8
0
 10
467.1488537889227928
 20
74.7196622795642611
 30
0.0
 40
0.004020110870652
 50
290.4530106981284803
 51
349.9457548174362955
  0
ARC
  5
6C3A
  8
0
 10
467.1199487054931865
 20
74.7003632960246051
 30
0.0
 40
0.0161075605134214
 50
104.3449881626094964
 51
122.669070570168401
  0
ARC
  5
6C3B
  8
0
 10
467.11221707884539
 20
74.7124208545932049
 30
0.0
 40
0.0017840564289775
 50
122.6690705701955011
 51
161.5324682260890086
  0
ARC
  5
6C3C
  8
0
 10
467.1114661851481742
 20
74.7126716270467739
 30
0.0
 40
0.0009923947791019
 50
161.5324682260832105
 51
211.5840662266265042
  0
ARC
  5
6C3D
  8
0
 10
467.1129403941448004
 20
74.7135780014315856
 30
0.0
 40
0.0027229457581609
 50
211.5840662266230083
 51
234.8683668204934918
  0
ARC
  5
6C3E
  8
0
 10
467.1162981145280924
 20
74.718349951807653
 30
0.0
 40
0.0085578233544585
 50
234.8683668204905928
 51
246.081141216420292
  0
ARC
  5
6C3F
  8
0
 10
467.1223177591355125
 20
74.7319219897818812
 30
0.0
 40
0.0234049219253326
 50
246.081141216420292
 51
254.2920893145962111
  0
LINE
  5
6C40
  8
0
 10
467.1527628601182869
 20
74.7130456392275022
 30
0.0
 11
467.1727716618627255
 21
74.7113507536814154
 31
0.0
  0
LINE
  5
6C41
  8
0
 10
467.1727585977399144
 20
74.7248096472764161
 30
0.0
 11
467.1727776389639075
 21
74.7051930369082129
 31
0.0
  0
ARC
  5
6C42
  8
0
 10
467.1761921851452826
 20
74.7051963513003159
 30
0.0
 40
0.0034145477900798
 50
180.0556151855668077
 51
227.1275562616874026
  0
ARC
  5
6C43
  8
0
 10
467.1761746315806931
 20
74.7051774431866136
 30
0.0
 40
0.0033887477049152
 50
227.1275562616883121
 51
265.597102659077791
  0
LINE
  5
6C44
  8
0
 10
467.1759144792929987
 20
74.701798696111922
 30
0.0
 11
467.2649311916857187
 21
74.6971547545676628
 31
0.0
  0
LINE
  5
6C45
  8
0
 10
467.2649311916857187
 20
74.6971547545676628
 30
0.0
 11
467.2841552004157961
 21
74.6985919844194228
 31
0.0
  0
ARC
  5
6C46
  8
0
 10
467.2824163736224818
 20
74.7021680309021434
 30
0.0
 40
0.0039763836665711
 50
295.9310034403256964
 51
3.8349301835361498
  0
LINE
  5
6C47
  8
0
 10
467.286383853685777
 20
74.7024339801676547
 30
0.0
 11
467.286383853685777
 21
74.7299463780341995
 31
0.0
  0
ARC
  5
6C48
  8
0
 10
467.1762175176331766
 20
74.7266537554560415
 30
0.0
 40
0.0031183257768971
 50
214.9582644451016904
 51
256.8123971459002064
  0
ARC
  5
6C49
  8
0
 10
467.1760496873853867
 20
74.7259375104921872
 30
0.0
 40
0.0023826805904865
 50
256.8123971459002064
 51
268.3852594658873159
  0
LINE
  5
6C4A
  8
0
 10
467.1759825462856952
 20
74.7235557760676556
 30
0.0
 11
467.2645347161857217
 21
74.7282838174676556
 31
0.0
  0
LINE
  5
6C4B
  8
0
 10
467.1759576285999742
 20
74.7235568133256152
 30
0.0
 11
467.2033951146858044
 21
74.7225512142676536
 31
0.0
  0
LINE
  5
6C4C
  8
0
 10
467.2033951146858044
 20
74.7225512142676536
 30
0.0
 11
467.2846505259856826
 21
74.7268273202676596
 31
0.0
  0
LINE
  5
6C4D
  8
0
 10
467.2645347161857217
 20
74.7282838174676556
 30
0.0
 11
467.2846505259856826
 21
74.7268273202676596
 31
0.0
  0
ARC
  5
6C4E
  8
0
 10
467.2830331993465052
 20
74.7297672562621926
 30
0.0
 40
0.0033554387357805
 50
298.8162075603618177
 51
356.9399524209213723
  0
ARC
  5
6C4F
  8
0
 10
467.2655938439656893
 20
74.7304929399651456
 30
0.0
 40
0.0024498926227871
 50
211.7344078169950876
 51
244.3853706222695052
  0
LINE
  5
6C50
  8
0
 10
467.2066265821181901
 20
74.7227212718312899
 30
0.0
 11
467.2067376811908161
 21
74.7068555439382607
 31
0.0
  0
ARC
  5
6C51
  8
0
 10
467.2025293619336139
 20
74.706826075364873
 30
0.0
 40
0.0042084224322003
 50
315.1371779914759941
 51
0.4012046577629917
  0
ARC
  5
6C52
  8
0
 10
467.2027279027150257
 20
74.7066284830103342
 30
0.0
 40
0.0039283132027596
 50
282.8778752573472843
 51
315.1371779914788931
  0
LINE
  5
6C53
  8
0
 10
467.203603420396405
 20
74.7027989773753518
 30
0.0
 11
467.1759144792929987
 21
74.701798696111922
 31
0.0
  0
LINE
  5
6C54
  8
0
 10
467.2067308913410102
 20
74.7068560507853476
 30
0.0
 11
467.2863838513895871
 21
74.7026843202409054
 31
0.0
  0
LINE
  5
6C55
  8
0
 10
467.286383853685777
 20
74.7059827272229739
 30
0.0
 11
467.4091249030973927
 21
74.7036411796872244
 31
0.0
  0
LINE
  5
6C56
  8
0
 10
467.409103442185824
 20
74.7289394195556724
 30
0.0
 11
467.3191425718816276
 21
74.7308168489702638
 31
0.0
  0
LINE
  5
6C57
  8
0
 10
467.409103442185824
 20
74.7289394195556724
 30
0.0
 11
467.4726832867856956
 21
74.7285836149194154
 31
0.0
  0
LINE
  5
6C58
  8
0
 10
467.4726832868199153
 20
74.7298878076141762
 30
0.0
 11
467.4155981575490273
 21
74.7296264204534992
 31
0.0
  0
LINE
  5
6C59
  8
0
 10
467.4155981575490273
 20
74.7296264204534992
 30
0.0
 11
467.4097870963506125
 21
74.7313512129077537
 31
0.0
  0
LINE
  5
6C5A
  8
0
 10
467.4097870963506125
 20
74.7313512129077537
 30
0.0
 11
467.4093707854768809
 21
74.7322391973803519
 31
0.0
  0
LINE
  5
6C5B
  8
0
 10
467.4097870965974266
 20
74.6940145302008176
 30
0.0
 11
467.4155981576848831
 21
74.6957393226267641
 31
0.0
  0
ARC
  5
6C5C
  8
0
 10
467.415537726279922
 20
74.6959429242777588
 30
0.0
 40
0.0002123807594634
 50
286.5315183804647745
 51
335.9661248017883963
  0
ARC
  5
6C5D
  8
0
 10
467.4114249793320823
 20
74.6977769515682297
 30
0.0
 40
0.0047155289426169
 50
335.9661248017918069
 51
350.9594992060381742
  0
ARC
  5
6C5E
  8
0
 10
467.4000010848176885
 20
74.6995945974412763
 30
0.0
 40
0.0162831217083414
 50
350.95949920603789
 51
0.9826662076308617
  0
LINE
  5
6C5F
  8
0
 10
467.416281811756221
 20
74.6998738516754628
 30
0.0
 11
467.4162818117857228
 21
74.7288992480642094
 31
0.0
  0
LINE
  5
6C60
  8
0
 10
467.4155981576848831
 20
74.6957393226267641
 30
0.0
 11
467.4726832867856956
 21
74.6954779354676646
 31
0.0
  0
ARC
  5
6C61
  8
0
 10
467.4811178759140944
 20
67.7263417816901239
 30
0.0
 40
7.0193602735560958
 50
87.8083963419457803
 51
90.0688476522711312
  0
ARC
  5
6C62
  8
0
 10
467.6686986214000967
 20
72.6279319158292225
 30
0.0
 40
2.114182154550964
 50
84.4446361922610436
 51
87.8083963419457803
  0
ARC
  5
6C63
  8
0
 10
467.8512087438791127
 20
74.5043652461808108
 30
0.0
 40
0.2288938508526526
 50
75.8824996670471847
 51
84.4446361922610436
  0
ARC
  5
6C64
  8
0
 10
467.9036728427961975
 20
74.7129638981347171
 30
0.0
 40
0.0137988037870096
 50
60.835173093347251
 51
75.8824996670471847
  0
ARC
  5
6C65
  8
0
 10
467.9033292924817147
 20
74.7123483001401212
 30
0.0
 40
0.0145037773394081
 50
54.0131691713965196
 51
60.8351730933468389
  0
ARC
  5
6C66
  8
0
 10
467.9105679430869031
 20
74.7223162651485211
 30
0.0
 40
0.002184751850619
 50
22.4641732651691797
 51
54.0131691713924482
  0
ARC
  5
6C67
  8
0
 10
467.9113269773127968
 20
74.7226381956329675
 30
0.0
 40
0.00136032322633
 50
4.4024938786383663
 51
22.1495120075064484
  0
ARC
  5
6C68
  8
0
 10
467.8898751050311944
 20
74.7245160605527161
 30
0.0
 40
0.0228887345597845
 50
348.408678815728706
 51
355.1916671388128179
  0
ARC
  5
6C69
  8
0
 10
467.902161842356918
 20
74.7219958950692273
 30
0.0
 40
0.0103462009970035
 50
309.2344090553979186
 51
348.4086788157251249
  0
ARC
  5
6C6A
  8
0
 10
467.8941080103975878
 20
74.7318587694324634
 30
0.0
 40
0.0230796412208148
 50
290.0411572699966882
 51
309.2344090553971796
  0
ARC
  5
6C6B
  8
0
 10
467.8799405938801783
 20
74.7706965993618269
 30
0.0
 40
0.0644208159066293
 50
279.6736304928069217
 51
290.0411572699966882
  0
ARC
  5
6C6C
  8
0
 10
467.786624940703291
 20
75.3181325652751923
 30
0.0
 40
0.6197531019330244
 50
277.5178600101953066
 51
279.6736304928069217
  0
ARC
  5
6C6D
  8
0
 10
467.8091370699681875
 20
75.1475468830114437
 30
0.0
 40
0.4476883729574819
 50
273.8845431409142179
 51
277.5178600101953066
  0
ARC
  5
6C6E
  8
0
 10
470.6204017929306929
 20
33.7458359401943326
 30
0.0
 40
41.0493582488824273
 50
93.8845431409141753
 51
93.9573846978739624
  0
ARC
  5
6C6F
  8
0
 10
467.6963959082531801
 20
76.0128163420034326
 30
0.0
 40
1.3186419718094
 50
271.3718527401338179
 51
273.9573846978739198
  0
ARC
  5
6C70
  8
0
 10
467.8324914270439194
 20
70.3298385310508962
 30
0.0
 40
4.3659652081119882
 50
91.3718527401337468
 51
92.2347331032349302
  0
ARC
  5
6C71
  8
0
 10
467.5997278166184969
 20
76.2945817296764801
 30
0.0
 40
1.603317858043311
 50
270.2350209384765094
 51
272.2347331032348734
  0
ARC
  5
6C72
  8
0
 10
467.6233818630723249
 20
70.5279915785475708
 30
0.0
 40
4.1633208062923064
 50
90.235020938476481
 51
91.1875600569242977
  0
ARC
  5
6C73
  8
0
 10
467.50376592200098
 20
76.2982320767523134
 30
0.0
 40
1.608159366114112
 50
270.6569456715027968
 51
271.1875600569243261
  0
ARC
  5
6C74
  8
0
 10
467.4747873023707143
 20
67.1046534637610961
 30
0.0
 40
7.6305341506782582
 50
88.6076796701644156
 51
90.0157985289343969
  0
ARC
  5
6C75
  8
0
 10
467.5473142126646735
 20
70.0886419733113257
 30
0.0
 40
4.6456643749854214
 50
87.7935621487667959
 51
88.6076796701644156
  0
ARC
  5
6C76
  8
0
 10
467.586799690144403
 20
71.1134760750080659
 30
0.0
 40
3.6200698942415208
 50
86.5419238272223197
 51
87.7935621487667959
  0
ARC
  5
6C77
  8
0
 10
467.7274698487569822
 20
73.4413650851926718
 30
0.0
 40
1.2879345342629469
 50
84.1382908603197137
 51
86.5419238272223197
  0
ARC
  5
6C78
  8
0
 10
467.8159042022036829
 20
74.3027563711534924
 30
0.0
 40
0.4220156105762316
 50
80.67366828083901
 51
84.1382908603197137
  0
ARC
  5
6C79
  8
0
 10
467.865867860381627
 20
74.6069894666699014
 30
0.0
 40
0.1137070905090453
 50
74.5369488217597791
 51
80.67366828083901
  0
ARC
  5
6C7A
  8
0
 10
467.8898819511911142
 20
74.693798829668296
 30
0.0
 40
0.0236374393406958
 50
61.4046287106013082
 51
74.5369488217629197
  0
ARC
  5
6C7B
  8
0
 10
467.8994381255197936
 20
74.7113294628190516
 30
0.0
 40
0.0036713789764735
 50
36.1548138465351272
 51
61.4046287105976702
  0
ARC
  5
6C7C
  8
0
 10
467.9012322039375817
 20
74.7126403581794989
 30
0.0
 40
0.0014494059758173
 50
359.5023981948235132
 51
36.1548138465475333
  0
ARC
  5
6C7D
  8
0
 10
467.9014379459014208
 20
74.7126385713088439
 30
0.0
 40
0.0012436562526526
 50
315.9337851686469776
 51
359.5023981948136793
  0
ARC
  5
6C7E
  8
0
 10
467.8962296941660952
 20
74.7176797666018615
 30
0.0
 40
0.0084920723638239
 50
307.7725637566633168
 51
315.9337851686466934
  0
ARC
  5
6C7F
  8
0
 10
467.8984818808498858
 20
74.7147733923569177
 30
0.0
 40
0.0048152046601268
 50
291.85407774299631
 51
307.7725637566633168
  0
ARC
  5
6C80
  8
0
 10
468.0104432235478953
 20
74.4356144857870703
 30
0.0
 40
0.2959588590089244
 50
111.8540777429962958
 51
112.3643727536621952
  0
ARC
  5
6C81
  8
0
 10
467.8914298418994804
 20
74.7248729815523234
 30
0.0
 40
0.0168264705443498
 50
281.2401826700374272
 51
292.3643727536622237
  0
ARC
  5
6C82
  8
0
 10
467.9026532617284033
 20
74.6683984691312332
 30
0.0
 40
0.040752481389978
 50
101.2401826700372993
 51
106.1426027265411989
  0
ARC
  5
6C83
  8
0
 10
467.8767168334886719
 20
74.7620412281450655
 30
0.0
 40
0.0564204228545497
 50
280.2904731405988059
 51
285.0035512265790771
  0
ARC
  5
6C84
  8
0
 10
467.4754166152707171
 20
67.8299822888838264
 30
0.0
 40
6.9025227465809911
 50
89.1498529303091232
 51
90.0226885441066287
  0
ARC
  5
6C85
  8
0
 10
467.4951685180770937
 20
69.1610668208351456
 30
0.0
 40
5.5712916739025742
 50
88.4463488166961156
 51
89.1498529303091232
  0
ARC
  5
6C86
  8
0
 10
467.5226892531538851
 20
70.1757318179815996
 30
0.0
 40
4.5562535232435053
 50
87.7686508654630586
 51
88.4463488166961156
  0
ARC
  5
6C87
  8
0
 10
467.5853169239355225
 20
71.7830495135393249
 30
0.0
 40
2.9477161753399779
 50
86.359267739273136
 51
87.7686508654630586
  0
ARC
  5
6C88
  8
0
 10
467.7148206085763036
 20
73.8183613095989131
 30
0.0
 40
0.9082884831883621
 50
82.7879748649762632
 51
86.359267739273136
  0
ARC
  5
6C89
  8
0
 10
467.8118024985025158
 20
74.5847584035771405
 30
0.0
 40
0.135779588332173
 50
77.2504388697379767
 51
82.7879748649762632
  0
ARC
  5
6C8A
  8
0
 10
467.8279847234966269
 20
74.6562760926201889
 30
0.0
 40
0.0624539839922275
 50
71.1676642532071781
 51
77.2504388697379767
  0
ARC
  5
6C8B
  8
0
 10
467.8449933609526852
 20
74.7061463622599291
 30
0.0
 40
0.0097630213700454
 50
50.4777108443350926
 51
71.1676642532103756
  0
ARC
  5
6C8C
  8
0
 10
467.8503748652540253
 20
74.7126694771216506
 30
0.0
 40
0.0013065672642324
 50
8.5020578546413343
 51
50.4777108443050722
  0
ARC
  5
6C8D
  8
0
 10
467.8505209661577169
 20
74.7126913174126628
 30
0.0
 40
0.0011588429521362
 50
339.5216316637602745
 51
8.5020578546393217
  0
ARC
  5
6C8E
  8
0
 10
467.8500875941962249
 20
74.7128531620870575
 30
0.0
 40
0.0016214496486385
 50
309.7107865880311124
 51
339.521631663761525
  0
ARC
  5
6C8F
  8
0
 10
467.8454276923083057
 20
74.7184638914599759
 30
0.0
 40
0.0089149378196254
 50
301.6940061524704788
 51
309.7107865880311124
  0
ARC
  5
6C90
  8
0
 10
467.8443827972582199
 20
74.7201561166655495
 30
0.0
 40
0.0109037645622718
 50
283.6879741019203038
 51
301.6940061524738894
  0
ARC
  5
6C91
  8
0
 10
467.7874302990281876
 20
74.9539979474330806
 30
0.0
 40
0.251581118859138
 50
279.9882324078744773
 51
283.6879741019203038
  0
ARC
  5
6C92
  8
0
 10
467.7097761209350892
 20
75.6405169741330781
 30
0.0
 40
0.942127111140002
 50
272.922023057039894
 51
277.3968154148043936
  0
ARC
  5
6C93
  8
0
 10
467.5684423731941024
 20
77.9954977656404083
 30
0.0
 40
3.3013182214459289
 50
271.6885607421667146
 51
273.2882347528146738
  0
ARC
  5
6C94
  8
0
 10
467.4848581814217141
 20
80.721556121199697
 30
0.0
 40
6.0286566304464886
 50
270.323812990331021
 51
271.7191634208434152
  0
ARC
  5
6C95
  8
0
 10
467.4729635058873214
 20
81.8204644276142261
 30
0.0
 40
7.1276168769549288
 50
269.9977474417967755
 51
270.3695035728164839
  0
LINE
  5
6C96
  8
0
 10
467.4726832867856956
 20
74.6937265347676487
 30
0.0
 11
467.5355794769740783
 21
74.6940145302008176
 31
0.0
  0
ARC
  5
6C97
  8
0
 10
467.5356133104020842
 20
74.6941316112367986
 30
0.0
 40
0.0001218715300846
 50
253.8820571425492858
 51
278.545795636639582
  0
ARC
  5
6C98
  8
0
 10
467.5356060772880937
 20
74.6941601857511728
 30
0.0
 40
0.0001512315680775
 50
279.6470761507155771
 51
310.2156793133881933
  0
ARC
  5
6C99
  8
0
 10
467.5353194462275042
 20
74.6944861754847551
 30
0.0
 40
0.0005852919953856
 50
311.0376454313122849
 51
322.7948632962895772
  0
ARC
  5
6C9A
  8
0
 10
467.5331987624580279
 20
74.695430868749483
 30
0.0
 40
0.002894509324967
 50
333.3433302047856159
 51
352.4974158648853972
  0
ARC
  5
6C9B
  8
0
 10
467.5228089762969148
 20
74.6972463221181329
 30
0.0
 40
0.0134397068605809
 50
350.6071773292205194
 51
357.4857649395884778
  0
LINE
  5
6C9C
  8
0
 10
467.5362357454716857
 20
74.6966567544573508
 30
0.0
 11
467.5362631313856809
 21
74.7289394195556724
 31
0.0
  0
LINE
  5
6C9D
  8
0
 10
467.8388353794310888
 20
74.7178197426518693
 30
0.0
 11
467.8388250186936261
 21
74.7166153566112712
 31
0.0
  0
ARC
  5
6C9E
  8
0
 10
467.8335282287981158
 20
74.7166609222749116
 30
0.0
 40
0.0052969858814114
 50
312.7082029060825903
 51
359.5071249054734039
  0
ARC
  5
6C9F
  8
0
 10
467.8296618165254017
 20
74.7208497096894035
 30
0.0
 40
0.01099743181707
 50
285.8598287843781236
 51
312.7082029060828745
  0
ARC
  5
6CA0
  8
0
 10
467.8398015144209126
 20
74.6851590691009477
 30
0.0
 40
0.0261056044337018
 50
105.8598287843780952
 51
110.9340487948375937
  0
LINE
  5
6CA1
  8
0
 10
467.830474162085693
 20
74.7095415029676531
 30
0.0
 11
467.8293853075857101
 21
74.7093911392676517
 31
0.0
  0
LINE
  5
6CA2
  8
0
 10
467.8293853075857101
 20
74.7093911392676517
 30
0.0
 11
467.7965818413528041
 21
74.7097409323549755
 31
0.0
  0
ARC
  5
6CA3
  8
0
 10
467.7966301743737745
 20
74.7142735851757038
 30
0.0
 40
0.004532910508071
 50
234.9213408984597038
 51
269.3890612687777093
  0
ARC
  5
6CA4
  8
0
 10
467.7959607441827075
 20
74.7133203278203979
 30
0.0
 40
0.0033680773156365
 50
185.2643175769966035
 51
234.921340898456009
  0
ARC
  5
6CA5
  8
0
 10
467.9555311669984121
 20
74.728023002357304
 30
0.0
 40
0.1636144141726761
 50
185.0514453668060071
 51
185.2643175769970014
  0
LINE
  5
6CA6
  8
0
 10
467.7925522246375749
 20
74.7136167234469468
 30
0.0
 11
467.7925561935193173
 21
74.723317191134683
 31
0.0
  0
ARC
  5
6CA7
  8
0
 10
467.8295507588186979
 20
74.7196728107083317
 30
0.0
 40
0.0036148021798089
 50
301.4377522469600876
 51
347.0304145927639752
  0
ARC
  5
6CA8
  8
0
 10
467.8292180599249264
 20
74.7202170522939184
 30
0.0
 40
0.0042526794857809
 50
272.530093511505811
 51
301.4377522469608266
  0
LINE
  5
6CA9
  8
0
 10
467.8294057906855983
 20
74.7159685184326747
 30
0.0
 11
467.7951080007971996
 21
74.7158956001588734
 31
0.0
  0
ARC
  5
6CAA
  8
0
 10
467.7965127846487121
 20
74.7196622795642611
 30
0.0
 40
0.004020110870652
 50
190.0542451825631929
 51
249.546989301871406
  0
ARC
  5
6CAB
  8
0
 10
467.8254178680782047
 20
74.7003632960246051
 30
0.0
 40
0.0161075605134214
 50
57.3309294298315422
 51
75.6550118373904752
  0
ARC
  5
6CAC
  8
0
 10
467.8331494947261149
 20
74.7124208545932049
 30
0.0
 40
0.0017840564289775
 50
18.4675317739109488
 51
57.3309294298044421
  0
ARC
  5
6CAD
  8
0
 10
467.8339003884232739
 20
74.7126716270467739
 30
0.0
 40
0.0009923947791019
 50
328.4159337733735242
 51
18.4675317739167397
  0
ARC
  5
6CAE
  8
0
 10
467.8324261794267045
 20
74.7135780014315856
 30
0.0
 40
0.0027229457581609
 50
305.1316331795064798
 51
328.415933773376878
  0
ARC
  5
6CAF
  8
0
 10
467.8290684590434125
 20
74.718349951807653
 30
0.0
 40
0.0085578233544585
 50
293.918858783579708
 51
305.1316331795093788
  0
ARC
  5
6CB0
  8
0
 10
467.8230488144359924
 20
74.7319219897818812
 30
0.0
 40
0.0234049219253326
 50
285.7079106854038173
 51
293.918858783579708
  0
LINE
  5
6CB1
  8
0
 10
467.7926037134531043
 20
74.7130456392275022
 30
0.0
 11
467.7725949117087794
 21
74.7113507536814154
 31
0.0
  0
LINE
  5
6CB2
  8
0
 10
467.7726079758315905
 20
74.7248096472764161
 30
0.0
 11
467.7725889346077111
 21
74.7051930369082129
 31
0.0
  0
ARC
  5
6CB3
  8
0
 10
467.7691743884262223
 20
74.7051963513003159
 30
0.0
 40
0.0034145477900798
 50
312.8724437383125974
 51
359.9443848144327944
  0
ARC
  5
6CB4
  8
0
 10
467.7691919419908118
 20
74.7051774431866136
 30
0.0
 40
0.0033887477049152
 50
274.4028973409220953
 51
312.8724437383116879
  0
LINE
  5
6CB5
  8
0
 10
467.7694520942785061
 20
74.701798696111922
 30
0.0
 11
467.6804353818857862
 21
74.6971547545676628
 31
0.0
  0
LINE
  5
6CB6
  8
0
 10
467.6804353818857862
 20
74.6971547545676628
 30
0.0
 11
467.6612113731557088
 21
74.6985919844194228
 31
0.0
  0
ARC
  5
6CB7
  8
0
 10
467.662950199949023
 20
74.7021680309021434
 30
0.0
 40
0.0039763836665711
 50
176.1650698164638129
 51
244.0689965596743889
  0
LINE
  5
6CB8
  8
0
 10
467.6589827198857279
 20
74.7024339801676547
 30
0.0
 11
467.6589827198857279
 21
74.7299463780341995
 31
0.0
  0
ARC
  5
6CB9
  8
0
 10
467.7691490559383283
 20
74.7266537554560415
 30
0.0
 40
0.0031183257768971
 50
283.1876028540997936
 51
325.0417355548980254
  0
ARC
  5
6CBA
  8
0
 10
467.7693168861861182
 20
74.7259375104921872
 30
0.0
 40
0.0023826805904865
 50
271.6147405341126273
 51
283.1876028540996799
  0
LINE
  5
6CBB
  8
0
 10
467.7693840272858097
 20
74.7235557760676556
 30
0.0
 11
467.6808318573857832
 21
74.7282838174676556
 31
0.0
  0
LINE
  5
6CBC
  8
0
 10
467.7694089449714738
 20
74.7235568133256152
 30
0.0
 11
467.7419714588857005
 21
74.7225512142676536
 31
0.0
  0
LINE
  5
6CBD
  8
0
 10
467.7419714588857005
 20
74.7225512142676536
 30
0.0
 11
467.6607160475858223
 21
74.7268273202676596
 31
0.0
  0
LINE
  5
6CBE
  8
0
 10
467.6808318573857832
 20
74.7282838174676556
 30
0.0
 11
467.6607160475858223
 21
74.7268273202676596
 31
0.0
  0
ARC
  5
6CBF
  8
0
 10
467.662333374224886
 20
74.7297672562621926
 30
0.0
 40
0.0033554387357805
 50
183.0600475790782014
 51
241.1837924396382107
  0
ARC
  5
6CC0
  8
0
 10
467.6797727296058156
 20
74.7304929399651456
 30
0.0
 40
0.0024498926227871
 50
295.6146293777305232
 51
328.2655921830049124
  0
LINE
  5
6CC1
  8
0
 10
467.7387399914533148
 20
74.7227212718312899
 30
0.0
 11
467.7386288923805751
 21
74.7068555439382607
 31
0.0
  0
ARC
  5
6CC2
  8
0
 10
467.742837211637891
 20
74.706826075364873
 30
0.0
 40
0.0042084224322003
 50
179.5987953422369969
 51
224.8628220085238922
  0
ARC
  5
6CC3
  8
0
 10
467.7426386708564792
 20
74.7066284830103342
 30
0.0
 40
0.0039283132027596
 50
224.8628220085211069
 51
257.1221247426527157
  0
LINE
  5
6CC4
  8
0
 10
467.7417631531750999
 20
74.7027989773753518
 30
0.0
 11
467.7694520942785061
 21
74.701798696111922
 31
0.0
  0
LINE
  5
6CC5
  8
0
 10
467.7386356822304947
 20
74.7068560507853476
 30
0.0
 11
467.6589827221819178
 21
74.7026843202409054
 31
0.0
  0
LINE
  5
6CC6
  8
0
 10
467.6589827198857279
 20
74.7059827272229739
 30
0.0
 11
467.5362416704741122
 21
74.7036411796872244
 31
0.0
  0
LINE
  5
6CC7
  8
0
 10
467.5362631313856809
 20
74.7289394195556724
 30
0.0
 11
467.6262240016898772
 21
74.7308168489702638
 31
0.0
  0
LINE
  5
6CC8
  8
0
 10
467.5362631313856809
 20
74.7289394195556724
 30
0.0
 11
467.4726832867856956
 21
74.7285836149194154
 31
0.0
  0
LINE
  5
6CC9
  8
0
 10
467.4726832867515895
 20
74.7298878076141762
 30
0.0
 11
467.5297684160224776
 21
74.7296264204534992
 31
0.0
  0
LINE
  5
6CCA
  8
0
 10
467.5297684160224776
 20
74.7296264204534992
 30
0.0
 11
467.5355794772207787
 21
74.7313512129077537
 31
0.0
  0
LINE
  5
6CCB
  8
0
 10
467.5355794772207787
 20
74.7313512129077537
 30
0.0
 11
467.535995788094624
 21
74.7322391973803519
 31
0.0
  0
LINE
  5
6CCC
  8
0
 10
467.5355794769740783
 20
74.6940145302008176
 30
0.0
 11
467.5297684158866218
 21
74.6957393226267641
 31
0.0
  0
ARC
  5
6CCD
  8
0
 10
467.529828847291526
 20
74.6959429242777588
 30
0.0
 40
0.0002123807594634
 50
204.03387519821149
 51
253.4684816195353108
  0
ARC
  5
6CCE
  8
0
 10
467.5339415942394226
 20
74.6977769515682297
 30
0.0
 40
0.0047155289426169
 50
189.0405007939617121
 51
204.0338751982081931
  0
ARC
  5
6CCF
  8
0
 10
467.5453654887538164
 20
74.6995945974412763
 30
0.0
 40
0.0162831217083414
 50
179.0173337923687029
 51
189.04050079396211
  0
LINE
  5
6CD0
  8
0
 10
467.5290847618152839
 20
74.6998738516754628
 30
0.0
 11
467.5290847617857253
 21
74.7288992480642094
 31
0.0
  0
LINE
  5
6CD1
  8
0
 10
467.5297684158866218
 20
74.6957393226267641
 30
0.0
 11
467.4726832867856956
 21
74.6954779354676646
 31
0.0
  0
LINE
  5
6CD2
  8
0
 10
472.5976832867858093
 20
70.246682871567657
 30
0.0
 11
472.5976832867858093
 21
69.8726828715676618
 31
0.0
  0
ARC
  5
6CD3
  8
0
 10
472.5776832867857138
 20
70.246682871567657
 30
0.0
 40
0.02
 50
359.9999999999959073
 51
90.0000000000065086
  0
LINE
  5
6CD4
  8
0
 10
471.0706832867857088
 20
71.7711828715676603
 30
0.0
 11
471.0706832867857088
 21
71.4586828715676603
 31
0.0
  0
ARC
  5
6CD5
  8
0
 10
471.0846832867857188
 20
71.4586828715676603
 30
0.0
 40
0.014
 50
180.0
 51
270.0
  0
LINE
  5
6CD6
  8
0
 10
471.0706832867857088
 20
71.3966828715676627
 30
0.0
 11
471.0706832867857088
 21
70.3066828715676593
 31
0.0
  0
LINE
  5
6CD7
  8
0
 10
471.8746832867856824
 20
71.7681828715676602
 30
0.0
 11
471.8746832867856824
 21
71.4586828715676603
 31
0.0
  0
ARC
  5
6CD8
  8
0
 10
471.8606832867856724
 20
71.4586828715676603
 30
0.0
 40
0.014
 50
270.0
 51
0.0
  0
LINE
  5
6CD9
  8
0
 10
471.8746832867856824
 20
71.3966828715676627
 30
0.0
 11
471.8746832867856824
 21
70.3066828715676593
 31
0.0
  0
ARC
  5
6CDA
  8
0
 10
471.1106832867857861
 20
71.3966828715676627
 30
0.0
 40
0.04
 50
90.0
 51
180.0000000000007958
  0
ARC
  5
6CDB
  8
0
 10
471.8346832867857188
 20
71.3966828715676627
 30
0.0
 40
0.04
 50
359.9999999999996021
 51
90.0
  0
LINE
  5
6CDC
  8
0
 10
471.1226832867857865
 20
71.4366828715676547
 30
0.0
 11
471.1226832867857865
 21
71.4446828715676645
 31
0.0
  0
LINE
  5
6CDD
  8
0
 10
471.8226832867857183
 20
71.4366828715676547
 30
0.0
 11
471.8226832867857183
 21
71.4446828715676645
 31
0.0
  0
ARC
  5
6CDE
  8
0
 10
471.030683286785802
 20
70.3066828715676593
 30
0.0
 40
0.04
 50
270.0
 51
359.9999999999996021
  0
ARC
  5
6CDF
  8
0
 10
471.9146832867857029
 20
70.3066828715676593
 30
0.0
 40
0.04
 50
179.9999999999992042
 51
270.0
  0
ARC
  5
6CE0
  8
0
 10
474.238683286785772
 20
72.7391828715676638
 30
0.0
 40
0.02
 50
0.0000000000024427
 51
89.9999999999934914
  0
ARC
  5
6CE1
  8
0
 10
474.238683286785772
 20
71.9721828715676537
 30
0.0
 40
0.02
 50
270.0
 51
0.0000000000008142
  0
LINE
  5
6CF1
  8
0
 10
462.3476832867858093
 20
69.8726828715676618
 30
0.0
 11
464.5976832867858093
 21
69.8726828715676618
 31
0.0
  0
LINE
  5
6CF2
  8
0
 10
460.6866832867856942
 20
72.7391828715676638
 30
0.0
 11
460.6866832867856942
 21
71.9721828715676537
 31
0.0
  0
LINE
  5
6CF4
  8
0
 10
464.5976832867550002
 20
70.246682871567657
 30
0.0
 11
464.5976832867550002
 21
69.8726828715676618
 31
0.0
  0
LINE
  5
6CF5
  8
0
 10
462.8866832867856829
 20
72.7491828715676547
 30
0.0
 11
462.8866832867856829
 21
71.9621828715676486
 31
0.0
  0
ARC
  5
6CF6
  8
0
 10
462.876683286785692
 20
72.7491828715676547
 30
0.0
 40
0.01
 50
0.0
 51
90.0
  0
ARC
  5
6CF7
  8
0
 10
462.876683286785692
 20
71.9621828715676486
 30
0.0
 40
0.01
 50
270.0
 51
0.0
  0
LINE
  5
6CFC
  8
0
 10
460.706683286785676
 20
72.7591828715676598
 30
0.0
 11
462.876683286785692
 21
72.7591828715676598
 31
0.0
  0
ARC
  5
6CFD
  8
0
 10
462.8866832867856829
 20
71.7711828715676603
 30
0.0
 40
0.9879999999999999
 50
0.0
 51
89.1764183402088548
  0
ARC
  5
6CFE
  8
0
 10
462.9006832867856929
 20
72.7450822503537893
 30
0.0
 40
0.014
 50
89.1764183402120949
 51
180.0
  0
LINE
  5
6CFF
  8
0
 10
460.706683286785676
 20
71.9521828715676577
 30
0.0
 11
462.876683286785692
 21
71.9521828715676577
 31
0.0
  0
ARC
  5
6D00
  8
0
 10
462.8866832867856829
 20
71.7681828715676602
 30
0.0
 40
0.184
 50
0.0
 51
85.9453999801028061
  0
ARC
  5
6D01
  8
0
 10
462.9006832867856929
 20
71.9656873018977024
 30
0.0
 40
0.014
 50
180.0
 51
265.9453999801028203
  0
LINE
  5
6D02
  8
0
 10
462.3676832867856774
 20
70.266682871567653
 30
0.0
 11
464.5776832867857138
 21
70.266682871567653
 31
0.0
  0
ARC
  5
6D03
  8
0
 10
464.5776832867549047
 20
70.246682871567657
 30
0.0
 40
0.02
 50
0.0
 51
90.0
  0
LINE
  5
6D04
  8
0
 10
463.0846832867857756
 20
71.4446828715676645
 30
0.0
 11
463.8606832867856724
 21
71.4446828715676645
 31
0.0
  0
LINE
  5
6D05
  8
0
 10
463.1106832867857861
 20
71.4366828715676547
 30
0.0
 11
463.8346832867857188
 21
71.4366828715676547
 31
0.0
  0
LINE
  5
6D06
  8
0
 10
462.3476832867858093
 20
70.246682871567657
 30
0.0
 11
462.3476832867858093
 21
69.8726828715676618
 31
0.0
  0
ARC
  5
6D07
  8
0
 10
462.3676832867856774
 20
70.246682871567657
 30
0.0
 40
0.02
 50
89.9999999999934914
 51
180.0000000000040075
  0
LINE
  5
6D08
  8
0
 10
463.8746832867857961
 20
71.7711828715676603
 30
0.0
 11
463.8746832867857961
 21
71.4586828715676603
 31
0.0
  0
ARC
  5
6D09
  8
0
 10
463.8606832867856724
 20
71.4586828715676603
 30
0.0
 40
0.014
 50
270.0
 51
0.0
  0
LINE
  5
6D0A
  8
0
 10
463.8746832867857961
 20
71.3966828715676627
 30
0.0
 11
463.8746832867857961
 21
70.3066828715676593
 31
0.0
  0
LINE
  5
6D0B
  8
0
 10
463.0706832867857088
 20
71.7681828715676602
 30
0.0
 11
463.0706832867857088
 21
71.4586828715676603
 31
0.0
  0
ARC
  5
6D0C
  8
0
 10
463.0846832867857756
 20
71.4586828715676603
 30
0.0
 40
0.014
 50
180.0
 51
270.0
  0
LINE
  5
6D0D
  8
0
 10
463.0706832867857088
 20
71.3966828715676627
 30
0.0
 11
463.0706832867857088
 21
70.3066828715676593
 31
0.0
  0
ARC
  5
6D0E
  8
0
 10
463.8346832867857188
 20
71.3966828715676627
 30
0.0
 40
0.04
 50
359.9999999999988063
 51
90.0
  0
ARC
  5
6D0F
  8
0
 10
463.1106832867857861
 20
71.3966828715676627
 30
0.0
 40
0.04
 50
90.0
 51
180.0
  0
LINE
  5
6D10
  8
0
 10
463.8226832867857183
 20
71.4366828715676547
 30
0.0
 11
463.8226832867857183
 21
71.4446828715676645
 31
0.0
  0
LINE
  5
6D11
  8
0
 10
463.1226832867857865
 20
71.4366828715676547
 30
0.0
 11
463.1226832867857865
 21
71.4446828715676645
 31
0.0
  0
ARC
  5
6D12
  8
0
 10
463.9146832867857029
 20
70.3066828715676593
 30
0.0
 40
0.04
 50
180.0
 51
270.0
  0
ARC
  5
6D13
  8
0
 10
463.030683286785802
 20
70.3066828715676593
 30
0.0
 40
0.04
 50
270.0
 51
0.0000000000008142
  0
ARC
  5
6D14
  8
0
 10
460.706683286785676
 20
72.7391828715676638
 30
0.0
 40
0.02
 50
90.0000000000065086
 51
179.999999999997101
  0
ARC
  5
6D15
  8
0
 10
460.706683286785676
 20
71.9721828715676537
 30
0.0
 40
0.02
 50
179.9999999999992042
 51
270.0
  0
ENDSEC
  0
EOF
