  0
SECTION
  2
HEADER
  9
$ACADVER
  1
AC1009
  9
$INSBASE
 10
2881.2152997025141303
 20
146.3582738268281958
 30
0.0
  9
$EXTMIN
 10
2874.01414466605911
 20
141.1816007673374997
 30
-0.0015258207003583
  9
$EXTMAX
 10
2890.553516433106779
 20
146.3627406676561122
 30
0.0000000349246037
  9
$LIMMIN
 10
0.0
 20
0.0
  9
$LIMMAX
 10
11.6929133858000007
 20
8.2677165353999982
  9
$ORTHOMODE
 70
     0
  9
$REGENMODE
 70
     1
  9
$FILLMODE
 70
     1
  9
$QTEXTMODE
 70
     0
  9
$MIRRTEXT
 70
     0
  9
$DRAGMODE
 70
     2
  9
$LTSCALE
 40
0.6431102362
  9
$OSMODE
 70
  4095
  9
$ATTMODE
 70
     1
  9
$TEXTSIZE
 40
0.2
  9
$TRACEWID
 40
0.05
  9
$TEXTSTYLE
  7
STANDARD
  9
$CLAYER
  8
0
  9
$CELTYPE
  6
BYLAYER
  9
$CECOLOR
 62
   256
  9
$DIMSCALE
 40
1.0
  9
$DIMASZ
 40
0.1875
  9
$DIMEXO
 40
0.0625
  9
$DIMDLI
 40
0.4443307087
  9
$DIMRND
 40
0.0
  9
$DIMDLE
 40
0.0
  9
$DIMEXE
 40
0.125
  9
$DIMTP
 40
0.01
  9
$DIMTM
 40
0.01
  9
$DIMTXT
 40
2.0
  9
$DIMCEN
 40
0.1052362205
  9
$DIMTSZ
 40
0.0
  9
$DIMTOL
 70
     1
  9
$DIMLIM
 70
     0
  9
$DIMTIH
 70
     1
  9
$DIMTOH
 70
     1
  9
$DIMSE1
 70
     0
  9
$DIMSE2
 70
     0
  9
$DIMTAD
 70
     0
  9
$DIMZIN
 70
     0
  9
$DIMBLK
  1

  9
$DIMASO
 70
     1
  9
$DIMSHO
 70
     1
  9
$DIMPOST
  1
\X
  9
$DIMAPOST
  1

  9
$DIMALT
 70
     1
  9
$DIMALTD
 70
     2
  9
$DIMALTF
 40
25.3999999999999986
  9
$DIMLFAC
 40
1.0
  9
$DIMTOFL
 70
     0
  9
$DIMTVP
 40
0.0
  9
$DIMTIX
 70
     0
  9
$DIMSOXD
 70
     0
  9
$DIMSAH
 70
     0
  9
$DIMBLK1
  1

  9
$DIMBLK2
  1

  9
$DIMSTYLE
  2
STANDARD
  9
$DIMCLRD
 70
     0
  9
$DIMCLRE
 70
     0
  9
$DIMCLRT
 70
     0
  9
$DIMTFAC
 40
1.0
  9
$DIMGAP
 40
0.09
  9
$LUNITS
 70
     2
  9
$LUPREC
 70
     4
  9
$SKETCHINC
 40
0.1
  9
$FILLETRAD
 40
0.0
  9
$AUNITS
 70
     0
  9
$AUPREC
 70
     0
  9
$MENU
  1
.
  9
$ELEVATION
 40
0.0
  9
$PELEVATION
 40
0.0
  9
$THICKNESS
 40
0.0
  9
$LIMCHECK
 70
     0
  9
$BLIPMODE
 70
     0
  9
$CHAMFERA
 40
0.0
  9
$CHAMFERB
 40
0.0
  9
$SKPOLY
 70
     0
  9
$TDCREATE
 40
2458060.468368056230247
  9
$TDUPDATE
 40
2460098.4645486110821366
  9
$TDINDWG
 40
0.6855857639
  9
$TDUSRTIMER
 40
0.6855857639
  9
$USRTIMER
 70
     1
  9
$ANGBASE
 50
0.0
  9
$ANGDIR
 70
     0
  9
$PDMODE
 70
     0
  9
$PDSIZE
 40
0.3125
  9
$PLINEWID
 40
0.0
  9
$COORDS
 70
     1
  9
$SPLFRAME
 70
     0
  9
$SPLINETYPE
 70
     6
  9
$SPLINESEGS
 70
     8
  9
$ATTDIA
 70
     1
  9
$ATTREQ
 70
     1
  9
$HANDLING
 70
     1
  9
$HANDSEED
  5
3915C
  9
$SURFTAB1
 70
     6
  9
$SURFTAB2
 70
     6
  9
$SURFTYPE
 70
     6
  9
$SURFU
 70
     6
  9
$SURFV
 70
     6
  9
$UCSNAME
  2

  9
$UCSORG
 10
0.0
 20
0.0
 30
0.0
  9
$UCSXDIR
 10
1.0
 20
0.0
 30
0.0
  9
$UCSYDIR
 10
0.0
 20
1.0
 30
0.0
  9
$PUCSNAME
  2

  9
$PUCSORG
 10
0.0
 20
0.0
 30
0.0
  9
$PUCSXDIR
 10
1.0
 20
0.0
 30
0.0
  9
$PUCSYDIR
 10
0.0
 20
1.0
 30
0.0
  9
$USERI1
 70
     0
  9
$USERI2
 70
     0
  9
$USERI3
 70
     0
  9
$USERI4
 70
     0
  9
$USERI5
 70
     0
  9
$USERR1
 40
0.0
  9
$USERR2
 40
0.0
  9
$USERR3
 40
0.0
  9
$USERR4
 40
0.0
  9
$USERR5
 40
0.0
  9
$WORLDVIEW
 70
     1
  9
$SHADEDGE
 70
     3
  9
$SHADEDIF
 70
    70
  9
$TILEMODE
 70
     1
  9
$MAXACTVP
 70
    64
  9
$PLIMCHECK
 70
     0
  9
$PEXTMIN
 10
1.0000000000000000E+20
 20
1.0000000000000000E+20
 30
1.0000000000000000E+20
  9
$PEXTMAX
 10
-1.0000000000000000E+20
 20
-1.0000000000000000E+20
 30
-1.0000000000000000E+20
  9
$PLIMMIN
 10
0.0
 20
0.0
  9
$PLIMMAX
 10
12.0
 20
9.0
  9
$UNITMODE
 70
     0
  9
$VISRETAIN
 70
     1
  9
$PLINEGEN
 70
     0
  9
$PSLTSCALE
 70
     1
  0
ENDSEC
  0
SECTION
  2
TABLES
  0
TABLE
  2
VPORT
 70
     1
  0
VPORT
  2
*ACTIVE
 70
     0
 10
0.0
 20
0.0
 11
1.0
 21
1.0
 12
-421.4092846847925102
 22
-51.4893408583909604
 13
0.0
 23
0.0
 14
1.0
 24
1.0
 15
0.0
 25
0.0
 16
0.0
 26
0.0
 36
96.5995694866707311
 17
3303.693115234375
 27
195.2615115758877096
 37
0.0
 40
10.2898856481610803
 41
1.614155251141552
 42
50.0
 43
0.0
 44
0.0
 50
0.0
 51
0.0
 71
     0
 72
   100
 73
     1
 74
     1
 75
     0
 76
     0
 77
     0
 78
     0
  0
ENDTAB
  0
TABLE
  2
LTYPE
 70
     2
  0
LTYPE
  2
CONTINUOUS
 70
     0
  3
Solid line
 72
    65
 73
     0
 40
0.0
  0
LTYPE
  2
PHANTOM2
 70
     0
  3
___ _ _ ___ _ _ ___ _ _ ___ _ _
 72
    65
 73
     6
 40
1.25
 49
0.625
 49
-0.125
 49
0.125
 49
-0.125
 49
0.125
 49
-0.125
  0
ENDTAB
  0
TABLE
  2
LAYER
 70
     2
  0
LAYER
  2
0
 70
     0
 62
   255
  6
CONTINUOUS
  0
LAYER
  2
DEFPOINTS
 70
     0
 62
     7
  6
CONTINUOUS
  0
ENDTAB
  0
TABLE
  2
STYLE
 70
     1
  0
STYLE
  2
STANDARD
 70
     0
 40
0.0
 41
0.8
 50
0.0
 71
     0
 42
0.2
  3
txt
  4

  0
ENDTAB
  0
TABLE
  2
VIEW
 70
     0
  0
ENDTAB
  0
TABLE
  2
UCS
 70
     0
  0
ENDTAB
  0
TABLE
  2
APPID
 70
     9
  0
APPID
  2
ACAD
 70
     0
  0
APPID
  2
ACAD_MLEADERVER
 70
     0
  0
APPID
  2
ACAD_EXEMPT_FROM_CAD_STANDARDS
 70
     0
  0
APPID
  2
ACAD_NAV_VCDISPLAY
 70
     0
  0
APPID
  2
ACAECLAYERSTANDARD
 70
     0
  0
APPID
  2
ACCMTRANSPARENCY
 70
     0
  0
APPID
  2
ACAD_DSTYLE_DIMJAG
 70
     0
  0
APPID
  2
ACAD_DSTYLE_DIMTALN
 70
     0
  0
APPID
  2
ACDBATTR
 70
     0
  0
ENDTAB
  0
TABLE
  2
DIMSTYLE
 70
     1
  0
DIMSTYLE
  2
STANDARD
 70
     0
  3

  4

  5

  6

  7

 40
1.0
 41
0.1875
 42
0.0625
 43
0.38
 44
0.125
 45
0.0
 46
0.0
 47
0.01
 48
0.01
140
0.15625
141
0.09
142
0.0
143
25.3999999999999986
144
1.0
145
0.0
146
1.0
147
0.09
 71
     1
 72
     0
 73
     1
 74
     1
 75
     0
 76
     0
 77
     0
 78
     4
170
     0
171
     2
172
     0
173
     0
174
     0
175
     0
176
     0
177
     0
178
     0
  0
ENDTAB
  0
ENDSEC
  0
SECTION
  2
BLOCKS
  0
BLOCK
  8
0
  2
$MODEL_SPACE
 70
     0
 10
0.0
 20
0.0
 30
0.0
  3
$MODEL_SPACE
  1

  0
ENDBLK
  5
21
  8
0
  0
BLOCK
 67
     1
  8
0
  2
$PAPER_SPACE
 70
     0
 10
0.0
 20
0.0
 30
0.0
  3
$PAPER_SPACE
  1

  0
ENDBLK
  5
1D
 67
     1
  8
0
  0
ENDSEC
  0
SECTION
  2
ENTITIES
  0
ATTDEF
  5
35BFF
  8
DEFPOINTS
 10
2881.2104620271788917
 20
146.356109896390393
 30
0.0
 40
0.001
  1
P31571-00
  3

  2
MODELNUMBER
 70
     0
1001
ACDBATTR
1070
     0
1070
     1
  0
ATTDEF
  5
35C00
  8
DEFPOINTS
 10
2881.2104620271788917
 20
146.3544432297238131
 30
0.0
 40
0.001
  1
ONE
  3

  2
TRADENAME
 70
     0
1001
ACDBATTR
1070
     0
1070
     1
  0
ATTDEF
  5
35C01
  8
DEFPOINTS
 10
2881.2104620271788917
 20
146.3527765630570912
 30
0.0
 40
0.001
  1
POT FILLER
  3

  2
PRODUCT
 70
     0
1001
ACDBATTR
1070
     0
1070
     1
  0
LINE
  5
38F14
  8
0
 10
2874.2272997025138466
 20
144.2412738267281895
 30
0.0
 11
2874.2272997025138466
 21
143.7412738268282055
 31
0.0
  0
LINE
  5
38F15
  8
0
 10
2875.027299702513119
 20
144.2412738261282072
 30
0.0
 11
2875.027299702513119
 21
143.7412738268282055
 31
0.0
  0
LINE
  5
38F16
  8
0
 10
2875.027299702513119
 20
143.7412738268282055
 30
0.0
 11
2875.027299702513119
 21
144.2412738268282055
 31
0.0
  0
LINE
  5
38F17
  8
0
 10
2875.2202997025137847
 20
144.4412738267282066
 30
0.0
 11
2875.2202997025137847
 21
143.5412738269282045
 31
0.0
  0
LINE
  5
38F18
  8
0
 10
2875.3002997025141667
 20
144.5612738265282076
 30
0.0
 11
2875.3002997025141667
 21
143.4212738268282123
 31
0.0
  0
LINE
  5
38F19
  8
0
 10
2875.3802997025131845
 20
143.4212738268282123
 30
0.0
 11
2875.3802997025131845
 21
144.5612738267282111
 31
0.0
  0
LINE
  5
38F1A
  8
0
 10
2875.3902997025138575
 20
143.4312738269281908
 30
0.0
 11
2875.3902997025138575
 21
144.5512738267281918
 31
0.0
  0
LINE
  5
38F1B
  8
0
 10
2875.9402997025131299
 20
144.5512738268282078
 30
0.0
 11
2875.9402997025131299
 21
143.4312738268282033
 31
0.0
  0
LINE
  5
38F1C
  8
0
 10
2875.9402997025131299
 20
143.4312738268282033
 30
0.0
 11
2875.9402997025131299
 21
144.5512738268282078
 31
0.0
  0
LINE
  5
38F1D
  8
0
 10
2878.8202997025141485
 20
143.4312738268282033
 30
0.0
 11
2878.8202997025141485
 21
144.5512738268282078
 31
0.0
  0
LINE
  5
38F1E
  8
0
 10
2878.9102997025138393
 20
143.5112738268281873
 30
0.0
 11
2878.9102997025138393
 21
144.4712738268281953
 31
0.0
  0
LINE
  5
38F1F
  8
0
 10
2879.7752997025131663
 20
146.3482738268282048
 30
0.0
 11
2879.7752997025131663
 21
146.1182738268281867
 31
0.0
  0
LINE
  5
38F20
  8
0
 10
2880.9652997025132208
 20
141.1882738268282083
 30
0.0
 11
2881.4652997025132208
 21
141.1882738268282083
 31
0.0
  0
LINE
  5
38F21
  8
0
 10
2880.3702997025138757
 20
146.0982738268282048
 30
0.0
 11
2880.3702997025138757
 21
145.8382738268282139
 31
0.0
  0
LINE
  5
38F22
  8
0
 10
2880.6352997025128388
 20
142.8812738268281919
 30
0.0
 11
2880.6352997025128388
 21
142.371273826828201
 31
0.0
  0
ARC
  5
38F23
  8
0
 10
2880.6552997025128207
 20
142.371273826828201
 30
0.0
 40
0.02
 50
180.0
 51
270.0
  0
ARC
  5
38F24
  8
0
 10
2880.6552997025128207
 20
142.8812738268281919
 30
0.0
 40
0.02
 50
90.0
 51
180.0
  0
LINE
  5
38F25
  8
0
 10
2880.6352997025128388
 20
142.2712738268282067
 30
0.0
 11
2880.6352997025128388
 21
142.3312738268282089
 31
0.0
  0
LINE
  5
38F26
  8
0
 10
2880.6352997025128388
 20
142.9212738268282123
 30
0.0
 11
2880.6352997025128388
 21
143.6162738268282055
 31
0.0
  0
ARC
  5
38F27
  8
0
 10
2880.6552997025128207
 20
142.9212738268282123
 30
0.0
 40
0.02
 50
180.0
 51
270.0
  0
LINE
  5
38F28
  8
0
 10
2880.6352997025128388
 20
144.3662738268282055
 30
0.0
 11
2880.6352997025128388
 21
145.8282738268281946
 31
0.0
  0
LINE
  5
38F29
  8
0
 10
2881.4652997024140859
 20
141.9882738268281912
 30
0.0
 11
2880.9653212334128511
 21
141.9882738268281912
 31
0.0
  0
LINE
  5
38F2A
  8
0
 10
2880.9652997025132208
 20
141.9882738268281912
 30
0.0
 11
2881.4652997025132208
 21
141.9882738268281912
 31
0.0
  0
LINE
  5
38F2B
  8
0
 10
2880.7308997025138524
 20
142.3412738268281998
 30
0.0
 11
2880.7308997025138524
 21
142.3512738268281907
 31
0.0
  0
LINE
  5
38F2C
  8
0
 10
2880.755299702514094
 20
142.1912738268281942
 30
0.0
 11
2880.755299702514094
 21
142.2512738268281964
 31
0.0
  0
LINE
  5
38F2D
  8
0
 10
2880.9352997025139302
 20
141.9582738268281901
 30
0.0
 11
2880.9352997025139302
 21
141.2182738268282094
 31
0.0
  0
ARC
  5
38F2E
  8
0
 10
2880.9652997025132208
 20
141.2182738268282094
 30
0.0
 40
0.03
 50
180.0
 51
270.0
  0
ARC
  5
38F2F
  8
0
 10
2880.9652997025132208
 20
141.9582738268281901
 30
0.0
 40
0.03
 50
90.0
 51
180.0
  0
LINE
  5
38F30
  8
0
 10
2880.9352997025139302
 20
142.0182738268281923
 30
0.0
 11
2880.9352997025139302
 21
142.1712738268282123
 31
0.0
  0
ARC
  5
38F31
  8
0
 10
2880.9652997025132208
 20
142.0182738268281923
 30
0.0
 40
0.03
 50
180.0
 51
270.0
  0
LINE
  5
38F32
  8
0
 10
2880.7652997026139019
 20
142.1812738268282033
 30
0.0
 11
2881.665299702413904
 21
142.1812738268282033
 31
0.0
  0
LINE
  5
38F33
  8
0
 10
2880.6452997025139666
 20
142.2612738268281873
 30
0.0
 11
2881.7852997025138393
 21
142.2612738268281873
 31
0.0
  0
ARC
  5
38F34
  8
0
 10
2880.6452997025139666
 20
142.2712738268282067
 30
0.0
 40
0.01
 50
180.0
 51
270.0
  0
LINE
  5
38F35
  8
0
 10
2880.6452997025139666
 20
142.3412738268281998
 30
0.0
 11
2881.7852997025138393
 21
142.3412738268281998
 31
0.0
  0
ARC
  5
38F36
  8
0
 10
2880.6452997025139666
 20
142.3312738268282089
 30
0.0
 40
0.01
 50
90.0
 51
180.0
  0
LINE
  5
38F37
  8
0
 10
2880.6552997025128207
 20
142.3512738268281907
 30
0.0
 11
2881.7752997025131663
 21
142.3512738268281907
 31
0.0
  0
LINE
  5
38F38
  8
0
 10
2881.4952997025138757
 20
141.9582738268281901
 30
0.0
 11
2881.4952997025138757
 21
141.2182738268282094
 31
0.0
  0
ARC
  5
38F39
  8
0
 10
2881.4652997025132208
 20
141.2182738268282094
 30
0.0
 40
0.03
 50
270.0
 51
0.0
  0
ARC
  5
38F3A
  8
0
 10
2881.4652997025132208
 20
141.9582738268281901
 30
0.0
 40
0.03
 50
0.0
 51
90.0
  0
LINE
  5
38F3B
  8
0
 10
2881.4952997025138757
 20
142.0182738268281923
 30
0.0
 11
2881.4952997025138757
 21
142.1712738268282123
 31
0.0
  0
ARC
  5
38F3C
  8
0
 10
2881.4652997025132208
 20
142.0182738268281923
 30
0.0
 40
0.03
 50
270.0
 51
0.0
  0
LINE
  5
38F3D
  8
0
 10
2881.6752997025128025
 20
142.1912738268281942
 30
0.0
 11
2881.6752997025128025
 21
142.2512738268281964
 31
0.0
  0
LINE
  5
38F3E
  8
0
 10
2881.6996997025139535
 20
142.3512738268281907
 30
0.0
 11
2881.6996997025139535
 21
142.3412738268281998
 31
0.0
  0
LINE
  5
38F3F
  8
0
 10
2881.7952997025131481
 20
142.8812738268281919
 30
0.0
 11
2881.7952997025131481
 21
142.371273826828201
 31
0.0
  0
ARC
  5
38F40
  8
0
 10
2881.7752997025131663
 20
142.371273826828201
 30
0.0
 40
0.02
 50
270.0
 51
0.0
  0
ARC
  5
38F41
  8
0
 10
2881.7752997025131663
 20
142.8812738268281919
 30
0.0
 40
0.02
 50
0.0
 51
90.0
  0
LINE
  5
38F42
  8
0
 10
2881.7952997025131481
 20
142.2712738268282067
 30
0.0
 11
2881.7952997025131481
 21
142.3312738268282089
 31
0.0
  0
ARC
  5
38F43
  8
0
 10
2881.7852997025138393
 20
142.3312738268282089
 30
0.0
 40
0.01
 50
0.0
 51
90.0
  0
ARC
  5
38F44
  8
0
 10
2881.7852997025138393
 20
142.2712738268282067
 30
0.0
 40
0.01
 50
270.0
 51
0.0
  0
LINE
  5
38F45
  8
0
 10
2881.7952997025131481
 20
142.9212738268282123
 30
0.0
 11
2881.7952997025131481
 21
143.6162738268282055
 31
0.0
  0
ARC
  5
38F46
  8
0
 10
2881.7752997025131663
 20
142.9212738268282123
 30
0.0
 40
0.02
 50
270.0
 51
0.0
  0
LINE
  5
38F47
  8
0
 10
2881.7952997025131481
 20
144.3662738268282055
 30
0.0
 11
2881.7952997025131481
 21
145.8282738268281946
 31
0.0
  0
LINE
  5
38F48
  8
0
 10
2881.7752997371130732
 20
142.9012738268282021
 30
0.0
 11
2880.6553738431139209
 21
142.9012738268282021
 31
0.0
  0
LINE
  5
38F49
  8
0
 10
2880.6552997025128207
 20
142.9012738268282021
 30
0.0
 11
2881.7752997025131663
 21
142.9012738268282021
 31
0.0
  0
LINE
  5
38F4A
  8
0
 10
2882.0602997025139302
 20
146.0982738268282048
 30
0.0
 11
2882.0602997025139302
 21
145.8382738268282139
 31
0.0
  0
LINE
  5
38F4B
  8
0
 10
2875.3102997025139302
 20
143.411273826828193
 30
0.0
 11
2875.3702997025138757
 21
143.411273826828193
 31
0.0
  0
LINE
  5
38F4C
  8
0
 10
2875.4102997025138393
 20
143.411273826828193
 30
0.0
 11
2875.9202997025131481
 21
143.411273826828193
 31
0.0
  0
LINE
  5
38F4D
  8
0
 10
2875.9602997025131117
 20
143.411273826828193
 30
0.0
 11
2878.8002997025128025
 21
143.411273826828193
 31
0.0
  0
LINE
  5
38F4E
  8
0
 10
2878.8602997025132026
 20
143.4912738268282055
 30
0.0
 11
2878.890299702512948
 21
143.4912738268282055
 31
0.0
  0
LINE
  5
38F4F
  8
0
 10
2875.3902997025138575
 20
143.5068738268282118
 30
0.0
 11
2875.3802997025131845
 21
143.5068738268282118
 31
0.0
  0
LINE
  5
38F50
  8
0
 10
2875.230299702514003
 20
143.5312738268281976
 30
0.0
 11
2875.2902997025139484
 21
143.5312738268281976
 31
0.0
  0
LINE
  5
38F51
  8
0
 10
2890.0902997025132208
 20
143.6162738268282055
 30
0.0
 11
2878.9102997025138393
 21
143.6162738268282055
 31
0.0
  0
LINE
  5
38F52
  8
0
 10
2875.0572997025128643
 20
143.7112738268282044
 30
0.0
 11
2875.2102997025140212
 21
143.7112738268282044
 31
0.0
  0
LINE
  5
38F53
  8
0
 10
2874.9972997025138284
 20
143.7112738268282044
 30
0.0
 11
2874.2572997025131372
 21
143.7112738268282044
 31
0.0
  0
LINE
  5
38F54
  8
0
 10
2882.6552997025128207
 20
146.3482738268282048
 30
0.0
 11
2882.6552997025128207
 21
146.1182738268281867
 31
0.0
  0
ARC
  5
38F55
  8
0
 10
2882.6452997025130571
 20
146.3482738268282048
 30
0.0
 40
0.01
 50
0.0
 51
90.0
  0
ARC
  5
38F56
  8
0
 10
2882.6452997025130571
 20
146.1182738268281867
 30
0.0
 40
0.01
 50
270.0
 51
0.0
  0
LINE
  5
38F57
  8
0
 10
2875.0572997025128643
 20
144.2712738268282067
 30
0.0
 11
2875.2102997025140212
 21
144.2712738268282067
 31
0.0
  0
LINE
  5
38F58
  8
0
 10
2874.9972997025138284
 20
144.2712738268282067
 30
0.0
 11
2874.2572997025131372
 21
144.2712738268282067
 31
0.0
  0
LINE
  5
38F59
  8
0
 10
2890.0902997025132208
 20
144.3662738268282055
 30
0.0
 11
2878.9102997025138393
 21
144.3662738268282055
 31
0.0
  0
LINE
  5
38F5A
  8
0
 10
2875.230299702514003
 20
144.4512738268282135
 30
0.0
 11
2875.2902997025139484
 21
144.4512738268282135
 31
0.0
  0
LINE
  5
38F5B
  8
0
 10
2875.3902997025138575
 20
144.4756738268281993
 30
0.0
 11
2875.3802997025131845
 21
144.4756738268281993
 31
0.0
  0
LINE
  5
38F5C
  8
0
 10
2878.8602997025132026
 20
144.4912738268282055
 30
0.0
 11
2878.890299702512948
 21
144.4912738268282055
 31
0.0
  0
LINE
  5
38F5D
  8
0
 10
2875.3102997025139302
 20
144.5712738268281896
 30
0.0
 11
2875.3702997025138757
 21
144.5712738268281896
 31
0.0
  0
LINE
  5
38F5E
  8
0
 10
2875.4102997025138393
 20
144.5712738268281896
 30
0.0
 11
2875.9202997025131481
 21
144.5712738268281896
 31
0.0
  0
LINE
  5
38F5F
  8
0
 10
2875.9602997025131117
 20
144.5712738268281896
 30
0.0
 11
2878.8002997025128025
 21
144.5712738268281896
 31
0.0
  0
LINE
  5
38F60
  8
0
 10
2880.380299702514094
 20
145.8282738268281946
 30
0.0
 11
2882.0502997025128025
 21
145.8282738268281946
 31
0.0
  0
ARC
  5
38F61
  8
0
 10
2882.0502997025128025
 20
145.8382738268282139
 30
0.0
 40
0.01
 50
270.0
 51
0.0
  0
ARC
  5
38F62
  8
0
 10
2880.380299702514094
 20
145.8382738268282139
 30
0.0
 40
0.01
 50
180.0
 51
270.0
  0
LINE
  5
38F63
  8
0
 10
2879.7852997025129298
 20
146.1082738268281958
 30
0.0
 11
2882.6452997025130571
 21
146.1082738268281958
 31
0.0
  0
ARC
  5
38F64
  8
0
 10
2879.7852997025129298
 20
146.1182738268281867
 30
0.0
 40
0.01
 50
180.0
 51
270.0
  0
LINE
  5
38F65
  8
0
 10
2879.7852997025129298
 20
146.3582738268281958
 30
0.0
 11
2882.6452997025130571
 21
146.3582738268281958
 31
0.0
  0
ARC
  5
38F66
  8
0
 10
2879.7852997025129298
 20
146.3482738268282048
 30
0.0
 40
0.01
 50
90.0
 51
180.0
  0
ARC
  5
38F67
  8
0
 10
2874.2572997025131372
 20
143.7412738268282055
 30
0.0
 40
0.03
 50
180.0
 51
270.0
  0
ARC
  5
38F68
  8
0
 10
2874.9972997025138284
 20
143.7412738268282055
 30
0.0
 40
0.03
 50
270.0
 51
0.0
  0
ARC
  5
38F69
  8
0
 10
2875.0572997025128643
 20
143.7412738268282055
 30
0.0
 40
0.03
 50
180.0
 51
270.0
  0
ARC
  5
38F6A
  8
0
 10
2875.9202997025131481
 20
143.4312738268282033
 30
0.0
 40
0.02
 50
270.0
 51
0.0
  0
ARC
  5
38F6B
  8
0
 10
2875.4102997025138393
 20
143.4312738268282033
 30
0.0
 40
0.02
 50
180.0
 51
270.0
  0
ARC
  5
38F6C
  8
0
 10
2875.9602997025131117
 20
143.4312738268282033
 30
0.0
 40
0.02
 50
180.0
 51
270.0
  0
ARC
  5
38F6D
  8
0
 10
2875.2902997025139484
 20
143.5212738268282067
 30
0.0
 40
0.01
 50
0.0
 51
90.0
  0
ARC
  5
38F6E
  8
0
 10
2875.230299702514003
 20
143.5412738268281885
 30
0.0
 40
0.01
 50
180.0
 51
270.0
  0
ARC
  5
38F6F
  8
0
 10
2875.2102997025140212
 20
143.7012738268282135
 30
0.0
 40
0.01
 50
0.0
 51
90.0
  0
ARC
  5
38F70
  8
0
 10
2875.3702997025138757
 20
143.4212738268282123
 30
0.0
 40
0.01
 50
270.0
 51
0.0
  0
ARC
  5
38F71
  8
0
 10
2875.3102997025139302
 20
143.4212738268282123
 30
0.0
 40
0.01
 50
180.0
 51
270.0
  0
ARC
  5
38F72
  8
0
 10
2880.7452997025138757
 20
142.2512738268281964
 30
0.0
 40
0.01
 50
0.0
 51
90.0
  0
ARC
  5
38F73
  8
0
 10
2881.6852997025139302
 20
142.2512738268281964
 30
0.0
 40
0.01
 50
90.0
 51
180.0
  0
ARC
  5
38F74
  8
0
 10
2880.7652997025138575
 20
142.1912738268281942
 30
0.0
 40
0.01
 50
180.0
 51
270.0
  0
ARC
  5
38F75
  8
0
 10
2881.6652997025130389
 20
142.1912738268281942
 30
0.0
 40
0.01
 50
270.0
 51
0.0
  0
ARC
  5
38F76
  8
0
 10
2880.9252997025128025
 20
142.1712738268282123
 30
0.0
 40
0.01
 50
0.0
 51
90.0
  0
ARC
  5
38F77
  8
0
 10
2881.505299702514094
 20
142.1712738268282123
 30
0.0
 40
0.01
 50
90.0
 51
180.0
  0
ARC
  5
38F78
  8
0
 10
2878.8602997025132026
 20
143.4512738268282135
 30
0.0
 40
0.04
 50
90.0
 51
180.0
  0
ARC
  5
38F79
  8
0
 10
2878.8002997025128025
 20
143.4312738268282033
 30
0.0
 40
0.02
 50
270.0
 51
0.0
  0
ARC
  5
38F7A
  8
0
 10
2878.890299702512948
 20
143.5112738268281873
 30
0.0
 40
0.02
 50
270.0
 51
0.0
  0
ARC
  5
38F7B
  8
0
 10
2878.8602997025132026
 20
144.5312738268281976
 30
0.0
 40
0.04
 50
180.0
 51
270.0
  0
ARC
  5
38F7C
  8
0
 10
2874.2572997025131372
 20
144.2412738268282055
 30
0.0
 40
0.03
 50
90.0
 51
180.0
  0
ARC
  5
38F7D
  8
0
 10
2874.9972997025138284
 20
144.2412738268282055
 30
0.0
 40
0.03
 50
0.0
 51
90.0
  0
ARC
  5
38F7E
  8
0
 10
2875.0572997025128643
 20
144.2412738268282055
 30
0.0
 40
0.03
 50
90.0
 51
180.0
  0
ARC
  5
38F7F
  8
0
 10
2875.9202997025131481
 20
144.5512738268282078
 30
0.0
 40
0.02
 50
0.0
 51
90.0
  0
ARC
  5
38F80
  8
0
 10
2875.4102997025138393
 20
144.5512738268282078
 30
0.0
 40
0.02
 50
90.0
 51
180.0
  0
ARC
  5
38F81
  8
0
 10
2878.890299702512948
 20
144.4712738268281953
 30
0.0
 40
0.02
 50
0.0
 51
90.0
  0
ARC
  5
38F82
  8
0
 10
2875.9602997025131117
 20
144.5512738268282078
 30
0.0
 40
0.02
 50
90.0
 51
180.0
  0
ARC
  5
38F83
  8
0
 10
2878.8002997025128025
 20
144.5512738268282078
 30
0.0
 40
0.02
 50
0.0
 51
90.0
  0
ARC
  5
38F84
  8
0
 10
2875.2902997025139484
 20
144.4612738268282897
 30
0.0
 40
0.01
 50
270.0
 51
0.0
  0
ARC
  5
38F85
  8
0
 10
2875.230299702514003
 20
144.4412738268281942
 30
0.0
 40
0.01
 50
90.0
 51
180.0
  0
ARC
  5
38F86
  8
0
 10
2875.2102997025140212
 20
144.2812738268281976
 30
0.0
 40
0.01
 50
270.0
 51
0.0
  0
ARC
  5
38F87
  8
0
 10
2875.3702997025138757
 20
144.5612738268281987
 30
0.0
 40
0.01
 50
0.0
 51
90.0
  0
ARC
  5
38F88
  8
0
 10
2875.3102997025139302
 20
144.5612738268281987
 30
0.0
 40
0.01
 50
90.0
 51
180.0
  0
ARC
  5
38F89
  8
0
 10
2880.3602997025132026
 20
146.0982738268282048
 30
0.0
 40
0.01
 50
0.0
 51
90.0
  0
ARC
  5
38F8A
  8
0
 10
2882.0702997025141485
 20
146.0982738268282048
 30
0.0
 40
0.01
 50
90.0
 51
180.0
  0
ARC
  5
38F8B
  8
0
 10
2890.0902997025132208
 20
143.9912738268282055
 30
0.0
 40
0.375
 50
270.0
 51
90.0
  0
ENDSEC
  0
EOF
