  0
SECTION
  2
HEADER
  9
$ACADVER
  1
AC1009
  9
$INSBASE
 10
2919.9095972482778052
 20
148.7573925507151102
 30
0.0
  9
$EXTMIN
 10
2912.8545953809889397
 20
143.5203925507150871
 30
0.0
  9
$EXTMAX
 10
2929.3195763910780443
 20
148.7573925507151102
 30
0.0
  9
$LIMMIN
 10
0.0
 20
0.0
  9
$LIMMAX
 10
11.6929133858000007
 20
8.2677165353999982
  9
$ORTHOMODE
 70
     0
  9
$REGENMODE
 70
     1
  9
$FILLMODE
 70
     1
  9
$QTEXTMODE
 70
     0
  9
$MIRRTEXT
 70
     0
  9
$DRAGMODE
 70
     2
  9
$LTSCALE
 40
0.6431102362
  9
$OSMODE
 70
  4095
  9
$ATTMODE
 70
     1
  9
$TEXTSIZE
 40
0.2
  9
$TRACEWID
 40
0.05
  9
$TEXTSTYLE
  7
STANDARD
  9
$CLAYER
  8
0
  9
$CELTYPE
  6
BYLAYER
  9
$CECOLOR
 62
   256
  9
$DIMSCALE
 40
1.0
  9
$DIMASZ
 40
0.1875
  9
$DIMEXO
 40
0.0625
  9
$DIMDLI
 40
0.4443307087
  9
$DIMRND
 40
0.0
  9
$DIMDLE
 40
0.0
  9
$DIMEXE
 40
0.125
  9
$DIMTP
 40
0.01
  9
$DIMTM
 40
0.01
  9
$DIMTXT
 40
2.0
  9
$DIMCEN
 40
0.1052362205
  9
$DIMTSZ
 40
0.0
  9
$DIMTOL
 70
     1
  9
$DIMLIM
 70
     0
  9
$DIMTIH
 70
     1
  9
$DIMTOH
 70
     1
  9
$DIMSE1
 70
     0
  9
$DIMSE2
 70
     0
  9
$DIMTAD
 70
     0
  9
$DIMZIN
 70
     0
  9
$DIMBLK
  1

  9
$DIMASO
 70
     1
  9
$DIMSHO
 70
     1
  9
$DIMPOST
  1
\X
  9
$DIMAPOST
  1

  9
$DIMALT
 70
     1
  9
$DIMALTD
 70
     2
  9
$DIMALTF
 40
25.3999999999999986
  9
$DIMLFAC
 40
1.0
  9
$DIMTOFL
 70
     0
  9
$DIMTVP
 40
0.0
  9
$DIMTIX
 70
     0
  9
$DIMSOXD
 70
     0
  9
$DIMSAH
 70
     0
  9
$DIMBLK1
  1

  9
$DIMBLK2
  1

  9
$DIMSTYLE
  2
STANDARD
  9
$DIMCLRD
 70
     0
  9
$DIMCLRE
 70
     0
  9
$DIMCLRT
 70
     0
  9
$DIMTFAC
 40
1.0
  9
$DIMGAP
 40
0.09
  9
$LUNITS
 70
     2
  9
$LUPREC
 70
     4
  9
$SKETCHINC
 40
0.1
  9
$FILLETRAD
 40
0.0
  9
$AUNITS
 70
     0
  9
$AUPREC
 70
     0
  9
$MENU
  1
.
  9
$ELEVATION
 40
0.0
  9
$PELEVATION
 40
0.0
  9
$THICKNESS
 40
0.0
  9
$LIMCHECK
 70
     0
  9
$BLIPMODE
 70
     0
  9
$CHAMFERA
 40
0.0
  9
$CHAMFERB
 40
0.0
  9
$SKPOLY
 70
     0
  9
$TDCREATE
 40
2458060.468368056230247
  9
$TDUPDATE
 40
2460075.5904745371080935
  9
$TDINDWG
 40
0.690296412
  9
$TDUSRTIMER
 40
0.690296412
  9
$USRTIMER
 70
     1
  9
$ANGBASE
 50
0.0
  9
$ANGDIR
 70
     0
  9
$PDMODE
 70
     0
  9
$PDSIZE
 40
0.3125
  9
$PLINEWID
 40
0.0
  9
$COORDS
 70
     1
  9
$SPLFRAME
 70
     0
  9
$SPLINETYPE
 70
     6
  9
$SPLINESEGS
 70
     8
  9
$ATTDIA
 70
     1
  9
$ATTREQ
 70
     1
  9
$HANDLING
 70
     1
  9
$HANDSEED
  5
3988C
  9
$SURFTAB1
 70
     6
  9
$SURFTAB2
 70
     6
  9
$SURFTYPE
 70
     6
  9
$SURFU
 70
     6
  9
$SURFV
 70
     6
  9
$UCSNAME
  2

  9
$UCSORG
 10
0.0
 20
0.0
 30
0.0
  9
$UCSXDIR
 10
1.0
 20
0.0
 30
0.0
  9
$UCSYDIR
 10
0.0
 20
1.0
 30
0.0
  9
$PUCSNAME
  2

  9
$PUCSORG
 10
0.0
 20
0.0
 30
0.0
  9
$PUCSXDIR
 10
1.0
 20
0.0
 30
0.0
  9
$PUCSYDIR
 10
0.0
 20
1.0
 30
0.0
  9
$USERI1
 70
     0
  9
$USERI2
 70
     0
  9
$USERI3
 70
     0
  9
$USERI4
 70
     0
  9
$USERI5
 70
     0
  9
$USERR1
 40
0.0
  9
$USERR2
 40
0.0
  9
$USERR3
 40
0.0
  9
$USERR4
 40
0.0
  9
$USERR5
 40
0.0
  9
$WORLDVIEW
 70
     1
  9
$SHADEDGE
 70
     3
  9
$SHADEDIF
 70
    70
  9
$TILEMODE
 70
     1
  9
$MAXACTVP
 70
    64
  9
$PLIMCHECK
 70
     0
  9
$PEXTMIN
 10
1.0000000000000000E+20
 20
1.0000000000000000E+20
 30
1.0000000000000000E+20
  9
$PEXTMAX
 10
-1.0000000000000000E+20
 20
-1.0000000000000000E+20
 30
-1.0000000000000000E+20
  9
$PLIMMIN
 10
0.0
 20
0.0
  9
$PLIMMAX
 10
12.0
 20
9.0
  9
$UNITMODE
 70
     0
  9
$VISRETAIN
 70
     1
  9
$PLINEGEN
 70
     0
  9
$PSLTSCALE
 70
     1
  0
ENDSEC
  0
SECTION
  2
TABLES
  0
TABLE
  2
VPORT
 70
     1
  0
VPORT
  2
*ACTIVE
 70
     0
 10
0.0
 20
0.0
 11
1.0
 21
1.0
 12
-382.6342425914908745
 22
-49.1240007284866067
 13
0.0
 23
0.0
 14
1.0
 24
1.0
 15
0.0
 25
0.0
 16
0.0
 26
0.0
 36
96.5995694866707311
 17
3303.693115234375
 27
195.2615115758877096
 37
0.0
 40
9.8019187847345641
 41
1.7089041095890409
 42
50.0
 43
0.0
 44
0.0
 50
0.0
 51
0.0
 71
     0
 72
   100
 73
     1
 74
     1
 75
     0
 76
     0
 77
     0
 78
     0
  0
ENDTAB
  0
TABLE
  2
LTYPE
 70
     2
  0
LTYPE
  2
CONTINUOUS
 70
     0
  3
Solid line
 72
    65
 73
     0
 40
0.0
  0
LTYPE
  2
PHANTOM2
 70
     0
  3
___ _ _ ___ _ _ ___ _ _ ___ _ _
 72
    65
 73
     6
 40
1.25
 49
0.625
 49
-0.125
 49
0.125
 49
-0.125
 49
0.125
 49
-0.125
  0
ENDTAB
  0
TABLE
  2
LAYER
 70
     2
  0
LAYER
  2
0
 70
     0
 62
   255
  6
CONTINUOUS
  0
LAYER
  2
DEFPOINTS
 70
     0
 62
     7
  6
CONTINUOUS
  0
ENDTAB
  0
TABLE
  2
STYLE
 70
     1
  0
STYLE
  2
STANDARD
 70
     0
 40
0.0
 41
0.8
 50
0.0
 71
     0
 42
0.2
  3
txt
  4

  0
ENDTAB
  0
TABLE
  2
VIEW
 70
     0
  0
ENDTAB
  0
TABLE
  2
UCS
 70
     0
  0
ENDTAB
  0
TABLE
  2
APPID
 70
     9
  0
APPID
  2
ACAD
 70
     0
  0
APPID
  2
ACAD_MLEADERVER
 70
     0
  0
APPID
  2
ACAD_EXEMPT_FROM_CAD_STANDARDS
 70
     0
  0
APPID
  2
ACAD_NAV_VCDISPLAY
 70
     0
  0
APPID
  2
ACAECLAYERSTANDARD
 70
     0
  0
APPID
  2
ACCMTRANSPARENCY
 70
     0
  0
APPID
  2
ACAD_DSTYLE_DIMJAG
 70
     0
  0
APPID
  2
ACAD_DSTYLE_DIMTALN
 70
     0
  0
APPID
  2
ACDBATTR
 70
     0
  0
ENDTAB
  0
TABLE
  2
DIMSTYLE
 70
     1
  0
DIMSTYLE
  2
STANDARD
 70
     0
  3

  4

  5

  6

  7

 40
1.0
 41
0.1875
 42
0.0625
 43
0.38
 44
0.125
 45
0.0
 46
0.0
 47
0.01
 48
0.01
140
0.15625
141
0.09
142
0.0
143
25.3999999999999986
144
1.0
145
0.0
146
1.0
147
0.09
 71
     1
 72
     0
 73
     1
 74
     1
 75
     0
 76
     0
 77
     0
 78
     4
170
     0
171
     2
172
     0
173
     0
174
     0
175
     0
176
     0
177
     0
178
     0
  0
ENDTAB
  0
ENDSEC
  0
SECTION
  2
BLOCKS
  0
BLOCK
  8
0
  2
$MODEL_SPACE
 70
     0
 10
0.0
 20
0.0
 30
0.0
  3
$MODEL_SPACE
  1

  0
ENDBLK
  5
21
  8
0
  0
BLOCK
 67
     1
  8
0
  2
$PAPER_SPACE
 70
     0
 10
0.0
 20
0.0
 30
0.0
  3
$PAPER_SPACE
  1

  0
ENDBLK
  5
1D
 67
     1
  8
0
  0
ENDSEC
  0
SECTION
  2
ENTITIES
  0
ATTDEF
  5
35BFF
  8
DEFPOINTS
 10
2919.9077814415491048
 20
148.755385336846814
 30
0.0
 40
0.001
  1
P31570-00
  3

  2
MODELNUMBER
 70
     0
1001
ACDBATTR
1070
     0
1070
     1
  0
ATTDEF
  5
35C00
  8
DEFPOINTS
 10
2919.9077814415491048
 20
148.753718670180092
 30
0.0
 40
0.001
  1
TRADITIONAL
  3

  2
TRADENAME
 70
     0
1001
ACDBATTR
1070
     0
1070
     1
  0
ATTDEF
  5
35C01
  8
DEFPOINTS
 10
2919.9077814415491048
 20
148.7520520035133984
 30
0.0
 40
0.001
  1
POT FILLER
  3

  2
PRODUCT
 70
     0
1001
ACDBATTR
1070
     0
1070
     1
  0
LINE
  5
396A9
  8
0
 10
2912.9485972482780198
 20
146.7313925507150998
 30
0.0
 11
2912.9255057699601821
 21
146.7313925507150998
 31
0.0
  0
LINE
  5
396AA
  8
0
 10
2913.0461874282000281
 20
146.8333925507151037
 30
0.0
 11
2913.5366078874440063
 21
146.8333925507151037
 31
0.0
  0
LINE
  5
396AB
  8
0
 10
2912.9685972482780016
 20
146.0172650900182134
 30
0.0
 11
2912.9685972482780016
 21
146.7635200114119982
 31
0.0
  0
ARC
  5
396AC
  8
0
 10
2912.9485972482780198
 20
146.75139255071511
 30
0.0
 40
0.02
 50
270.0
 51
359.9999999999951115
  0
ARC
  5
396AD
  8
0
 10
2912.9685944626780838
 20
146.8428997542117997
 30
0.0
 40
0.0700074951909299
 50
277.1820901599937201
 51
345.8880552656935947
  0
ARC
  5
396AE
  8
0
 10
2912.9785972482782199
 20
146.7635200114119982
 30
0.0
 40
0.01
 50
97.1820901600725335
 51
179.9999999999787974
  0
ARC
  5
396AF
  8
0
 10
2913.0461874282000281
 20
146.8233925507151127
 30
0.0
 40
0.01
 50
90.0000000000260485
 51
165.8880552656098075
  0
ARC
  5
396B0
  8
0
 10
2913.79441275201998
 20
146.3903925507150916
 30
0.0
 40
0.9398173710321234
 50
159.1462401555733948
 51
200.8537598444250136
  0
ARC
  5
396B1
  8
0
 10
2912.9255057699601821
 20
146.7213925507151089
 30
0.0
 40
0.01
 50
89.9999999999739515
 51
159.1459256496085004
  0
ARC
  5
396B2
  8
0
 10
2913.6144218213471504
 20
146.8420026895823867
 30
0.0
 40
0.0700084094201097
 50
193.4503277232977894
 51
270.8417793290226996
  0
LINE
  5
396B3
  8
0
 10
2913.6455972482781362
 20
146.7298925507151068
 30
0.0
 11
2913.817597248274069
 21
146.7298925507151068
 31
0.0
  0
LINE
  5
396B4
  8
0
 10
2913.6255972482781544
 20
146.7620029148984884
 30
0.0
 11
2913.6255972482781544
 21
146.0187821865316948
 31
0.0
  0
ARC
  5
396B5
  8
0
 10
2913.6155972482779362
 20
146.7620029148984884
 30
0.0
 40
0.01
 50
0.000000000131904
 51
90.841779328683927
  0
ARC
  5
396B6
  8
0
 10
2913.6455972482781362
 20
146.7498925507150886
 30
0.0
 40
0.02
 50
180.0000000000048885
 51
270.0
  0
ARC
  5
396B7
  8
0
 10
2913.5366078874440063
 20
146.8233925507149991
 30
0.0
 40
0.01
 50
13.4503277237212
 51
89.9999999998436664
  0
ARC
  5
396B8
  8
0
 10
2913.817597248274069
 20
146.8898925507282058
 30
0.0
 40
0.1600000000131274
 50
270.0000000013808972
 51
330.1226187142515869
  0
ARC
  5
396B9
  8
0
 10
2913.5401273391557879
 20
147.0492991020709894
 30
0.0
 40
0.4799999985707793
 50
330.1226187142515869
 51
349.0641274015544013
  0
LINE
  5
396BA
  8
0
 10
2914.0261382013791263
 20
146.9703925507151041
 30
0.0
 11
2914.0595972482778961
 21
146.9703925507151041
 31
0.0
  0
LINE
  5
396BB
  8
0
 10
2914.0745972482791331
 20
146.9553925507150893
 30
0.0
 11
2914.0745972482791331
 21
145.8253925507150939
 31
0.0
  0
LINE
  5
396BC
  8
0
 10
2914.0845972482779871
 20
147.0053925507151007
 30
0.0
 11
2914.0845972482779871
 21
145.7753925507151109
 31
0.0
  0
LINE
  5
396BD
  8
0
 10
2914.0945972482782054
 20
147.0153925507150916
 30
0.0
 11
2914.1092137640780493
 21
147.0153925507150916
 31
0.0
  0
LINE
  5
396BE
  8
0
 10
2914.1811512369281445
 20
147.0603925507151075
 30
0.0
 11
2914.5380432596289211
 21
147.0603925507151075
 31
0.0
  0
ARC
  5
396BF
  8
0
 10
2914.1092137640780493
 20
147.0853925507151132
 30
0.0
 40
0.0700000000000056
 50
270.0
 51
334.0555201462768764
  0
ARC
  5
396C0
  8
0
 10
2914.0261382013791263
 20
146.9553925507150893
 30
0.0
 40
0.015
 50
90.0
 51
169.0641274001634997
  0
ARC
  5
396C1
  8
0
 10
2914.0595972482778961
 20
146.9553925507150893
 30
0.0
 40
0.015
 50
0.0
 51
90.0
  0
ARC
  5
396C2
  8
0
 10
2914.0945972482782054
 20
147.0053925507151007
 30
0.0
 40
0.01
 50
90.0
 51
180.0
  0
ARC
  5
396C3
  8
0
 10
2914.1811512369281445
 20
147.0503925507150882
 30
0.0
 40
0.01
 50
89.9999999999478888
 51
154.0555202277726039
  0
LINE
  5
396C4
  8
0
 10
2914.0745972482791331
 20
146.8747925507151137
 30
0.0
 11
2914.0845972482779871
 21
146.8747925507151137
 31
0.0
  0
LINE
  5
396C5
  8
0
 10
2914.634597248278169
 20
147.0053925507151007
 30
0.0
 11
2914.634597248278169
 21
145.7753925507151109
 31
0.0
  0
LINE
  5
396C6
  8
0
 10
2914.6245972482779507
 20
147.0153925507150916
 30
0.0
 11
2914.6099807324781068
 21
147.0153925507150916
 31
0.0
  0
ARC
  5
396C7
  8
0
 10
2914.6099807324781068
 20
147.0853925507151132
 30
0.0
 40
0.0700000000000056
 50
205.9444798537215888
 51
270.0
  0
ARC
  5
396C8
  8
0
 10
2914.6245972482779507
 20
147.0053925507151007
 30
0.0
 40
0.01
 50
0.0
 51
90.0
  0
ARC
  5
396C9
  8
0
 10
2914.5380432596289211
 20
147.0503925507150882
 30
0.0
 40
0.01
 50
25.9444797722347502
 51
90.0000000000521254
  0
LINE
  5
396CA
  8
0
 10
2914.6545972482781508
 20
146.9703925507151041
 30
0.0
 11
2917.0035972482778561
 21
146.9703925507151041
 31
0.0
  0
ARC
  5
396CB
  8
0
 10
2914.6545972482781508
 20
146.9503925507150939
 30
0.0
 40
0.02
 50
90.0
 51
180.0
  0
LINE
  5
396CC
  8
0
 10
2912.9485972482780198
 20
146.0493925507151118
 30
0.0
 11
2912.9255057699601821
 21
146.0493925507151118
 31
0.0
  0
LINE
  5
396CD
  8
0
 10
2913.0461874282000281
 20
145.947392550715108
 30
0.0
 11
2913.5366078874440063
 21
145.947392550715108
 31
0.0
  0
ARC
  5
396CE
  8
0
 10
2912.9485972482780198
 20
146.0293925507151016
 30
0.0
 40
0.02
 50
0.0000000000048853
 51
90.0
  0
ARC
  5
396CF
  8
0
 10
2912.9685944626780838
 20
145.9378853472184119
 30
0.0
 40
0.0700074951909299
 50
14.1119447343064106
 51
82.8179098400062657
  0
ARC
  5
396D0
  8
0
 10
2912.9785972482782199
 20
146.0172650900182134
 30
0.0
 40
0.01
 50
180.0
 51
262.8179098400062799
  0
ARC
  5
396D1
  8
0
 10
2913.0461874282000281
 20
145.9573925507150989
 30
0.0
 40
0.01
 50
194.1119447343884872
 51
269.9999999999739089
  0
ARC
  5
396D2
  8
0
 10
2912.9255057699601821
 20
146.0593925507151027
 30
0.0
 40
0.01
 50
200.8540743503899932
 51
270.0000000000259774
  0
ARC
  5
396D3
  8
0
 10
2913.6144218213471504
 20
145.9387824118479102
 30
0.0
 40
0.0700084094201097
 50
89.1582206709773288
 51
166.5496722767005053
  0
ARC
  5
396D4
  8
0
 10
2913.6155972482779362
 20
146.0187821865316948
 30
0.0
 40
0.01
 50
269.1582206709774141
 51
0.0
  0
LINE
  5
396D5
  8
0
 10
2913.6455972482781362
 20
146.0508925507151048
 30
0.0
 11
2913.817597248274069
 21
146.0508925507151048
 31
0.0
  0
ARC
  5
396D6
  8
0
 10
2913.6455972482781362
 20
146.0308925507150946
 30
0.0
 40
0.02
 50
90.0
 51
179.9999999999951115
  0
ARC
  5
396D7
  8
0
 10
2913.5366078874440063
 20
145.9573925507152126
 30
0.0
 40
0.01
 50
270.0000000001563194
 51
346.5496722762773061
  0
ARC
  5
396D8
  8
0
 10
2913.817597248274069
 20
145.8908925507020058
 30
0.0
 40
0.1600000000131274
 50
29.8773812857468997
 51
89.9999999986190744
  0
ARC
  5
396D9
  8
0
 10
2913.5401273391557879
 20
145.7314859993591938
 30
0.0
 40
0.4799999985707793
 50
10.9358725984455702
 51
29.8773812857483101
  0
LINE
  5
396DA
  8
0
 10
2914.0261382013791263
 20
145.8103925507151075
 30
0.0
 11
2914.0595972482778961
 21
145.8103925507151075
 31
0.0
  0
LINE
  5
396DB
  8
0
 10
2914.0945972482782054
 20
145.7653925507150916
 30
0.0
 11
2914.1092137640780493
 21
145.7653925507150916
 31
0.0
  0
LINE
  5
396DC
  8
0
 10
2914.1811512369281445
 20
145.7203925507151041
 30
0.0
 11
2914.5380432596289211
 21
145.7203925507151041
 31
0.0
  0
ARC
  5
396DD
  8
0
 10
2914.1092137640780493
 20
145.6953925507150984
 30
0.0
 40
0.0700000000000056
 50
25.94447985372312
 51
90.0
  0
ARC
  5
396DE
  8
0
 10
2914.0261382013791263
 20
145.8253925507150939
 30
0.0
 40
0.015
 50
190.9358725998363866
 51
270.0
  0
ARC
  5
396DF
  8
0
 10
2914.0595972482778961
 20
145.8253925507150939
 30
0.0
 40
0.015
 50
270.0
 51
0.0
  0
ARC
  5
396E0
  8
0
 10
2914.0945972482782054
 20
145.7753925507151109
 30
0.0
 40
0.01
 50
180.0
 51
270.0
  0
ARC
  5
396E1
  8
0
 10
2914.1811512369281445
 20
145.730392550715095
 30
0.0
 40
0.01
 50
205.9444797722258897
 51
270.0000000000521254
  0
LINE
  5
396E2
  8
0
 10
2914.0745972482791331
 20
145.9059925507150979
 30
0.0
 11
2914.0845972482779871
 21
145.9059925507150979
 31
0.0
  0
LINE
  5
396E3
  8
0
 10
2914.6245972482779507
 20
145.7653925507150916
 30
0.0
 11
2914.6099807324781068
 21
145.7653925507150916
 31
0.0
  0
ARC
  5
396E4
  8
0
 10
2914.6099807324781068
 20
145.6953925507150984
 30
0.0
 40
0.0700000000000056
 50
90.0
 51
154.0555201462769048
  0
ARC
  5
396E5
  8
0
 10
2914.6245972482779507
 20
145.7753925507151109
 30
0.0
 40
0.01
 50
270.0
 51
0.0
  0
ARC
  5
396E6
  8
0
 10
2914.5380432596289211
 20
145.730392550715095
 30
0.0
 40
0.01
 50
269.9999999999478746
 51
334.0555202277653279
  0
ARC
  5
396E7
  8
0
 10
2914.6545972482781508
 20
145.8303925507150893
 30
0.0
 40
0.02
 50
180.0
 51
270.0
  0
LINE
  5
396E8
  8
0
 10
2914.6545972482781508
 20
145.8103925507151075
 30
0.0
 11
2917.0035972482778561
 21
145.8103925507151075
 31
0.0
  0
LINE
  5
396E9
  8
0
 10
2912.9161608687718399
 20
146.7249524414116877
 30
0.0
 11
2912.9161608687718399
 21
146.0558326600184955
 31
0.0
  0
LINE
  5
396EA
  8
0
 10
2913.0364892161342141
 20
146.8258307227202124
 30
0.0
 11
2913.0364892161342141
 21
145.9549543787101129
 31
0.0
  0
LINE
  5
396EB
  8
0
 10
2913.546333606836015
 20
146.825718573567201
 30
0.0
 11
2913.546333606836015
 21
145.9550665278630106
 31
0.0
  0
LINE
  5
396EC
  8
0
 10
2914.0114105994498459
 20
146.958238203794707
 30
0.0
 11
2914.0114105994498459
 21
145.8225468976355899
 31
0.0
  0
LINE
  5
396ED
  8
0
 10
2914.1721590528209163
 20
147.0547675507150984
 30
0.0
 11
2914.1721590528209163
 21
145.7260175507151985
 31
0.0
  0
LINE
  5
396EE
  8
0
 10
2914.5470354437779861
 20
147.0547675506257121
 30
0.0
 11
2914.5470354437779861
 21
145.7260175508044995
 31
0.0
  0
LINE
  5
396EF
  8
0
 10
2917.5635972482791658
 20
147.0153925507150916
 30
0.0
 11
2917.5489807324779576
 21
147.0153925507150916
 31
0.0
  0
LINE
  5
396F0
  8
0
 10
2917.4770432596278624
 20
147.0603925507151075
 30
0.0
 11
2917.1201512369279953
 21
147.0603925507151075
 31
0.0
  0
ARC
  5
396F1
  8
0
 10
2917.5489807324779576
 20
147.0853925507151132
 30
0.0
 40
0.0700000000000056
 50
205.9444798537215888
 51
270.0
  0
ARC
  5
396F2
  8
0
 10
2917.5635972482791658
 20
147.0053925507151007
 30
0.0
 40
0.01
 50
0.0
 51
90.0
  0
ARC
  5
396F3
  8
0
 10
2917.4770432596278624
 20
147.0503925507150882
 30
0.0
 40
0.01
 50
25.9444797722274316
 51
90.0000000000521254
  0
LINE
  5
396F4
  8
0
 10
2917.0235972482778379
 20
147.0053925507151007
 30
0.0
 11
2917.0235972482778379
 21
145.7753925507151109
 31
0.0
  0
LINE
  5
396F5
  8
0
 10
2917.0335972482780562
 20
147.0153925507150916
 30
0.0
 11
2917.0482137640779001
 21
147.0153925507150916
 31
0.0
  0
ARC
  5
396F6
  8
0
 10
2917.0482137640779001
 20
147.0853925507151132
 30
0.0
 40
0.0700000000000056
 50
270.0
 51
334.0555201462768764
  0
ARC
  5
396F7
  8
0
 10
2917.0335972482780562
 20
147.0053925507151007
 30
0.0
 40
0.01
 50
90.0
 51
180.0
  0
ARC
  5
396F8
  8
0
 10
2917.1201512369270858
 20
147.0503925507150882
 30
0.0
 40
0.01
 50
89.9999999999478888
 51
154.0555202277651858
  0
LINE
  5
396F9
  8
0
 10
2917.5635972482791658
 20
145.7653925507150916
 30
0.0
 11
2917.5489807324779576
 21
145.7653925507150916
 31
0.0
  0
LINE
  5
396FA
  8
0
 10
2917.4770432596278624
 20
145.7203925507151041
 30
0.0
 11
2917.1201512369279953
 21
145.7203925507151041
 31
0.0
  0
ARC
  5
396FB
  8
0
 10
2917.5489807324779576
 20
145.6953925507150984
 30
0.0
 40
0.0700000000000056
 50
90.0
 51
154.0555201462769048
  0
ARC
  5
396FC
  8
0
 10
2917.5635972482791658
 20
145.7753925507151109
 30
0.0
 40
0.01
 50
270.0
 51
0.0
  0
ARC
  5
396FD
  8
0
 10
2917.4770432596278624
 20
145.730392550715095
 30
0.0
 40
0.01
 50
269.9999999999478746
 51
334.0555202277726039
  0
LINE
  5
396FE
  8
0
 10
2917.0335972482780562
 20
145.7653925507150916
 30
0.0
 11
2917.0482137640779001
 21
145.7653925507150916
 31
0.0
  0
ARC
  5
396FF
  8
0
 10
2917.0482137640779001
 20
145.6953925507150984
 30
0.0
 40
0.0700000000000056
 50
25.94447985372312
 51
90.0
  0
ARC
  5
39700
  8
0
 10
2917.0335972482780562
 20
145.7753925507151109
 30
0.0
 40
0.01
 50
180.0
 51
270.0
  0
ARC
  5
39701
  8
0
 10
2917.1201512369270858
 20
145.730392550715095
 30
0.0
 40
0.01
 50
205.9444797722348142
 51
270.0000000000521254
  0
LINE
  5
39702
  8
0
 10
2917.4860354437350907
 20
147.0547675507150984
 30
0.0
 11
2917.4860354437350907
 21
145.7260175507151985
 31
0.0
  0
LINE
  5
39703
  8
0
 10
2917.1111590527780209
 20
147.0547675506257121
 30
0.0
 11
2917.1111590527780209
 21
145.7260175508044995
 31
0.0
  0
ARC
  5
39704
  8
0
 10
2917.0035972482778561
 20
145.7903925507150973
 30
0.0
 40
0.02
 50
0.0
 51
90.0
  0
ARC
  5
39705
  8
0
 10
2917.0035972482778561
 20
146.9903925507150859
 30
0.0
 40
0.02
 50
270.0
 51
0.0
  0
LINE
  5
39706
  8
0
 10
2917.691597248277958
 20
146.8074977994616859
 30
0.0
 11
2917.691597248277958
 21
145.973287301968611
 31
0.0
  0
LINE
  5
39707
  8
0
 10
2917.6261875588547809
 20
146.9703925507151041
 30
0.0
 11
2917.5935972482780016
 21
146.9703925507151041
 31
0.0
  0
ARC
  5
39708
  8
0
 10
2918.108185939474879
 20
147.0485830290722902
 30
0.0
 40
0.4799999993814882
 50
190.3686280100216095
 51
209.4728231652335921
  0
ARC
  5
39709
  8
0
 10
2917.6815972482781945
 20
146.8074977994616859
 30
0.0
 40
0.01
 50
0.0000000000309404
 51
29.4728231816096908
  0
ARC
  5
3970A
  8
0
 10
2917.6261875588547809
 20
146.9603925507151132
 30
0.0
 40
0.01
 50
10.3686279665534506
 51
89.9999999999739515
  0
ARC
  5
3970B
  8
0
 10
2917.5935972482780016
 20
146.9903925507150859
 30
0.0
 40
0.02
 50
180.0000000000098055
 51
270.0
  0
LINE
  5
3970C
  8
0
 10
2917.5735972482780198
 20
145.7753925507151109
 30
0.0
 11
2917.5735972482780198
 21
147.0053925507151007
 31
0.0
  0
LINE
  5
3970D
  8
0
 10
2917.6261875588547809
 20
145.8103925507151075
 30
0.0
 11
2917.5935972482780016
 21
145.8103925507151075
 31
0.0
  0
ARC
  5
3970E
  8
0
 10
2918.108185939474879
 20
145.732202072357893
 30
0.0
 40
0.4799999993814882
 50
150.5271768347662942
 51
169.6313720335026005
  0
ARC
  5
3970F
  8
0
 10
2917.6261875588547809
 20
145.8203925507150984
 30
0.0
 40
0.01
 50
270.0
 51
349.6313720334994173
  0
ARC
  5
39710
  8
0
 10
2917.5935972482780016
 20
145.7903925507150973
 30
0.0
 40
0.02
 50
90.0
 51
179.9999999999901945
  0
ARC
  5
39711
  8
0
 10
2917.6815972482781945
 20
145.973287301968611
 30
0.0
 40
0.01
 50
330.5271768184088046
 51
359.9999999999593001
  0
LINE
  5
39712
  8
0
 10
2917.6360242605787789
 20
146.9621923560395089
 30
0.0
 11
2917.6360242605787789
 21
145.818592745390788
 31
0.0
  0
LINE
  5
39713
  8
0
 10
2917.691597248277958
 20
146.7653925507150916
 30
0.0
 11
2928.7817901146968325
 21
146.7653925507150916
 31
0.0
  0
LINE
  5
39714
  8
0
 10
2917.691597248277958
 20
146.0153925507150916
 30
0.0
 11
2928.7817901146968325
 21
146.0153925507150916
 31
0.0
  0
ARC
  5
39715
  8
0
 10
2928.7845868196782249
 20
146.3903925507150916
 30
0.0
 40
0.5349895714000006
 50
224.5031312489064987
 51
135.4968687510923075
  0
ARC
  5
39716
  8
0
 10
2928.7845868196782249
 20
146.3903925507150916
 30
0.0
 40
0.4756049722968463
 50
232.0427101717992002
 51
127.957289828199805
  0
ARC
  5
39717
  8
0
 10
2928.7845868196782249
 20
146.3903925507150916
 30
0.0
 40
0.3750104285999996
 50
269.5727028766384024
 51
90.4272971233095149
  0
ARC
  5
39718
  8
0
 10
2928.7817901146968325
 20
146.3903925507150916
 30
0.0
 40
0.4156729152131408
 50
244.4423473325099962
 51
115.5576526674891937
  0
ARC
  5
39719
  8
0
 10
2928.7845868196782249
 20
146.3903925507150916
 30
0.0
 40
0.3950551630924674
 50
251.6651878486408123
 51
108.3348121513587046
  0
LINE
  5
3971A
  8
0
 10
2918.5445972482780235
 20
148.7573925507151102
 30
0.0
 11
2921.2745972482780417
 21
148.7573925507151102
 31
0.0
  0
LINE
  5
3971B
  8
0
 10
2918.5445972482780235
 20
148.5367250527986869
 30
0.0
 11
2918.5445972482780235
 21
148.7573925507151102
 31
0.0
  0
LINE
  5
3971C
  8
0
 10
2918.6319260054779079
 20
148.4499105765150944
 30
0.0
 11
2921.1872684910781572
 21
148.4499105765150944
 31
0.0
  0
LINE
  5
3971D
  8
0
 10
2918.704597248277878
 20
148.3909822435151113
 30
0.0
 11
2921.1145972482781872
 21
148.3909822435151113
 31
0.0
  0
LINE
  5
3971E
  8
0
 10
2918.6945972482781144
 20
148.4009822435151023
 30
0.0
 11
2918.6945972482781144
 21
148.4314353136578859
 31
0.0
  0
LINE
  5
3971F
  8
0
 10
2919.1132703632920311
 20
148.197392550715108
 30
0.0
 11
2920.7059241332649435
 21
148.197392550715108
 31
0.0
  0
LINE
  5
39720
  8
0
 10
2919.2295972482779689
 20
148.1773925507150977
 30
0.0
 11
2919.2295972482779689
 21
148.1473925507150966
 31
0.0
  0
LINE
  5
39721
  8
0
 10
2919.2395972482781872
 20
148.1373925507151057
 30
0.0
 11
2920.579597248277878
 21
148.1373925507151057
 31
0.0
  0
ARC
  5
39722
  8
0
 10
2918.8320121438209753
 20
148.0868528731029983
 30
0.0
 40
0.2959999998346723
 50
23.1986663482669293
 51
76.6535684055340454
  0
ARC
  5
39723
  8
0
 10
2918.7625298116468002
 20
147.7939822404048016
 30
0.0
 40
0.5970000031259638
 50
76.6535684055340454
 51
90.0
  0
ARC
  5
39724
  8
0
 10
2918.704597248277878
 20
148.4009822435151023
 30
0.0
 40
0.01
 50
180.0000000000406999
 51
269.9999999999739089
  0
ARC
  5
39725
  8
0
 10
2918.6745799185600845
 20
148.4306046436059034
 30
0.0
 40
0.0200345576887416
 50
2.3762708302458102
 51
74.5002461761149704
  0
ARC
  5
39726
  8
0
 10
2918.5436737567360979
 20
148.448397948560995
 30
0.0
 40
0.0790000000589249
 50
7.4323432283066131
 51
82.9499763977388938
  0
ARC
  5
39727
  8
0
 10
2918.6319260054779079
 20
148.459910576515199
 30
0.0
 40
0.01
 50
187.4323432247080063
 51
269.9999999997655209
  0
ARC
  5
39728
  8
0
 10
2918.554597248277787
 20
148.5367250527986869
 30
0.0
 40
0.01
 50
180.0000000002345075
 51
262.9499767253835216
  0
ARC
  5
39729
  8
0
 10
2919.1132703632920311
 20
148.2073925507150989
 30
0.0
 40
0.01
 50
203.1986663582839867
 51
269.9999999999739089
  0
ARC
  5
3972A
  8
0
 10
2919.2095972482779871
 20
148.1773925507150977
 30
0.0
 40
0.02
 50
359.9999999999951115
 51
90.0
  0
ARC
  5
3972B
  8
0
 10
2919.2395972482781872
 20
148.1473925507150966
 30
0.0
 40
0.01
 50
180.0000000000194973
 51
269.9999999999739089
  0
LINE
  5
3972C
  8
0
 10
2919.329597248277878
 20
144.7253925507150996
 30
0.0
 11
2919.329597248277878
 21
144.691933503848702
 31
0.0
  0
LINE
  5
3972D
  8
0
 10
2919.5685972482779107
 20
143.5912901401788133
 30
0.0
 11
2919.5685972482779107
 21
143.6143925507151096
 31
0.0
  0
LINE
  5
3972E
  8
0
 10
2920.282724708978094
 20
143.6343925507150914
 30
0.0
 11
2919.5364697875779711
 21
143.6343925507150914
 31
0.0
  0
ARC
  5
3972F
  8
0
 10
2919.9095972482778052
 20
144.4603925507151985
 30
0.0
 40
0.9400000000000622
 50
249.1505296034744958
 51
290.8494704057238778
  0
ARC
  5
39730
  8
0
 10
2919.578597248278129
 20
143.5912901401788133
 30
0.0
 40
0.01
 50
179.9999999999787974
 51
249.1505295943323119
  0
ARC
  5
39731
  8
0
 10
2919.5485972482779289
 20
143.6143925507151096
 30
0.0
 40
0.02
 50
0.0000000000097707
 51
90.0
  0
ARC
  5
39732
  8
0
 10
2919.4570972483911646
 20
143.6343925508660107
 30
0.0
 40
0.0699999998376381
 50
7.1807556732849749
 51
75.892025364458604
  0
ARC
  5
39733
  8
0
 10
2919.5364697875779711
 20
143.6443925507153097
 30
0.0
 40
0.01
 50
187.1807556881088885
 51
269.9999999996090878
  0
LINE
  5
39734
  8
0
 10
2919.4665972482780489
 20
143.7119795986151871
 30
0.0
 11
2919.4665972482780489
 21
144.2024071051149861
 31
0.0
  0
ARC
  5
39735
  8
0
 10
2919.4765972482791767
 20
143.7119795986153008
 30
0.0
 40
0.01
 50
180.0000000004168896
 51
255.8920254026610905
  0
ARC
  5
39736
  8
0
 10
2919.457994597798006
 20
144.2802163702268956
 30
0.0
 40
0.0700021271102968
 50
283.4459344716257192
 51
0.842385174779107
  0
LINE
  5
39737
  8
0
 10
2920.2812064181398455
 20
144.2913925507151021
 30
0.0
 11
2919.5379880784171291
 21
144.2913925507151021
 31
0.0
  0
LINE
  5
39738
  8
0
 10
2919.5700972482782163
 20
144.3113925507151123
 30
0.0
 11
2919.5700972482782163
 21
144.4833925507616925
 31
0.0
  0
ARC
  5
39739
  8
0
 10
2919.5500972482777797
 20
144.3113925507151123
 30
0.0
 40
0.02
 50
270.0
 51
0.0
  0
ARC
  5
3973A
  8
0
 10
2919.5379880784171291
 20
144.2813925507151964
 30
0.0
 40
0.01
 50
89.9999999998957776
 51
180.8423851750301878
  0
ARC
  5
3973B
  8
0
 10
2919.4765972482791767
 20
144.2024071051149861
 30
0.0
 40
0.01
 50
103.4458895498648019
 51
180.0000000001122942
  0
ARC
  5
3973C
  8
0
 10
2919.4100972484520753
 20
144.4833925507616925
 30
0.0
 40
0.1599999998268418
 50
0.0000000000113991
 51
60.122618800023659
  0
ARC
  5
3973D
  8
0
 10
2919.2506906948560754
 20
144.2059226367614997
 30
0.0
 40
0.4800000037399092
 50
60.122618800023659
 51
79.0641272646535782
  0
LINE
  5
3973E
  8
0
 10
2919.3445972482782054
 20
144.7403925507150859
 30
0.0
 11
2920.4745972482778598
 21
144.7403925507159954
 31
0.0
  0
LINE
  5
3973F
  8
0
 10
2919.2945972482780235
 20
144.7503925507151052
 30
0.0
 11
2920.5245972482780417
 21
144.7503925507151052
 31
0.0
  0
LINE
  5
39740
  8
0
 10
2919.425197248277982
 20
144.7403925507151996
 30
0.0
 11
2919.425197248277982
 21
144.7503925507151052
 31
0.0
  0
ARC
  5
39741
  8
0
 10
2919.3445972482782054
 20
144.7253925507150996
 30
0.0
 40
0.015
 50
90.0000000000521254
 51
180.0000000000065086
  0
ARC
  5
39742
  8
0
 10
2919.3445972482782054
 20
144.6919335038487873
 30
0.0
 40
0.015
 50
180.0000000000472085
 51
259.0641272720574761
  0
LINE
  5
39743
  8
0
 10
2919.2845972482778052
 20
144.7603925507150961
 30
0.0
 11
2919.2845972482778052
 21
144.7750090665151106
 31
0.0
  0
ARC
  5
39744
  8
0
 10
2919.2945972482780235
 20
144.7603925507150961
 30
0.0
 40
0.01
 50
180.0000000000098055
 51
269.9999999999739089
  0
LINE
  5
39745
  8
0
 10
2919.2395972482781872
 20
144.8469465393648932
 30
0.0
 11
2919.2395972482781872
 21
145.2038385620653003
 31
0.0
  0
ARC
  5
39746
  8
0
 10
2919.2145972482780962
 20
144.7750090665151106
 30
0.0
 40
0.0700000000000038
 50
0.0000000000032569
 51
64.0555202276007805
  0
ARC
  5
39747
  8
0
 10
2919.2495972482788602
 20
144.8469465393650069
 30
0.0
 40
0.01
 50
180.0000000004168896
 51
244.0555202265001924
  0
LINE
  5
39748
  8
0
 10
2919.2945972482780235
 20
145.3003925507150882
 30
0.0
 11
2920.5245972482780417
 21
145.3003925507150882
 31
0.0
  0
LINE
  5
39749
  8
0
 10
2919.2845972482778052
 20
145.2903925507150973
 30
0.0
 11
2919.2845972482778052
 21
145.2757760349151113
 31
0.0
  0
ARC
  5
3974A
  8
0
 10
2919.2945972482780235
 20
145.2903925507150973
 30
0.0
 40
0.01
 50
90.0000000000260485
 51
179.9999999999901945
  0
ARC
  5
3974B
  8
0
 10
2919.2145972482780962
 20
145.2757760349151113
 30
0.0
 40
0.0700000000000038
 50
295.9444797723992906
 51
359.9999999999968168
  0
ARC
  5
3974C
  8
0
 10
2919.2495972482788602
 20
145.2038385620653003
 30
0.0
 40
0.01
 50
115.9444797734996939
 51
179.9999999995619078
  0
LINE
  5
3974D
  8
0
 10
2919.329597248277878
 20
148.1373925507151057
 30
0.0
 11
2919.329597248277878
 21
146.7653925507150916
 31
0.0
  0
LINE
  5
3974E
  8
0
 10
2919.329597248277878
 20
146.0153925507150916
 30
0.0
 11
2919.329597248277878
 21
145.3203925507150984
 31
0.0
  0
ARC
  5
3974F
  8
0
 10
2919.3495972482778598
 20
145.3203925507150984
 30
0.0
 40
0.02
 50
179.9999999999951115
 51
270.0
  0
LINE
  5
39750
  8
0
 10
2921.2745972482780417
 20
148.5367250527986869
 30
0.0
 11
2921.2745972482780417
 21
148.7573925507151102
 31
0.0
  0
LINE
  5
39751
  8
0
 10
2921.1245972482779507
 20
148.4009822435151023
 30
0.0
 11
2921.1245972482779507
 21
148.4314353136578859
 31
0.0
  0
LINE
  5
39752
  8
0
 10
2920.5895972482780962
 20
148.1773925507150977
 30
0.0
 11
2920.5895972482780962
 21
148.1473925507150966
 31
0.0
  0
ARC
  5
39753
  8
0
 10
2920.9871823527359993
 20
148.0868528731029983
 30
0.0
 40
0.2959999998346723
 50
103.3464315944658978
 51
156.801333651732989
  0
ARC
  5
39754
  8
0
 10
2921.0566646849088102
 20
147.7939822404048016
 30
0.0
 40
0.5970000031259638
 50
90.0
 51
103.3464315944658978
  0
ARC
  5
39755
  8
0
 10
2921.1145972482781872
 20
148.4009822435151023
 30
0.0
 40
0.01
 50
270.0000000000259774
 51
359.9999999999593001
  0
ARC
  5
39756
  8
0
 10
2921.1446145779968901
 20
148.4306046436059034
 30
0.0
 40
0.0200345576887416
 50
105.4997538238850012
 51
177.6237291697541991
  0
ARC
  5
39757
  8
0
 10
2921.2755207398208768
 20
148.448397948560995
 30
0.0
 40
0.0790000000589249
 50
97.0500236022611062
 51
172.5676567716934073
  0
ARC
  5
39758
  8
0
 10
2921.1872684910781572
 20
148.459910576515199
 30
0.0
 40
0.01
 50
270.0000000002344791
 51
352.5676567752919937
  0
ARC
  5
39759
  8
0
 10
2921.2645972482778234
 20
148.5367250527986869
 30
0.0
 40
0.01
 50
277.0500232746164784
 51
359.9999999997655209
  0
ARC
  5
3975A
  8
0
 10
2920.7059241332649435
 20
148.2073925507150989
 30
0.0
 40
0.01
 50
270.0000000000259774
 51
336.8013336417159849
  0
ARC
  5
3975B
  8
0
 10
2920.609597248278078
 20
148.1773925507150977
 30
0.0
 40
0.02
 50
90.0
 51
180.0000000000048885
  0
ARC
  5
3975C
  8
0
 10
2920.579597248277878
 20
148.1473925507150966
 30
0.0
 40
0.01
 50
270.0000000000259774
 51
359.9999999999789111
  0
LINE
  5
3975D
  8
0
 10
2920.4895972482781872
 20
144.7253925507150996
 30
0.0
 11
2920.4895972482781872
 21
144.691933503848702
 31
0.0
  0
LINE
  5
3975E
  8
0
 10
2920.2505972482781544
 20
143.5912901401788133
 30
0.0
 11
2920.2505972482781544
 21
143.6143925507151096
 31
0.0
  0
ARC
  5
3975F
  8
0
 10
2920.2405972482779362
 20
143.5912901401788133
 30
0.0
 40
0.01
 50
290.8494704056677165
 51
0.0000000000195413
  0
ARC
  5
39760
  8
0
 10
2920.2705972482781362
 20
143.6143925507151096
 30
0.0
 40
0.02
 50
90.0
 51
179.9999999999901945
  0
ARC
  5
39761
  8
0
 10
2920.36209724816581
 20
143.6343925508660107
 30
0.0
 40
0.0699999998376381
 50
104.107974635541396
 51
172.819244326714994
  0
ARC
  5
39762
  8
0
 10
2920.282724708978094
 20
143.6443925507153097
 30
0.0
 40
0.01
 50
270.0000000003907985
 51
352.8192443118911115
  0
LINE
  5
39763
  8
0
 10
2920.3525972482780162
 20
143.7119795986151871
 30
0.0
 11
2920.3525972482780162
 21
144.2024071051149861
 31
0.0
  0
ARC
  5
39764
  8
0
 10
2920.3425972482777979
 20
143.7119795986153008
 30
0.0
 40
0.01
 50
284.1079745973387958
 51
359.9999999995831104
  0
ARC
  5
39765
  8
0
 10
2920.3611998987580591
 20
144.2802163702268956
 30
0.0
 40
0.0700021271102968
 50
179.1576148252208895
 51
256.5540655283743945
  0
LINE
  5
39766
  8
0
 10
2920.2490972482792131
 20
144.3113925507151123
 30
0.0
 11
2920.2490972482792131
 21
144.4833925507616925
 31
0.0
  0
ARC
  5
39767
  8
0
 10
2920.2690972482778307
 20
144.3113925507151123
 30
0.0
 40
0.02
 50
180.0
 51
270.0
  0
ARC
  5
39768
  8
0
 10
2920.2812064181398455
 20
144.2813925507151964
 30
0.0
 40
0.01
 50
359.1576148249698122
 51
90.0000000001042082
  0
ARC
  5
39769
  8
0
 10
2920.3425972482791622
 20
144.2024071051149861
 30
0.0
 40
0.01
 50
359.9999999998876206
 51
76.5541104501352407
  0
ARC
  5
3976A
  8
0
 10
2920.4090972481048993
 20
144.4833925507616925
 30
0.0
 40
0.1599999998268418
 50
119.8773811999762984
 51
179.9999999999886029
  0
ARC
  5
3976B
  8
0
 10
2920.5685038016999897
 20
144.2059226367614997
 30
0.0
 40
0.4800000037399092
 50
100.9358727353463934
 51
119.8773811999762984
  0
LINE
  5
3976C
  8
0
 10
2920.3939972482780831
 20
144.7403925507151996
 30
0.0
 11
2920.3939972482780831
 21
144.7503925507151052
 31
0.0
  0
ARC
  5
3976D
  8
0
 10
2920.4745972482778598
 20
144.7253925507150996
 30
0.0
 40
0.015
 50
359.9999999999935199
 51
89.9999999999478888
  0
ARC
  5
3976E
  8
0
 10
2920.4745972482778598
 20
144.6919335038487873
 30
0.0
 40
0.015
 50
280.9358727279425239
 51
359.99999999995282
  0
LINE
  5
3976F
  8
0
 10
2920.5345972482778052
 20
144.7603925507150961
 30
0.0
 11
2920.5345972482778052
 21
144.7750090665151106
 31
0.0
  0
ARC
  5
39770
  8
0
 10
2920.5245972482780417
 20
144.7603925507150961
 30
0.0
 40
0.01
 50
270.0000000000259774
 51
359.9999999999902229
  0
LINE
  5
39771
  8
0
 10
2920.579597248277878
 20
144.8469465393648932
 30
0.0
 11
2920.579597248277878
 21
145.2038385620653003
 31
0.0
  0
ARC
  5
39772
  8
0
 10
2920.6045972482779689
 20
144.7750090665151106
 30
0.0
 40
0.0700000000000038
 50
115.9444797723992053
 51
179.9999999999967031
  0
ARC
  5
39773
  8
0
 10
2920.5695972482781144
 20
144.8469465393650069
 30
0.0
 40
0.01
 50
295.9444797734997223
 51
359.9999999995831104
  0
LINE
  5
39774
  8
0
 10
2920.5345972482778052
 20
145.2903925507150973
 30
0.0
 11
2920.5345972482778052
 21
145.2757760349151113
 31
0.0
  0
ARC
  5
39775
  8
0
 10
2920.5245972482780417
 20
145.2903925507150973
 30
0.0
 40
0.01
 50
0.0000000000097707
 51
89.9999999999739515
  0
ARC
  5
39776
  8
0
 10
2920.6045972482779689
 20
145.2757760349151113
 30
0.0
 40
0.0700000000000038
 50
180.0000000000032117
 51
244.0555202276007947
  0
ARC
  5
39777
  8
0
 10
2920.5695972482781144
 20
145.2038385620653003
 30
0.0
 40
0.01
 50
0.0000000004380514
 51
64.0555202265002919
  0
LINE
  5
39778
  8
0
 10
2920.4895972482781872
 20
148.1373925507151057
 30
0.0
 11
2920.4895972482781872
 21
146.7653925507150916
 31
0.0
  0
LINE
  5
39779
  8
0
 10
2920.4895972482781872
 20
146.0153925507150916
 30
0.0
 11
2920.4895972482781872
 21
145.3203925507150984
 31
0.0
  0
ARC
  5
3977A
  8
0
 10
2920.4695972482782054
 20
145.3203925507150984
 30
0.0
 40
0.02
 50
270.0
 51
0.0000000000048853
  0
LINE
  5
3977B
  8
0
 10
2920.3450347482230427
 20
143.7022812176151092
 30
0.0
 11
2919.4741597483339319
 21
143.7022812176151092
 31
0.0
  0
LINE
  5
3977C
  8
0
 10
2920.3449224643832167
 20
144.2121330174151126
 30
0.0
 11
2919.4742720321742127
 21
144.2121330174151126
 31
0.0
  0
LINE
  5
3977D
  8
0
 10
2920.4774429013909867
 20
144.6772059019270955
 30
0.0
 11
2919.341751595165988
 21
144.6772059019270955
 31
0.0
  0
LINE
  5
3977E
  8
0
 10
2920.5739722482790057
 20
144.8379543552588018
 30
0.0
 11
2919.2452222482779689
 21
144.8379543552588018
 31
0.0
  0
LINE
  5
3977F
  8
0
 10
2920.5739722482780962
 20
145.2128307461717043
 30
0.0
 11
2919.2452222482779689
 21
145.2128307461717043
 31
0.0
  0
LINE
  5
39780
  8
0
 10
2921.2658246068781409
 20
148.5268006590708012
 30
0.0
 11
2918.5533698896788337
 21
148.5268006590708012
 31
0.0
  0
LINE
  5
39781
  8
0
 10
2919.5750381086340894
 20
143.5819449529151086
 30
0.0
 11
2920.2441563879228852
 21
143.5819449529151086
 31
0.0
  0
ENDSEC
  0
EOF
