  0
SECTION
  2
HEADER
  9
$ACADVER
  1
AC1009
  9
$INSBASE
 10
2880.9236544591080929
 20
149.2826973638092056
 30
0.0
  9
$EXTMIN
 10
2873.8686525918178631
 20
145.7973036638092026
 30
0.0
  9
$EXTMAX
 10
2890.3336336019069677
 20
151.7916973638093054
 30
0.0
  9
$LIMMIN
 10
0.0
 20
0.0
  9
$LIMMAX
 10
11.6929133858000007
 20
8.2677165353999982
  9
$ORTHOMODE
 70
     0
  9
$REGENMODE
 70
     1
  9
$FILLMODE
 70
     1
  9
$QTEXTMODE
 70
     0
  9
$MIRRTEXT
 70
     0
  9
$DRAGMODE
 70
     2
  9
$LTSCALE
 40
0.6431102362
  9
$OSMODE
 70
  4095
  9
$ATTMODE
 70
     1
  9
$TEXTSIZE
 40
0.2
  9
$TRACEWID
 40
0.05
  9
$TEXTSTYLE
  7
STANDARD
  9
$CLAYER
  8
0
  9
$CELTYPE
  6
BYLAYER
  9
$CECOLOR
 62
   256
  9
$DIMSCALE
 40
1.0
  9
$DIMASZ
 40
0.1875
  9
$DIMEXO
 40
0.0625
  9
$DIMDLI
 40
0.4443307087
  9
$DIMRND
 40
0.0
  9
$DIMDLE
 40
0.0
  9
$DIMEXE
 40
0.125
  9
$DIMTP
 40
0.01
  9
$DIMTM
 40
0.01
  9
$DIMTXT
 40
2.0
  9
$DIMCEN
 40
0.1052362205
  9
$DIMTSZ
 40
0.0
  9
$DIMTOL
 70
     1
  9
$DIMLIM
 70
     0
  9
$DIMTIH
 70
     1
  9
$DIMTOH
 70
     1
  9
$DIMSE1
 70
     0
  9
$DIMSE2
 70
     0
  9
$DIMTAD
 70
     0
  9
$DIMZIN
 70
     0
  9
$DIMBLK
  1

  9
$DIMASO
 70
     1
  9
$DIMSHO
 70
     1
  9
$DIMPOST
  1
\X
  9
$DIMAPOST
  1

  9
$DIMALT
 70
     1
  9
$DIMALTD
 70
     2
  9
$DIMALTF
 40
25.3999999999999986
  9
$DIMLFAC
 40
1.0
  9
$DIMTOFL
 70
     0
  9
$DIMTVP
 40
0.0
  9
$DIMTIX
 70
     0
  9
$DIMSOXD
 70
     0
  9
$DIMSAH
 70
     0
  9
$DIMBLK1
  1

  9
$DIMBLK2
  1

  9
$DIMSTYLE
  2
STANDARD
  9
$DIMCLRD
 70
     0
  9
$DIMCLRE
 70
     0
  9
$DIMCLRT
 70
     0
  9
$DIMTFAC
 40
1.0
  9
$DIMGAP
 40
0.09
  9
$LUNITS
 70
     2
  9
$LUPREC
 70
     4
  9
$SKETCHINC
 40
0.1
  9
$FILLETRAD
 40
0.0
  9
$AUNITS
 70
     0
  9
$AUPREC
 70
     0
  9
$MENU
  1
.
  9
$ELEVATION
 40
0.0
  9
$PELEVATION
 40
0.0
  9
$THICKNESS
 40
0.0
  9
$LIMCHECK
 70
     0
  9
$BLIPMODE
 70
     0
  9
$CHAMFERA
 40
0.0
  9
$CHAMFERB
 40
0.0
  9
$SKPOLY
 70
     0
  9
$TDCREATE
 40
2458060.468368056230247
  9
$TDUPDATE
 40
2460075.5905902781523764
  9
$TDINDWG
 40
0.691222338
  9
$TDUSRTIMER
 40
0.691222338
  9
$USRTIMER
 70
     1
  9
$ANGBASE
 50
0.0
  9
$ANGDIR
 70
     0
  9
$PDMODE
 70
     0
  9
$PDSIZE
 40
0.3125
  9
$PLINEWID
 40
0.0
  9
$COORDS
 70
     1
  9
$SPLFRAME
 70
     0
  9
$SPLINETYPE
 70
     6
  9
$SPLINESEGS
 70
     8
  9
$ATTDIA
 70
     1
  9
$ATTREQ
 70
     1
  9
$HANDLING
 70
     1
  9
$HANDSEED
  5
39538
  9
$SURFTAB1
 70
     6
  9
$SURFTAB2
 70
     6
  9
$SURFTYPE
 70
     6
  9
$SURFU
 70
     6
  9
$SURFV
 70
     6
  9
$UCSNAME
  2

  9
$UCSORG
 10
0.0
 20
0.0
 30
0.0
  9
$UCSXDIR
 10
1.0
 20
0.0
 30
0.0
  9
$UCSYDIR
 10
0.0
 20
1.0
 30
0.0
  9
$PUCSNAME
  2

  9
$PUCSORG
 10
0.0
 20
0.0
 30
0.0
  9
$PUCSXDIR
 10
1.0
 20
0.0
 30
0.0
  9
$PUCSYDIR
 10
0.0
 20
1.0
 30
0.0
  9
$USERI1
 70
     0
  9
$USERI2
 70
     0
  9
$USERI3
 70
     0
  9
$USERI4
 70
     0
  9
$USERI5
 70
     0
  9
$USERR1
 40
0.0
  9
$USERR2
 40
0.0
  9
$USERR3
 40
0.0
  9
$USERR4
 40
0.0
  9
$USERR5
 40
0.0
  9
$WORLDVIEW
 70
     1
  9
$SHADEDGE
 70
     3
  9
$SHADEDIF
 70
    70
  9
$TILEMODE
 70
     1
  9
$MAXACTVP
 70
    64
  9
$PLIMCHECK
 70
     0
  9
$PEXTMIN
 10
1.0000000000000000E+20
 20
1.0000000000000000E+20
 30
1.0000000000000000E+20
  9
$PEXTMAX
 10
-1.0000000000000000E+20
 20
-1.0000000000000000E+20
 30
-1.0000000000000000E+20
  9
$PLIMMIN
 10
0.0
 20
0.0
  9
$PLIMMAX
 10
12.0
 20
9.0
  9
$UNITMODE
 70
     0
  9
$VISRETAIN
 70
     1
  9
$PLINEGEN
 70
     0
  9
$PSLTSCALE
 70
     1
  0
ENDSEC
  0
SECTION
  2
TABLES
  0
TABLE
  2
VPORT
 70
     1
  0
VPORT
  2
*ACTIVE
 70
     0
 10
0.0
 20
0.0
 11
1.0
 21
1.0
 12
-421.5998700570270898
 22
-46.4668051570380101
 13
0.0
 23
0.0
 14
1.0
 24
1.0
 15
0.0
 25
0.0
 16
0.0
 26
0.0
 36
96.5995694866707311
 17
3303.693115234375
 27
195.2615115758877096
 37
0.0
 40
9.8419549233195731
 41
1.7089041095890409
 42
50.0
 43
0.0
 44
0.0
 50
0.0
 51
0.0
 71
     0
 72
   100
 73
     1
 74
     1
 75
     0
 76
     0
 77
     0
 78
     0
  0
ENDTAB
  0
TABLE
  2
LTYPE
 70
     2
  0
LTYPE
  2
CONTINUOUS
 70
     0
  3
Solid line
 72
    65
 73
     0
 40
0.0
  0
LTYPE
  2
PHANTOM2
 70
     0
  3
___ _ _ ___ _ _ ___ _ _ ___ _ _
 72
    65
 73
     6
 40
1.25
 49
0.625
 49
-0.125
 49
0.125
 49
-0.125
 49
0.125
 49
-0.125
  0
ENDTAB
  0
TABLE
  2
LAYER
 70
     2
  0
LAYER
  2
0
 70
     0
 62
   255
  6
CONTINUOUS
  0
LAYER
  2
DEFPOINTS
 70
     0
 62
     7
  6
CONTINUOUS
  0
ENDTAB
  0
TABLE
  2
STYLE
 70
     1
  0
STYLE
  2
STANDARD
 70
     0
 40
0.0
 41
0.8
 50
0.0
 71
     0
 42
0.2
  3
txt
  4

  0
ENDTAB
  0
TABLE
  2
VIEW
 70
     0
  0
ENDTAB
  0
TABLE
  2
UCS
 70
     0
  0
ENDTAB
  0
TABLE
  2
APPID
 70
     9
  0
APPID
  2
ACAD
 70
     0
  0
APPID
  2
ACAD_MLEADERVER
 70
     0
  0
APPID
  2
ACAD_EXEMPT_FROM_CAD_STANDARDS
 70
     0
  0
APPID
  2
ACAD_NAV_VCDISPLAY
 70
     0
  0
APPID
  2
ACAECLAYERSTANDARD
 70
     0
  0
APPID
  2
ACCMTRANSPARENCY
 70
     0
  0
APPID
  2
ACAD_DSTYLE_DIMJAG
 70
     0
  0
APPID
  2
ACAD_DSTYLE_DIMTALN
 70
     0
  0
APPID
  2
ACDBATTR
 70
     0
  0
ENDTAB
  0
TABLE
  2
DIMSTYLE
 70
     1
  0
DIMSTYLE
  2
STANDARD
 70
     0
  3

  4

  5

  6

  7

 40
1.0
 41
0.1875
 42
0.0625
 43
0.38
 44
0.125
 45
0.0
 46
0.0
 47
0.01
 48
0.01
140
0.15625
141
0.09
142
0.0
143
25.3999999999999986
144
1.0
145
0.0
146
1.0
147
0.09
 71
     1
 72
     0
 73
     1
 74
     1
 75
     0
 76
     0
 77
     0
 78
     4
170
     0
171
     2
172
     0
173
     0
174
     0
175
     0
176
     0
177
     0
178
     0
  0
ENDTAB
  0
ENDSEC
  0
SECTION
  2
BLOCKS
  0
BLOCK
  8
0
  2
$MODEL_SPACE
 70
     0
 10
0.0
 20
0.0
 30
0.0
  3
$MODEL_SPACE
  1

  0
ENDBLK
  5
21
  8
0
  0
BLOCK
 67
     1
  8
0
  2
$PAPER_SPACE
 70
     0
 10
0.0
 20
0.0
 30
0.0
  3
$PAPER_SPACE
  1

  0
ENDBLK
  5
1D
 67
     1
  8
0
  0
ENDSEC
  0
SECTION
  2
ENTITIES
  0
ATTDEF
  5
35BFF
  8
DEFPOINTS
 10
2880.9211947794028674
 20
149.2871097175668922
 30
0.0
 40
0.001
  1
P31570-00
  3

  2
MODELNUMBER
 70
     0
1001
ACDBATTR
1070
     0
1070
     1
  0
ATTDEF
  5
35C00
  8
DEFPOINTS
 10
2880.9211947794028674
 20
149.2854430509003123
 30
0.0
 40
0.001
  1
TRADITIONAL
  3

  2
TRADENAME
 70
     0
1001
ACDBATTR
1070
     0
1070
     1
  0
ATTDEF
  5
35C01
  8
DEFPOINTS
 10
2880.9211947794028674
 20
149.2837763842335903
 30
0.0
 40
0.001
  1
POT FILLER
  3

  2
PRODUCT
 70
     0
1001
ACDBATTR
1070
     0
1070
     1
  0
LINE
  5
392DD
  8
0
 10
2873.9626544591069432
 20
151.4626973638092124
 30
0.0
 11
2873.9395629807891055
 21
151.4626973638092124
 31
0.0
  0
LINE
  5
392DE
  8
0
 10
2874.0602446390289515
 20
151.5646973638091879
 30
0.0
 11
2874.5506650982729298
 21
151.5646973638091879
 31
0.0
  0
LINE
  5
392DF
  8
0
 10
2873.9826544591069251
 20
150.7485699031124113
 30
0.0
 11
2873.9826544591069251
 21
151.4948248245061109
 31
0.0
  0
ARC
  5
392E0
  8
0
 10
2873.9626544591069432
 20
151.4826973638091943
 30
0.0
 40
0.02
 50
270.0
 51
359.9999999999951115
  0
ARC
  5
392E1
  8
0
 10
2873.9826516735070072
 20
151.5742045673059124
 30
0.0
 40
0.0700074951909299
 50
277.1820901599937201
 51
345.8880552656935947
  0
ARC
  5
392E2
  8
0
 10
2873.9926544591071433
 20
151.4948248245061109
 30
0.0
 40
0.01
 50
97.1820901600725335
 51
179.9999999999787974
  0
ARC
  5
392E3
  8
0
 10
2874.0602446390289515
 20
151.554697363809197
 30
0.0
 40
0.01
 50
90.0000000000260485
 51
165.8880552656098075
  0
ARC
  5
392E4
  8
0
 10
2874.8084699628489034
 20
151.1216973638092043
 30
0.0
 40
0.9398173710321234
 50
159.1462401555733948
 51
200.8537598444250136
  0
ARC
  5
392E5
  8
0
 10
2873.9395629807891055
 20
151.4526973638093068
 30
0.0
 40
0.01
 50
89.9999999999739515
 51
159.1459256496085004
  0
ARC
  5
392E6
  8
0
 10
2874.6284790321751643
 20
151.5733075026764993
 30
0.0
 40
0.0700084094201097
 50
193.4503277232977894
 51
270.8417793290226996
  0
LINE
  5
392E7
  8
0
 10
2874.6596544591070597
 20
151.4611973638091911
 30
0.0
 11
2874.8316544591029924
 21
151.4611973638091911
 31
0.0
  0
LINE
  5
392E8
  8
0
 10
2874.6396544591070779
 20
151.493307727992601
 30
0.0
 11
2874.6396544591070779
 21
150.7500869996258075
 31
0.0
  0
ARC
  5
392E9
  8
0
 10
2874.6296544591068596
 20
151.493307727992601
 30
0.0
 40
0.01
 50
0.000000000131904
 51
90.841779328683927
  0
ARC
  5
392EA
  8
0
 10
2874.6596544591070597
 20
151.4811973638092013
 30
0.0
 40
0.02
 50
180.0000000000048885
 51
270.0
  0
ARC
  5
392EB
  8
0
 10
2874.5506650982729298
 20
151.5546973638091117
 30
0.0
 40
0.01
 50
13.4503277237212
 51
89.9999999998436664
  0
ARC
  5
392EC
  8
0
 10
2874.8316544591029924
 20
151.6211973638224038
 30
0.0
 40
0.1600000000131274
 50
270.0000000013808972
 51
330.1226187142515869
  0
ARC
  5
392ED
  8
0
 10
2874.5541845499851661
 20
151.7806039151651873
 30
0.0
 40
0.4799999985707793
 50
330.1226187142515869
 51
349.0641274015561066
  0
LINE
  5
392EE
  8
0
 10
2875.0401954122071402
 20
151.7016973638091883
 30
0.0
 11
2875.0736544591068196
 21
151.7016973638091883
 31
0.0
  0
LINE
  5
392EF
  8
0
 10
2875.088654459107147
 20
151.686697363809202
 30
0.0
 11
2875.088654459107147
 21
150.5566973638092065
 31
0.0
  0
LINE
  5
392F0
  8
0
 10
2875.0986544591069105
 20
151.7366973638092134
 30
0.0
 11
2875.0986544591069105
 21
150.5066973638091952
 31
0.0
  0
LINE
  5
392F1
  8
0
 10
2875.1086544591071288
 20
151.7466973638092043
 30
0.0
 11
2875.1232709749069727
 21
151.7466973638092043
 31
0.0
  0
LINE
  5
392F2
  8
0
 10
2875.1952084477561584
 20
151.7916973638091918
 30
0.0
 11
2875.552100470456935
 21
151.7916973638091918
 31
0.0
  0
ARC
  5
392F3
  8
0
 10
2875.1232709749069727
 20
151.8166973638091974
 30
0.0
 40
0.0700000000000056
 50
270.0
 51
334.0555201462768764
  0
ARC
  5
392F4
  8
0
 10
2875.0401954122071402
 20
151.686697363809202
 30
0.0
 40
0.015
 50
90.0
 51
169.0641274001634997
  0
ARC
  5
392F5
  8
0
 10
2875.0736544591068196
 20
151.686697363809202
 30
0.0
 40
0.015
 50
0.0
 51
90.0
  0
ARC
  5
392F6
  8
0
 10
2875.1086544591071288
 20
151.7366973638092134
 30
0.0
 40
0.01
 50
90.0
 51
180.0
  0
ARC
  5
392F7
  8
0
 10
2875.1952084477561584
 20
151.7816973638092861
 30
0.0
 40
0.01
 50
89.9999999999478888
 51
154.0555202277726039
  0
LINE
  5
392F8
  8
0
 10
2875.088654459107147
 20
151.606097363809198
 30
0.0
 11
2875.0986544591069105
 21
151.606097363809198
 31
0.0
  0
LINE
  5
392F9
  8
0
 10
2875.6486544591070924
 20
151.7366973638092134
 30
0.0
 11
2875.6486544591070924
 21
150.5066973638091952
 31
0.0
  0
LINE
  5
392FA
  8
0
 10
2875.6386544591068741
 20
151.7466973638092043
 30
0.0
 11
2875.6240379433070302
 21
151.7466973638092043
 31
0.0
  0
ARC
  5
392FB
  8
0
 10
2875.6240379433070302
 20
151.8166973638091974
 30
0.0
 40
0.0700000000000056
 50
205.9444798537230952
 51
270.0
  0
ARC
  5
392FC
  8
0
 10
2875.6386544591068741
 20
151.7366973638092134
 30
0.0
 40
0.01
 50
0.0
 51
90.0
  0
ARC
  5
392FD
  8
0
 10
2875.552100470456935
 20
151.7816973638092861
 30
0.0
 40
0.01
 50
25.9444797722347502
 51
90.0000000000521254
  0
LINE
  5
392FE
  8
0
 10
2875.6686544591070742
 20
151.7016973638091883
 30
0.0
 11
2878.0176544591067795
 21
151.7016973638091883
 31
0.0
  0
ARC
  5
392FF
  8
0
 10
2875.6686544591070742
 20
151.6816973638092918
 30
0.0
 40
0.02
 50
90.0
 51
180.0
  0
LINE
  5
39300
  8
0
 10
2873.9626544591069432
 20
150.7806973638091961
 30
0.0
 11
2873.9395629807891055
 21
150.7806973638091961
 31
0.0
  0
LINE
  5
39301
  8
0
 10
2874.0602446390289515
 20
150.6786973638091922
 30
0.0
 11
2874.0942466962810613
 21
150.6786973638091922
 31
0.0
  0
LINE
  5
39302
  8
0
 10
2874.5251671212768088
 20
150.6786973638091922
 30
0.0
 11
2874.5506650982729298
 21
150.6786973638091922
 31
0.0
  0
ARC
  5
39303
  8
0
 10
2873.9626544591069432
 20
150.7606973638091858
 30
0.0
 40
0.02
 50
0.0000000000048853
 51
90.0
  0
ARC
  5
39304
  8
0
 10
2873.9826516735070072
 20
150.6691901603124961
 30
0.0
 40
0.0700074951909299
 50
14.1119447343064106
 51
82.8179098400062657
  0
ARC
  5
39305
  8
0
 10
2873.9926544591071433
 20
150.7485699031124113
 30
0.0
 40
0.01
 50
180.0
 51
262.8179098400062799
  0
ARC
  5
39306
  8
0
 10
2874.0602446390289515
 20
150.6886973638092115
 30
0.0
 40
0.01
 50
194.1119447343884872
 51
269.9999999999739089
  0
ARC
  5
39307
  8
0
 10
2873.9395629807891055
 20
150.790697363809187
 30
0.0
 40
0.01
 50
200.8540743503914996
 51
270.0000000000259774
  0
ARC
  5
39308
  8
0
 10
2874.6284790321751643
 20
150.6700872249419945
 30
0.0
 40
0.0700084094201097
 50
89.1582206709773288
 51
166.5496722767005053
  0
ARC
  5
39309
  8
0
 10
2874.6296544591068596
 20
150.7500869996258075
 30
0.0
 40
0.01
 50
269.1582206709774141
 51
0.0
  0
LINE
  5
3930A
  8
0
 10
2874.6596544591070597
 20
150.782197363809189
 30
0.0
 11
2874.8316544591029924
 21
150.782197363809189
 31
0.0
  0
ARC
  5
3930B
  8
0
 10
2874.6596544591070597
 20
150.7621973638092072
 30
0.0
 40
0.02
 50
90.0
 51
179.9999999999951115
  0
ARC
  5
3930C
  8
0
 10
2874.5506650982729298
 20
150.6886973638092968
 30
0.0
 40
0.01
 50
270.0000000001563194
 51
346.5496722762773061
  0
ARC
  5
3930D
  8
0
 10
2874.8316544591029924
 20
150.62219736379609
 30
0.0
 40
0.1600000000131274
 50
29.8773812857468997
 51
89.9999999986190744
  0
ARC
  5
3930E
  8
0
 10
2874.5541845499851661
 20
150.4627908124533064
 30
0.0
 40
0.4799999985707793
 50
10.9358725984455702
 51
29.8773812857483101
  0
LINE
  5
3930F
  8
0
 10
2875.0401954122071402
 20
150.5416973638091918
 30
0.0
 11
2875.0736544591068196
 21
150.5416973638091918
 31
0.0
  0
LINE
  5
39310
  8
0
 10
2875.1086544591071288
 20
150.4966973638092043
 30
0.0
 11
2875.1232709749069727
 21
150.4966973638092043
 31
0.0
  0
LINE
  5
39311
  8
0
 10
2875.1952084477561584
 20
150.4516973638091883
 30
0.0
 11
2875.552100470456935
 21
150.4516973638091883
 31
0.0
  0
ARC
  5
39312
  8
0
 10
2875.1232709749069727
 20
150.4266973638092111
 30
0.0
 40
0.0700000000000056
 50
25.94447985372312
 51
90.0
  0
ARC
  5
39313
  8
0
 10
2875.0401954122071402
 20
150.5566973638092065
 30
0.0
 40
0.015
 50
190.9358725998363866
 51
270.0
  0
ARC
  5
39314
  8
0
 10
2875.0736544591068196
 20
150.5566973638092065
 30
0.0
 40
0.015
 50
270.0
 51
0.0
  0
ARC
  5
39315
  8
0
 10
2875.1086544591071288
 20
150.5066973638091952
 30
0.0
 40
0.01
 50
180.0
 51
270.0
  0
ARC
  5
39316
  8
0
 10
2875.1952084477561584
 20
150.4616973638092077
 30
0.0
 40
0.01
 50
205.9444797722258897
 51
270.0000000000521254
  0
LINE
  5
39317
  8
0
 10
2875.088654459107147
 20
150.6372973638092105
 30
0.0
 11
2875.0986544591069105
 21
150.6372973638092105
 31
0.0
  0
LINE
  5
39318
  8
0
 10
2875.6386544591068741
 20
150.4966973638092043
 30
0.0
 11
2875.6240379433070302
 21
150.4966973638092043
 31
0.0
  0
ARC
  5
39319
  8
0
 10
2875.6240379433070302
 20
150.4266973638092111
 30
0.0
 40
0.0700000000000056
 50
90.0
 51
154.0555201462769048
  0
ARC
  5
3931A
  8
0
 10
2875.6386544591068741
 20
150.5066973638091952
 30
0.0
 40
0.01
 50
270.0
 51
0.0
  0
ARC
  5
3931B
  8
0
 10
2875.552100470456935
 20
150.4616973638092077
 30
0.0
 40
0.01
 50
269.9999999999478746
 51
334.0555202277653279
  0
ARC
  5
3931C
  8
0
 10
2875.6686544591070742
 20
150.561697363809202
 30
0.0
 40
0.02
 50
180.0
 51
270.0
  0
LINE
  5
3931D
  8
0
 10
2875.6686544591070742
 20
150.5416973638091918
 30
0.0
 11
2876.1736544591071834
 21
150.5416973638091918
 31
0.0
  0
LINE
  5
3931E
  8
0
 10
2877.1636544590069207
 20
150.5416973638091918
 30
0.0
 11
2878.0176544591067795
 21
150.5416973638091918
 31
0.0
  0
LINE
  5
3931F
  8
0
 10
2873.9302180795998538
 20
151.4562572545058003
 30
0.0
 11
2873.9302180795998538
 21
150.7871374731126934
 31
0.0
  0
LINE
  5
39320
  8
0
 10
2874.0505464269631375
 20
151.5571355358142966
 30
0.0
 11
2874.0505464269631375
 21
150.6862591918041971
 31
0.0
  0
LINE
  5
39321
  8
0
 10
2874.5603908176649384
 20
151.5570233866613137
 30
0.0
 11
2874.5603908176649384
 21
150.6863713409570948
 31
0.0
  0
LINE
  5
39322
  8
0
 10
2875.0254678102792241
 20
151.6895430168887913
 30
0.0
 11
2875.0254678102792241
 21
150.5538517107297025
 31
0.0
  0
LINE
  5
39323
  8
0
 10
2875.1862162636498397
 20
151.7860723638092111
 30
0.0
 11
2875.1862162636498397
 21
150.4573223638093111
 31
0.0
  0
LINE
  5
39324
  8
0
 10
2875.5610926546069095
 20
151.7860723637197964
 30
0.0
 11
2875.5610926546069095
 21
150.4573223638986121
 31
0.0
  0
LINE
  5
39325
  8
0
 10
2878.5776544591071797
 20
151.7466973638092043
 30
0.0
 11
2878.5630379433068811
 21
151.7466973638092043
 31
0.0
  0
LINE
  5
39326
  8
0
 10
2878.4911004704567858
 20
151.7916973638091918
 30
0.0
 11
2878.1342084477569188
 21
151.7916973638091918
 31
0.0
  0
ARC
  5
39327
  8
0
 10
2878.5630379433068811
 20
151.8166973638091974
 30
0.0
 40
0.0700000000000056
 50
205.9444798537230952
 51
270.0
  0
ARC
  5
39328
  8
0
 10
2878.5776544591071797
 20
151.7366973638092134
 30
0.0
 40
0.01
 50
0.0
 51
90.0
  0
ARC
  5
39329
  8
0
 10
2878.4911004704567858
 20
151.7816973638092861
 30
0.0
 40
0.01
 50
25.9444797722274316
 51
90.0000000000521254
  0
LINE
  5
3932A
  8
0
 10
2878.0376544591072161
 20
151.7366973638092134
 30
0.0
 11
2878.0376544591072161
 21
150.5066973638091952
 31
0.0
  0
LINE
  5
3932B
  8
0
 10
2878.0476544591069796
 20
151.7466973638092043
 30
0.0
 11
2878.0622709749068235
 21
151.7466973638092043
 31
0.0
  0
ARC
  5
3932C
  8
0
 10
2878.0622709749068235
 20
151.8166973638091974
 30
0.0
 40
0.0700000000000056
 50
270.0
 51
334.0555201462768764
  0
ARC
  5
3932D
  8
0
 10
2878.0476544591069796
 20
151.7366973638092134
 30
0.0
 40
0.01
 50
90.0
 51
180.0
  0
ARC
  5
3932E
  8
0
 10
2878.1342084477569188
 20
151.7816973638092861
 30
0.0
 40
0.01
 50
89.9999999999478888
 51
154.0555202277651858
  0
LINE
  5
3932F
  8
0
 10
2878.5776544591071797
 20
150.4966973638092043
 30
0.0
 11
2878.5630379433068811
 21
150.4966973638092043
 31
0.0
  0
LINE
  5
39330
  8
0
 10
2878.4911004704567858
 20
150.4516973638091883
 30
0.0
 11
2878.1342084477569188
 21
150.4516973638091883
 31
0.0
  0
ARC
  5
39331
  8
0
 10
2878.5630379433068811
 20
150.4266973638092111
 30
0.0
 40
0.0700000000000056
 50
90.0
 51
154.0555201462769048
  0
ARC
  5
39332
  8
0
 10
2878.5776544591071797
 20
150.5066973638091952
 30
0.0
 40
0.01
 50
270.0
 51
0.0
  0
ARC
  5
39333
  8
0
 10
2878.4911004704567858
 20
150.4616973638092077
 30
0.0
 40
0.01
 50
269.9999999999478746
 51
334.0555202277740818
  0
LINE
  5
39334
  8
0
 10
2878.0476544591069796
 20
150.4966973638092043
 30
0.0
 11
2878.0622709749068235
 21
150.4966973638092043
 31
0.0
  0
ARC
  5
39335
  8
0
 10
2878.0622709749068235
 20
150.4266973638092111
 30
0.0
 40
0.0700000000000056
 50
25.94447985372312
 51
90.0
  0
ARC
  5
39336
  8
0
 10
2878.0476544591069796
 20
150.5066973638091952
 30
0.0
 40
0.01
 50
180.0
 51
270.0
  0
ARC
  5
39337
  8
0
 10
2878.1342084477569188
 20
150.4616973638092077
 30
0.0
 40
0.01
 50
205.9444797722348142
 51
270.0000000000521254
  0
LINE
  5
39338
  8
0
 10
2878.5000926545640141
 20
151.7860723638092111
 30
0.0
 11
2878.5000926545640141
 21
150.4573223638093111
 31
0.0
  0
LINE
  5
39339
  8
0
 10
2878.1252162636069443
 20
151.7860723637197964
 30
0.0
 11
2878.1252162636069443
 21
150.4573223638986121
 31
0.0
  0
ARC
  5
3933A
  8
0
 10
2878.0176544591067795
 20
150.5216973638092099
 30
0.0
 40
0.02
 50
0.0
 51
90.0
  0
ARC
  5
3933B
  8
0
 10
2878.0176544591067795
 20
151.7216973638091986
 30
0.0
 40
0.02
 50
270.0
 51
0.0
  0
LINE
  5
3933C
  8
0
 10
2878.7056544591068814
 20
151.5388026125557985
 30
0.0
 11
2878.7056544591068814
 21
150.70459211506261
 31
0.0
  0
LINE
  5
3933D
  8
0
 10
2878.6402447696841591
 20
151.7016973638091883
 30
0.0
 11
2878.6076544591069251
 21
151.7016973638091883
 31
0.0
  0
ARC
  5
3933E
  8
0
 10
2879.1222431503038024
 20
151.7798878421664028
 30
0.0
 40
0.4799999993814882
 50
190.3686280100216095
 51
209.4728231652335921
  0
ARC
  5
3933F
  8
0
 10
2878.6956544591071179
 20
151.5388026125557985
 30
0.0
 40
0.01
 50
0.0000000000309404
 51
29.4728231816096908
  0
ARC
  5
39340
  8
0
 10
2878.6402447696841591
 20
151.6916973638091974
 30
0.0
 40
0.01
 50
10.3686279665534506
 51
89.9999999999739515
  0
ARC
  5
39341
  8
0
 10
2878.6076544591069251
 20
151.7216973638091986
 30
0.0
 40
0.02
 50
180.0000000000098055
 51
270.0
  0
LINE
  5
39342
  8
0
 10
2878.5876544591069432
 20
150.5066973638091952
 30
0.0
 11
2878.5876544591069432
 21
151.7366973638092134
 31
0.0
  0
LINE
  5
39343
  8
0
 10
2878.6402447696841591
 20
150.5416973638091918
 30
0.0
 11
2878.6076544591069251
 21
150.5416973638091918
 31
0.0
  0
ARC
  5
39344
  8
0
 10
2879.1222431503038024
 20
150.463506885452091
 30
0.0
 40
0.4799999993814882
 50
150.5271768347662942
 51
169.6313720335026005
  0
ARC
  5
39345
  8
0
 10
2878.6402447696841591
 20
150.5516973638092111
 30
0.0
 40
0.01
 50
270.0
 51
349.6313720334994173
  0
ARC
  5
39346
  8
0
 10
2878.6076544591069251
 20
150.5216973638092099
 30
0.0
 40
0.02
 50
90.0
 51
179.9999999999901945
  0
ARC
  5
39347
  8
0
 10
2878.6956544591071179
 20
150.7045921150626953
 30
0.0
 40
0.01
 50
330.5271768184088046
 51
359.9999999999593001
  0
LINE
  5
39348
  8
0
 10
2878.6500814714081571
 20
151.6934971691335932
 30
0.0
 11
2878.6500814714081571
 21
150.5498975584849006
 31
0.0
  0
LINE
  5
39349
  8
0
 10
2878.7056544591068814
 20
151.4966973638092043
 30
0.0
 11
2888.8036544591068377
 21
151.4966973638092043
 31
0.0
  0
LINE
  5
3934A
  8
0
 10
2878.7056544591068814
 20
150.7466973638092043
 30
0.0
 11
2888.7986544591071834
 21
150.7466973638092043
 31
0.0
  0
LINE
  5
3934B
  8
0
 10
2889.3329364913979589
 20
149.7326633638093085
 30
0.0
 11
2890.2643515696167924
 21
149.7326633638091948
 31
0.0
  0
LINE
  5
3934C
  8
0
 10
2889.2636544591068741
 20
149.6552036968782033
 30
0.0
 11
2889.2636544591068741
 21
149.411988431911908
 31
0.0
  0
LINE
  5
3934D
  8
0
 10
2889.3329278551518655
 20
149.3427660517091908
 30
0.0
 11
2890.2643602058619763
 21
149.3427660517091908
 31
0.0
  0
ARC
  5
3934E
  8
0
 10
2889.2636544591550773
 20
149.7326633637430859
 30
0.0
 40
0.0599999999306228
 50
284.4775121556828026
 51
351.786789324950405
  0
ARC
  5
3934F
  8
0
 10
2889.3329364913979589
 20
149.722663363809005
 30
0.0
 40
0.01
 50
90.0000000003908269
 51
171.7867893437349949
  0
ARC
  5
39350
  8
0
 10
2889.2836544591068559
 20
149.6552036968782033
 30
0.0
 40
0.02
 50
104.4775121632457058
 51
179.9999999999951115
  0
ARC
  5
39351
  8
0
 10
2889.2636544591068741
 20
149.3427063996091988
 30
0.0
 40
0.0600000000000002
 50
8.2625456631920269
 51
81.7867855806972557
  0
LINE
  5
39352
  8
0
 10
2889.3486544591069105
 20
149.3239196232173924
 30
0.0
 11
2889.3486544591069105
 21
147.8914071044009972
 31
0.0
  0
ARC
  5
39353
  8
0
 10
2889.2736544591070924
 20
149.411988431911908
 30
0.0
 40
0.01
 50
179.9999999997606039
 51
261.7867892988821268
  0
ARC
  5
39354
  8
0
 10
2889.3329278551518655
 20
149.3527660517090965
 30
0.0
 40
0.01
 50
188.2625456625796119
 51
270.0000000002344791
  0
ARC
  5
39355
  8
0
 10
2889.3280390801792237
 20
149.3227017303753996
 30
0.0
 40
0.0206513222656995
 50
3.380927905215648
 51
76.3064135087001461
  0
LINE
  5
39356
  8
0
 10
2890.3336336019069677
 20
149.6552036968782033
 30
0.0
 11
2890.3336336019069677
 21
149.411988431911908
 31
0.0
  0
ARC
  5
39357
  8
0
 10
2890.3336336018592192
 20
149.7326633637430859
 30
0.0
 40
0.0599999999306228
 50
188.213210675049595
 51
255.5224878443171121
  0
ARC
  5
39358
  8
0
 10
2890.2643515696167924
 20
149.722663363809005
 30
0.0
 40
0.01
 50
8.2132106562649572
 51
89.9999999996091731
  0
ARC
  5
39359
  8
0
 10
2890.3136336019069859
 20
149.6552036968782033
 30
0.0
 40
0.02
 50
0.0000000000048853
 51
75.52248783675428
  0
ARC
  5
3935A
  8
0
 10
2890.3336336019069677
 20
149.3427063996091988
 30
0.0
 40
0.0600000000000002
 50
98.2132144193028012
 51
171.7374543368079003
  0
LINE
  5
3935B
  8
0
 10
2890.2486336019069313
 20
149.3239196232173924
 30
0.0
 11
2890.2486336019069313
 21
147.8914071044009972
 31
0.0
  0
ARC
  5
3935C
  8
0
 10
2890.3236336019072041
 20
149.411988431911908
 30
0.0
 40
0.01
 50
278.2132107011178164
 51
0.0000000002393813
  0
ARC
  5
3935D
  8
0
 10
2890.2643602058619763
 20
149.3527660517090965
 30
0.0
 40
0.01
 50
269.9999999997655209
 51
351.7374543374202744
  0
ARC
  5
3935E
  8
0
 10
2890.2692489808350729
 20
149.3227017303753996
 30
0.0
 40
0.0206513222656995
 50
103.6935864912997971
 51
176.6190720946688941
  0
LINE
  5
3935F
  8
0
 10
2890.318633601899819
 20
149.6745686136111999
 30
0.0
 11
2889.2786544591149323
 21
149.6745686136111999
 31
0.0
  0
LINE
  5
39360
  8
0
 10
2890.3250621694828624
 20
149.4020909981697116
 30
0.0
 11
2889.2722258915309794
 21
149.4020909981697116
 31
0.0
  0
LINE
  5
39361
  8
0
 10
2889.3329364913979589
 20
147.4826633638091948
 30
0.0
 11
2890.2643515696167924
 21
147.4826633638093085
 31
0.0
  0
LINE
  5
39362
  8
0
 10
2889.2636544591068741
 20
147.5601230307403
 30
0.0
 11
2889.2636544591068741
 21
147.8033382957065101
 31
0.0
  0
LINE
  5
39363
  8
0
 10
2889.3329278551518655
 20
147.8725606759091988
 30
0.0
 11
2890.2643602058619763
 21
147.8725606759091988
 31
0.0
  0
ARC
  5
39364
  8
0
 10
2889.2636544591550773
 20
147.482663363875389
 30
0.0
 40
0.0599999999306228
 50
8.213210675049595
 51
75.5224878443171548
  0
ARC
  5
39365
  8
0
 10
2889.3329364913979589
 20
147.4926633638094131
 30
0.0
 40
0.01
 50
188.2132106562648914
 51
269.9999999996090878
  0
ARC
  5
39366
  8
0
 10
2889.2836544591068559
 20
147.5601230307403
 30
0.0
 40
0.02
 50
180.0000000000048885
 51
255.5224878367542942
  0
ARC
  5
39367
  8
0
 10
2889.2636544591068741
 20
147.8726203280091909
 30
0.0
 40
0.0600000000000002
 50
278.2132144193028012
 51
351.737454336808014
  0
ARC
  5
39368
  8
0
 10
2889.2736544591070924
 20
147.8033382957065953
 30
0.0
 40
0.01
 50
98.2132107011178732
 51
180.0000000002393108
  0
ARC
  5
39369
  8
0
 10
2889.3329278551518655
 20
147.8625606759092932
 30
0.0
 40
0.01
 50
89.9999999997655067
 51
171.7374543374203029
  0
ARC
  5
3936A
  8
0
 10
2889.3280390801792237
 20
147.8926249972431037
 30
0.0
 40
0.0206513222656995
 50
283.6935864912998113
 51
356.6190720946315196
  0
LINE
  5
3936B
  8
0
 10
2890.3336336019069677
 20
147.5601230307403
 30
0.0
 11
2890.3336336019069677
 21
147.8033382957065101
 31
0.0
  0
ARC
  5
3936C
  8
0
 10
2890.3336336018592192
 20
147.482663363875389
 30
0.0
 40
0.0599999999306228
 50
104.4775121556828026
 51
171.786789324950405
  0
ARC
  5
3936D
  8
0
 10
2890.2643515696167924
 20
147.4926633638094131
 30
0.0
 40
0.01
 50
270.0000000003907985
 51
351.7867893437351086
  0
ARC
  5
3936E
  8
0
 10
2890.3136336019069859
 20
147.5601230307403
 30
0.0
 40
0.02
 50
284.4775121632457058
 51
359.9999999999951115
  0
ARC
  5
3936F
  8
0
 10
2890.3336336019069677
 20
147.8726203280091909
 30
0.0
 40
0.0600000000000002
 50
188.262545663191986
 51
261.7867855806971988
  0
ARC
  5
39370
  8
0
 10
2890.3236336019072041
 20
147.8033382957065953
 30
0.0
 40
0.01
 50
359.9999999997605755
 51
81.7867892988821552
  0
ARC
  5
39371
  8
0
 10
2890.2643602058619763
 20
147.8625606759092932
 30
0.0
 40
0.01
 50
8.2625456625796883
 51
90.0000000002344933
  0
ARC
  5
39372
  8
0
 10
2890.2692489808350729
 20
147.8926249972431037
 30
0.0
 40
0.0206513222656995
 50
183.3809279053683952
 51
256.306413508700075
  0
LINE
  5
39373
  8
0
 10
2890.318633601899819
 20
147.5407581140073034
 30
0.0
 11
2889.2786544591149323
 21
147.5407581140073034
 31
0.0
  0
LINE
  5
39374
  8
0
 10
2890.3250621694828624
 20
147.8132357294487065
 30
0.0
 11
2889.2722258915309794
 21
147.8132357294487065
 31
0.0
  0
LINE
  5
39375
  8
0
 10
2888.8036544591068377
 20
145.7973036638092026
 30
0.0
 11
2881.9186544591070742
 21
145.7973036638092026
 31
0.0
  0
LINE
  5
39376
  8
0
 10
2888.7986544591071834
 20
146.5473036638092026
 30
0.0
 11
2881.9236544591071834
 21
146.5473036638092026
 31
0.0
  0
LINE
  5
39377
  8
0
 10
2889.4236544591080929
 20
147.1723036638092026
 30
0.0
 11
2889.4236544591080929
 21
147.4826633638091948
 31
0.0
  0
LINE
  5
39378
  8
0
 10
2889.4236544591080929
 20
149.7326633638091948
 30
0.0
 11
2889.4236544591080929
 21
150.1216973638092043
 31
0.0
  0
LINE
  5
39379
  8
0
 10
2890.1736544591080929
 20
147.1673036638092071
 30
0.0
 11
2890.1736544591080929
 21
147.4826633638093085
 31
0.0
  0
LINE
  5
3937A
  8
0
 10
2890.1736544591080929
 20
149.7326633638091948
 30
0.0
 11
2890.1736544591080929
 21
150.1266973638091997
 31
0.0
  0
ARC
  5
3937B
  8
0
 10
2888.8036544591068377
 20
147.1673036638092071
 30
0.0
 40
1.3700000000000001
 50
270.0
 51
0.0
  0
ARC
  5
3937C
  8
0
 10
2888.7986544591071834
 20
147.1723036638092026
 30
0.0
 40
0.625
 50
270.0
 51
0.0
  0
ARC
  5
3937D
  8
0
 10
2888.7986544591071834
 20
150.1216973638092043
 30
0.0
 40
0.625
 50
0.0
 51
90.0
  0
ARC
  5
3937E
  8
0
 10
2888.8036544591068377
 20
150.1266973638091997
 30
0.0
 40
1.3700000000000001
 50
0.0
 51
90.0
  0
LINE
  5
3937F
  8
0
 10
2880.4579364914097823
 20
147.936397363809192
 30
0.0
 11
2880.6036336019069495
 21
147.936397363809192
 31
0.0
  0
LINE
  5
39380
  8
0
 10
2881.2436336019068222
 20
147.936397363809192
 30
0.0
 11
2881.3893445385051564
 21
147.936397363809192
 31
0.0
  0
LINE
  5
39381
  8
0
 10
2880.4579364913970494
 20
147.6860036638092026
 30
0.0
 11
2880.6036336019069495
 21
147.6860036638092026
 31
0.0
  0
LINE
  5
39382
  8
0
 10
2881.2436336019068222
 20
147.6860036638092026
 30
0.0
 11
2881.3893445385169798
 21
147.6860036638092026
 31
0.0
  0
LINE
  5
39383
  8
0
 10
2880.3886544591068741
 20
147.7552856961119971
 30
0.0
 11
2880.3886544591068741
 21
147.8671153315065112
 31
0.0
  0
ARC
  5
39384
  8
0
 10
2880.3886544591068741
 20
147.936397363809192
 30
0.0
 40
0.0600000000000002
 50
278.2132108130256256
 51
351.7867892706955786
  0
ARC
  5
39385
  8
0
 10
2880.388654459126883
 20
147.6860036638435929
 30
0.0
 40
0.0599999999631176
 50
8.213210701191322
 51
81.7867892009794559
  0
ARC
  5
39386
  8
0
 10
2880.4579364913970494
 20
147.6960036638091935
 30
0.0
 40
0.01
 50
188.2132106774220972
 51
270.000000000104194
  0
ARC
  5
39387
  8
0
 10
2880.3986544591070924
 20
147.7552856961119971
 30
0.0
 40
0.01
 50
179.9999999999186002
 51
261.7867893104653945
  0
ARC
  5
39388
  8
0
 10
2880.3986544591070924
 20
147.8671153315065112
 30
0.0
 40
0.01
 50
98.2132107016703486
 51
180.0000000000358114
  0
ARC
  5
39389
  8
0
 10
2880.4579364914097823
 20
147.9263973638092011
 30
0.0
 40
0.01
 50
89.9999999999739515
 51
171.7867892983242086
  0
LINE
  5
3938A
  8
0
 10
2880.3972258876788146
 20
147.8770127646926085
 30
0.0
 11
2880.6036336019069495
 21
147.8770127646926085
 31
0.0
  0
LINE
  5
3938B
  8
0
 10
2881.2436336019068222
 20
147.8770127646926085
 30
0.0
 11
2881.4500551422361241
 21
147.8770127646926085
 31
0.0
  0
LINE
  5
3938C
  8
0
 10
2880.3972258876810884
 20
147.745388262925502
 30
0.0
 11
2880.6036336019069495
 21
147.745388262925502
 31
0.0
  0
LINE
  5
3938D
  8
0
 10
2881.2436336019068222
 20
147.745388262925502
 30
0.0
 11
2881.4500551422329409
 21
147.745388262925502
 31
0.0
  0
LINE
  5
3938E
  8
0
 10
2880.6136336019071678
 20
148.6346973638092095
 30
0.0
 11
2881.2336336019070586
 21
148.6346973638092095
 31
0.0
  0
LINE
  5
3938F
  8
0
 10
2880.6316544591068123
 20
148.6546973638091913
 30
0.0
 11
2880.6316544591068123
 21
148.6882377982591095
 31
0.0
  0
LINE
  5
39390
  8
0
 10
2880.7151544591069978
 20
148.839697363790691
 30
0.0
 11
2880.7151544591069978
 21
148.8918306985638935
 31
0.0
  0
ARC
  5
39391
  8
0
 10
2880.5560391897001864
 20
148.839697363790691
 30
0.0
 40
0.1591152694073557
 50
302.2639055257736231
 51
0.0000000066619644
  0
ARC
  5
39392
  8
0
 10
2880.6114533102531823
 20
148.6547806823928113
 30
0.0
 40
0.0202013206753748
 50
276.1958976142047959
 51
359.7636878891892138
  0
ARC
  5
39393
  8
0
 10
2880.6516544591067941
 20
148.6882377982591095
 30
0.0
 40
0.02
 50
122.2639055257965026
 51
180.0000000000048885
  0
LINE
  5
39394
  8
0
 10
2880.5486544591071834
 20
147.644003663809201
 30
0.0
 11
2880.5486544591071834
 21
147.1673036638092071
 31
0.0
  0
LINE
  5
39395
  8
0
 10
2880.5546482260078847
 20
147.6660909291626922
 30
0.0
 11
2880.5548220018072243
 21
147.6860036638092026
 31
0.0
  0
LINE
  5
39396
  8
0
 10
2880.5606544591068996
 20
147.6560036638092015
 30
0.0
 11
2880.6036336019069495
 21
147.6560036638092015
 31
0.0
  0
LINE
  5
39397
  8
0
 10
2881.2436336019068222
 20
147.6560036638092015
 30
0.0
 11
2881.2866544591070124
 21
147.6560036638092015
 31
0.0
  0
ARC
  5
39398
  8
0
 10
2880.5646478452381416
 20
147.6660036638091924
 30
0.0
 40
0.01
 50
179.5000000088643048
 51
270.0
  0
ARC
  5
39399
  8
0
 10
2880.5606544591068996
 20
147.644003663809201
 30
0.0
 40
0.012
 50
90.0
 51
179.9999999999917861
  0
ARC
  5
3939A
  8
0
 10
2881.9186544591070742
 20
147.1673036638092071
 30
0.0
 40
1.3700000000000001
 50
180.0
 51
270.0
  0
LINE
  5
3939B
  8
0
 10
2880.5486544591071834
 20
147.9483973638091925
 30
0.0
 11
2880.5486544591071834
 21
148.7274721842649114
 31
0.0
  0
ARC
  5
3939C
  8
0
 10
2880.5606544591068996
 20
147.9483973638091925
 30
0.0
 40
0.012
 50
180.0000000000048885
 51
270.0
  0
LINE
  5
3939D
  8
0
 10
2881.4586544591070378
 20
147.7552856961119971
 30
0.0
 11
2881.4586544591070378
 21
147.8671153315065112
 31
0.0
  0
ARC
  5
3939E
  8
0
 10
2881.4586544591070378
 20
147.936397363809192
 30
0.0
 40
0.0600000000000002
 50
188.2132107293043077
 51
261.7867891869743744
  0
ARC
  5
3939F
  8
0
 10
2881.458654459087029
 20
147.6860036638435929
 30
0.0
 40
0.0599999999631176
 50
98.2132107990205441
 51
171.7867892988087135
  0
ARC
  5
393A0
  8
0
 10
2881.3893724268168626
 20
147.6960036638091935
 30
0.0
 40
0.01
 50
269.999999999895806
 51
351.7867893225778744
  0
ARC
  5
393A1
  8
0
 10
2881.4486544591081838
 20
147.7552856961119971
 30
0.0
 40
0.01
 50
278.2132106895346055
 51
0.0000000000814222
  0
ARC
  5
393A2
  8
0
 10
2881.4486544591068196
 20
147.8671153315065112
 30
0.0
 40
0.01
 50
359.9999999999641886
 51
81.7867892983296656
  0
ARC
  5
393A3
  8
0
 10
2881.3893724268041296
 20
147.9263973638092011
 30
0.0
 40
0.01
 50
8.2132107016758429
 51
90.0000000000260485
  0
LINE
  5
393A4
  8
0
 10
2881.2986544591080929
 20
147.644003663809201
 30
0.0
 11
2881.2986544591080929
 21
147.1723036638092026
 31
0.0
  0
LINE
  5
393A5
  8
0
 10
2881.2926606922069368
 20
147.6660909291626922
 30
0.0
 11
2881.2924869164071424
 21
147.6860036638092026
 31
0.0
  0
ARC
  5
393A6
  8
0
 10
2881.2826610729762251
 20
147.6660036638091924
 30
0.0
 40
0.01
 50
270.0
 51
0.499999991135638
  0
ARC
  5
393A7
  8
0
 10
2881.2866544591070124
 20
147.644003663809201
 30
0.0
 40
0.012
 50
0.0000000000081422
 51
90.0
  0
LINE
  5
393A8
  8
0
 10
2881.2986544591080929
 20
147.9483973638091925
 30
0.0
 11
2881.2986544591080929
 21
148.7274721842649114
 31
0.0
  0
ARC
  5
393A9
  8
0
 10
2881.2866544591070124
 20
147.9483973638091925
 30
0.0
 40
0.012
 50
270.0
 51
359.9999999999951115
  0
LINE
  5
393AA
  8
0
 10
2881.2156544591070997
 20
148.6546973638091913
 30
0.0
 11
2881.2156544591070997
 21
148.6882377982591095
 31
0.0
  0
LINE
  5
393AB
  8
0
 10
2881.1321544591069141
 20
148.839697363790691
 30
0.0
 11
2881.1321544591069141
 21
148.8918306985638935
 31
0.0
  0
ARC
  5
393AC
  8
0
 10
2881.2912697285141803
 20
148.839697363790691
 30
0.0
 40
0.1591152694073633
 50
179.9999999933395998
 51
237.7360945084602122
  0
ARC
  5
393AD
  8
0
 10
2881.2358650789078638
 20
148.6547846053871069
 30
0.0
 40
0.020210808093927
 50
180.2473226061864864
 51
263.6610444073630219
  0
ARC
  5
393AE
  8
0
 10
2881.1956544591071179
 20
148.6882377982591095
 30
0.0
 40
0.02
 50
359.9999999999951115
 51
57.7360944742034832
  0
LINE
  5
393AF
  8
0
 10
2881.2063308542260529
 20
148.7051497640599962
 30
0.0
 11
2880.6409780639878591
 21
148.7051497640599962
 31
0.0
  0
ARC
  5
393B0
  8
0
 10
2881.9236544591071834
 20
147.1723036638092026
 30
0.0
 40
0.625
 50
180.0
 51
270.0
  0
LINE
  5
393B1
  8
0
 10
2877.1136544590071935
 20
149.811697363809202
 30
0.0
 11
2876.2236544591069105
 21
149.811697363809202
 31
0.0
  0
LINE
  5
393B2
  8
0
 10
2876.213654459107147
 20
150.5016973638091997
 30
0.0
 11
2876.213654459107147
 21
149.8216973638091929
 31
0.0
  0
LINE
  5
393B3
  8
0
 10
2877.123654459006957
 20
150.5016973638091997
 30
0.0
 11
2877.123654459006957
 21
149.8216973638091929
 31
0.0
  0
ARC
  5
393B4
  8
0
 10
2876.1736544591071834
 20
150.5016973638091997
 30
0.0
 40
0.04
 50
0.0
 51
90.0
  0
ARC
  5
393B5
  8
0
 10
2877.1636544590069207
 20
150.5016973638091997
 30
0.0
 40
0.04
 50
90.0
 51
180.0
  0
ARC
  5
393B6
  8
0
 10
2877.1136544590071935
 20
149.8216973638091929
 30
0.0
 40
0.01
 50
270.0
 51
359.9999999999902229
  0
ARC
  5
393B7
  8
0
 10
2876.2236544591069105
 20
149.8216973638091929
 30
0.0
 40
0.01
 50
180.0
 51
270.0
  0
ARC
  5
393B8
  8
0
 10
2877.1201866627679919
 20
149.3273124333223905
 30
0.0
 40
1.5396928174021089
 50
112.9413134012421978
 51
127.934042259009999
  0
ARC
  5
393B9
  8
0
 10
2876.6651626770071744
 20
150.4005613186645007
 30
0.0
 40
0.3739707175007764
 50
72.633429937458672
 51
112.8349770234712963
  0
ARC
  5
393BA
  8
0
 10
2876.4403080236447749
 20
149.6995525791973876
 30
0.0
 40
1.110152198484228
 50
49.3396112598399412
 51
72.3565528600340997
  0
LINE
  5
393BB
  8
0
 10
2873.9996544591581369
 20
150.4736973680080894
 30
0.0
 11
2874.6196544591580277
 21
150.4736973680080894
 31
0.0
  0
ARC
  5
393BC
  8
0
 10
2873.9996544591581369
 20
150.4636973680080985
 30
0.0
 40
0.01
 50
90.0
 51
180.0
  0
LINE
  5
393BD
  8
0
 10
2874.0176544591067795
 20
150.4936973680080996
 30
0.0
 11
2874.0176544591067795
 21
150.5272378024579893
 31
0.0
  0
LINE
  5
393BE
  8
0
 10
2874.1011544591069651
 20
150.6786973679895993
 30
0.0
 11
2874.1011544591069651
 21
150.6824813529796927
 31
0.0
  0
ARC
  5
393BF
  8
0
 10
2873.9420391897001537
 20
150.6786973679895993
 30
0.0
 40
0.1591152694073633
 50
302.2639054915397878
 51
0.0000000066603359
  0
ARC
  5
393C0
  8
0
 10
2873.997448607321985
 20
150.4937826346094027
 30
0.0
 40
0.020206031692723
 50
276.2673559856007728
 51
359.7582191810428185
  0
ARC
  5
393C1
  8
0
 10
2874.0376544591072161
 20
150.5272378024579893
 30
0.0
 40
0.02
 50
122.2639055257965026
 51
180.0000000000048885
  0
LINE
  5
393C2
  8
0
 10
2874.6016544591070669
 20
150.4936973680080996
 30
0.0
 11
2874.6016544591070669
 21
150.5272378024579893
 31
0.0
  0
LINE
  5
393C3
  8
0
 10
2874.5181544591068814
 20
150.6786973679895993
 30
0.0
 11
2874.5181544591068814
 21
150.6825375862260046
 31
0.0
  0
ARC
  5
393C4
  8
0
 10
2874.6772697285150571
 20
150.6786973679895993
 30
0.0
 40
0.1591152694073633
 50
179.9999999933395998
 51
237.7360945084602122
  0
ARC
  5
393C5
  8
0
 10
2874.6218603108700336
 20
150.4937826345999952
 30
0.0
 40
0.0202060316699828
 50
180.2417807925631053
 51
263.7326443573276151
  0
ARC
  5
393C6
  8
0
 10
2874.5816544591070851
 20
150.5272378024579893
 30
0.0
 40
0.02
 50
359.9999999999951115
 51
57.7360944742034832
  0
LINE
  5
393C7
  8
0
 10
2874.5923308542269297
 20
150.5441497682587908
 30
0.0
 11
2874.0269780639878263
 21
150.5441497682587908
 31
0.0
  0
ARC
  5
393C8
  8
0
 10
2874.309706908778935
 20
150.2935667251819041
 30
0.0
 40
0.4413034239377664
 50
60.7752961180363229
 51
119.2247038819637055
  0
ARC
  5
393C9
  8
0
 10
2880.9236544591080929
 20
149.2826973638092056
 30
0.0
 40
1.3649999999999991
 50
285.9456430043762794
 51
254.054356995623607
  0
ARC
  5
393CA
  8
0
 10
2880.9236544591080929
 20
149.2826973638092056
 30
0.0
 40
1.287587225798934
 50
286.9323516281554021
 51
253.0676483718445127
  0
ARC
  5
393CB
  8
0
 10
2880.9236544591080929
 20
149.2826973638092056
 30
0.0
 40
1.214999999999999
 50
287.9774086674883051
 51
252.0225913325116096
  0
ARC
  5
393CC
  8
0
 10
2880.9236544591080929
 20
149.2826973638092056
 30
0.0
 40
0.8055183300725188
 50
297.7450948783765057
 51
242.2549051216234943
  0
ARC
  5
393CD
  8
0
 10
2880.9236544591080929
 20
149.2826973638092056
 30
0.0
 40
0.6799999999999998
 50
303.4679600728354103
 51
236.5320399271645897
  0
ARC
  5
393CE
  8
0
 10
2880.9236544591080929
 20
149.2826973638092056
 30
0.0
 40
0.67
 50
295.8375402426530059
 51
244.1624597573469941
  0
ARC
  5
393CF
  8
0
 10
2880.9236544591080929
 20
149.2826973638092056
 30
0.0
 40
0.625
 50
295.1986077964003812
 51
244.8013922035995904
  0
ARC
  5
393D0
  8
0
 10
2880.9236544591080929
 20
149.2826973638092056
 30
0.0
 40
0.5800000000000001
 50
293.8651769961467153
 51
246.1348230038533131
  0
CIRCLE
  5
393D1
  8
0
 10
2880.9236544591080929
 20
149.2826973638092056
 30
0.0
 40
0.4429999999999997
  0
CIRCLE
  5
393D2
  8
0
 10
2880.9236544591080929
 20
149.2826973638092056
 30
0.0
 40
0.3830490281183927
  0
CIRCLE
  5
393D3
  8
0
 10
2880.9236544591080929
 20
149.2826973638092056
 30
0.0
 40
0.3410000000000002
  0
LINE
  5
393D5
  8
0
 10
2881.2436336019068222
 20
147.0692272324646126
 30
0.0
 11
2881.2436336019068222
 21
148.6246973638091902
 31
0.0
  0
LINE
  5
393D6
  8
0
 10
2880.6036336019069495
 20
147.0692272324120893
 30
0.0
 11
2880.6036336019069495
 21
148.6246973638091902
 31
0.0
  0
ARC
  5
393D7
  8
0
 10
2880.9236336017429494
 20
147.8456973650019108
 30
0.0
 40
0.9000000011897376
 50
253.346068798380486
 51
286.6535210878674889
  0
ARC
  5
393D8
  8
0
 10
2881.1786928549181539
 20
146.9930281562888013
 30
0.0
 40
0.01
 50
286.6535210878674889
 51
357.7429444648229264
  0
ARC
  5
393D9
  8
0
 10
2880.5836336019788178
 20
146.9896973639037014
 30
0.0
 40
0.0749999998861233
 50
2.2469871201430931
 51
69.3326833743158346
  0
ARC
  5
393DA
  8
0
 10
2880.6685682453080517
 20
146.9930299819828008
 30
0.0
 40
0.01
 50
182.2469871201479918
 51
253.346068798380486
  0
ARC
  5
393DB
  8
0
 10
2881.2636487000390844
 20
146.989679754182788
 30
0.0
 40
0.0750218055376222
 50
110.6726478925226047
 51
177.7429444648196863
  0
ARC
  5
393DC
  8
0
 10
2881.2336336019070586
 20
147.0692272324646126
 30
0.0
 40
0.01
 50
290.6726478920508043
 51
0.0000000001416746
  0
ARC
  5
393DD
  8
0
 10
2880.6136336019071678
 20
147.0692272324120893
 30
0.0
 40
0.01
 50
179.9999999998468923
 51
249.3326835300086941
  0
LINE
  5
393DE
  8
0
 10
2880.665702342429995
 20
146.9834494496022046
 30
0.0
 11
2881.1815586892189458
 21
146.9834476033948079
 31
0.0
  0
LINE
  5
393DF
  8
0
 10
2881.2371638842791981
 20
147.0598711057888011
 30
0.0
 11
2880.6101041903361875
 21
147.0598707772091984
 31
0.0
  0
ARC
  5
393E0
  8
0
 10
2880.6136336019071678
 20
148.6246973638091902
 30
0.0
 40
0.01
 50
90.0
 51
180.0
  0
ARC
  5
393E1
  8
0
 10
2881.2336336019070586
 20
148.6246973638091902
 30
0.0
 40
0.01
 50
0.0
 51
90.0
  0
LINE
  5
393E2
  8
0
 10
2874.6296544591568818
 20
148.9082269751772003
 30
0.0
 11
2874.6296544591568818
 21
150.4636973680080985
 31
0.0
  0
ARC
  5
393E3
  8
0
 10
2874.6196544591580277
 20
150.4636973680080985
 30
0.0
 40
0.01
 50
0.0
 51
90.0
  0
LINE
  5
393E4
  8
0
 10
2873.9896544591570091
 20
148.9082269751247054
 30
0.0
 11
2873.9896544591570091
 21
150.4636973680080985
 31
0.0
  0
ARC
  5
393E5
  8
0
 10
2874.309654458993009
 20
149.6846971077144985
 30
0.0
 40
0.9000000011897376
 50
253.346068798380486
 51
286.6535210878674889
  0
ARC
  5
393E6
  8
0
 10
2874.5647137121682135
 20
148.832027899001389
 30
0.0
 40
0.01
 50
286.6535210878674889
 51
357.7429444648229264
  0
ARC
  5
393E7
  8
0
 10
2873.9696544592297869
 20
148.8286971066162891
 30
0.0
 40
0.0749999998861233
 50
2.2469871201430931
 51
69.3326833743158346
  0
ARC
  5
393E8
  8
0
 10
2874.0545891025581113
 20
148.8320297246953885
 30
0.0
 40
0.01
 50
182.2469871201462865
 51
253.346068798380486
  0
ARC
  5
393E9
  8
0
 10
2874.649669557289144
 20
148.8286794968954041
 30
0.0
 40
0.0750218055376222
 50
110.6726478925226047
 51
177.7429444648196863
  0
ARC
  5
393EA
  8
0
 10
2874.6196544591580277
 20
148.9082269751772003
 30
0.0
 40
0.01
 50
290.6726478920508043
 51
0.0000000001416746
  0
ARC
  5
393EB
  8
0
 10
2873.9996544591567726
 20
148.9082269751247054
 30
0.0
 40
0.01
 50
179.9999999998468923
 51
249.3326835300086941
  0
LINE
  5
393EC
  8
0
 10
2874.0517231996809642
 20
148.8224491923147923
 30
0.0
 11
2874.5675795464699149
 21
148.8224473461073956
 31
0.0
  0
LINE
  5
393ED
  8
0
 10
2874.623184741528803
 20
148.8988708485013888
 30
0.0
 11
2873.9961250475857923
 21
148.8988705199217861
 31
0.0
  0
ENDSEC
  0
EOF
