  0
SECTION
  2
HEADER
  9
$ACADVER
  1
AC1009
  9
$INSBASE
 10
459.9199233385857042
 20
40.5641058193527684
 30
0.0
  9
$EXTMIN
 10
456.5217179771029237
 20
37.2349724452432724
 30
-0.0000000000112498
  9
$EXTMAX
 10
459.9626787226723081
 20
41.5923045723788576
 30
0.0000000000002956
  9
$LIMMIN
 10
0.0
 20
0.0
  9
$LIMMAX
 10
22.0
 20
17.0
  9
$ORTHOMODE
 70
     0
  9
$REGENMODE
 70
     1
  9
$FILLMODE
 70
     1
  9
$QTEXTMODE
 70
     0
  9
$MIRRTEXT
 70
     0
  9
$DRAGMODE
 70
     2
  9
$LTSCALE
 40
1.2099999999999991
  9
$OSMODE
 70
     7
  9
$ATTMODE
 70
     1
  9
$TEXTSIZE
 40
0.2
  9
$TRACEWID
 40
0.05
  9
$TEXTSTYLE
  7
STANDARD
  9
$CLAYER
  8
0
  9
$CELTYPE
  6
BYLAYER
  9
$CECOLOR
 62
   256
  9
$DIMSCALE
 40
1.0
  9
$DIMASZ
 40
0.1875
  9
$DIMEXO
 40
0.0625
  9
$DIMDLI
 40
0.38
  9
$DIMRND
 40
0.0
  9
$DIMDLE
 40
0.0
  9
$DIMEXE
 40
0.125
  9
$DIMTP
 40
1.5
  9
$DIMTM
 40
1.5
  9
$DIMTXT
 40
1.5
  9
$DIMCEN
 40
0.09
  9
$DIMTSZ
 40
0.0
  9
$DIMTOL
 70
     0
  9
$DIMLIM
 70
     0
  9
$DIMTIH
 70
     1
  9
$DIMTOH
 70
     1
  9
$DIMSE1
 70
     0
  9
$DIMSE2
 70
     0
  9
$DIMTAD
 70
     0
  9
$DIMZIN
 70
     4
  9
$DIMBLK
  1

  9
$DIMASO
 70
     1
  9
$DIMSHO
 70
     1
  9
$DIMPOST
  1

  9
$DIMAPOST
  1

  9
$DIMALT
 70
     0
  9
$DIMALTD
 70
     2
  9
$DIMALTF
 40
25.3999999999999986
  9
$DIMLFAC
 40
1.0
  9
$DIMTOFL
 70
     0
  9
$DIMTVP
 40
0.0
  9
$DIMTIX
 70
     0
  9
$DIMSOXD
 70
     0
  9
$DIMSAH
 70
     0
  9
$DIMBLK1
  1

  9
$DIMBLK2
  1

  9
$DIMSTYLE
  2
STANDARD
  9
$DIMCLRD
 70
     0
  9
$DIMCLRE
 70
     0
  9
$DIMCLRT
 70
     0
  9
$DIMTFAC
 40
1.0
  9
$DIMGAP
 40
0.09
  9
$LUNITS
 70
     2
  9
$LUPREC
 70
     4
  9
$SKETCHINC
 40
0.1
  9
$FILLETRAD
 40
0.0
  9
$AUNITS
 70
     0
  9
$AUPREC
 70
     0
  9
$MENU
  1
.
  9
$ELEVATION
 40
0.0
  9
$PELEVATION
 40
0.0
  9
$THICKNESS
 40
0.0
  9
$LIMCHECK
 70
     0
  9
$BLIPMODE
 70
     0
  9
$CHAMFERA
 40
0.0
  9
$CHAMFERB
 40
0.0
  9
$SKPOLY
 70
     0
  9
$TDCREATE
 40
2457827.4934837957844138
  9
$TDUPDATE
 40
2459510.5044444450177252
  9
$TDINDWG
 40
1.1479649305999999
  9
$TDUSRTIMER
 40
1.1479649305999999
  9
$USRTIMER
 70
     1
  9
$ANGBASE
 50
0.0
  9
$ANGDIR
 70
     0
  9
$PDMODE
 70
     0
  9
$PDSIZE
 40
0.3125
  9
$PLINEWID
 40
0.0
  9
$COORDS
 70
     1
  9
$SPLFRAME
 70
     0
  9
$SPLINETYPE
 70
     6
  9
$SPLINESEGS
 70
     8
  9
$ATTDIA
 70
     1
  9
$ATTREQ
 70
     1
  9
$HANDLING
 70
     1
  9
$HANDSEED
  5
19D61
  9
$SURFTAB1
 70
     6
  9
$SURFTAB2
 70
     6
  9
$SURFTYPE
 70
     6
  9
$SURFU
 70
     6
  9
$SURFV
 70
     6
  9
$UCSNAME
  2

  9
$UCSORG
 10
0.0
 20
0.0
 30
0.0
  9
$UCSXDIR
 10
1.0
 20
0.0
 30
0.0
  9
$UCSYDIR
 10
0.0
 20
1.0
 30
0.0
  9
$PUCSNAME
  2

  9
$PUCSORG
 10
0.0
 20
0.0
 30
0.0
  9
$PUCSXDIR
 10
1.0
 20
0.0
 30
0.0
  9
$PUCSYDIR
 10
0.0
 20
1.0
 30
0.0
  9
$USERI1
 70
     0
  9
$USERI2
 70
     0
  9
$USERI3
 70
     0
  9
$USERI4
 70
     0
  9
$USERI5
 70
     0
  9
$USERR1
 40
0.0
  9
$USERR2
 40
0.0
  9
$USERR3
 40
0.0
  9
$USERR4
 40
0.0
  9
$USERR5
 40
0.0
  9
$WORLDVIEW
 70
     1
  9
$SHADEDGE
 70
     3
  9
$SHADEDIF
 70
    70
  9
$TILEMODE
 70
     1
  9
$MAXACTVP
 70
    48
  9
$PLIMCHECK
 70
     0
  9
$PEXTMIN
 10
1.0000000000000000E+20
 20
1.0000000000000000E+20
 30
1.0000000000000000E+20
  9
$PEXTMAX
 10
-1.0000000000000000E+20
 20
-1.0000000000000000E+20
 30
-1.0000000000000000E+20
  9
$PLIMMIN
 10
0.0
 20
0.0
  9
$PLIMMAX
 10
12.0
 20
9.0
  9
$UNITMODE
 70
     0
  9
$VISRETAIN
 70
     1
  9
$PLINEGEN
 70
     0
  9
$PSLTSCALE
 70
     1
  0
ENDSEC
  0
SECTION
  2
TABLES
  0
TABLE
  2
VPORT
 70
     1
  0
VPORT
  2
*ACTIVE
 70
     0
 10
0.0
 20
0.0
 11
1.0
 21
1.0
 12
247.2632707375829
 22
32.2111893232505082
 13
0.0
 23
0.0
 14
1.0
 24
1.0
 15
0.0
 25
0.0
 16
-0.0000000000000284
 26
0.0
 36
157.2215818301446859
 17
210.9789276123046875
 27
7.2024491855605604
 37
0.0
 40
4.3902242861528231
 41
2.2118055555555549
 42
50.0
 43
0.0
 44
0.0
 50
0.0
 51
0.0
 71
     0
 72
   100
 73
     1
 74
     1
 75
     0
 76
     0
 77
     0
 78
     0
  0
ENDTAB
  0
TABLE
  2
LTYPE
 70
     2
  0
LTYPE
  2
CONTINUOUS
 70
     0
  3
Solid line
 72
    65
 73
     0
 40
0.0
  0
LTYPE
  2
PHANTOM2
 70
     0
  3
___ _ _ ___ _ _ ___ _ _ ___ _ _
 72
    65
 73
     6
 40
1.25
 49
0.625
 49
-0.125
 49
0.125
 49
-0.125
 49
0.125
 49
-0.125
  0
ENDTAB
  0
TABLE
  2
LAYER
 70
     2
  0
LAYER
  2
0
 70
     0
 62
     7
  6
CONTINUOUS
  0
LAYER
  2
DEFPOINTS
 70
     0
 62
     7
  6
CONTINUOUS
  0
ENDTAB
  0
TABLE
  2
STYLE
 70
     1
  0
STYLE
  2
STANDARD
 70
     0
 40
0.0
 41
0.8
 50
0.0
 71
     0
 42
0.2
  3
txt
  4

  0
ENDTAB
  0
TABLE
  2
VIEW
 70
     0
  0
ENDTAB
  0
TABLE
  2
UCS
 70
     0
  0
ENDTAB
  0
TABLE
  2
APPID
 70
    10
  0
APPID
  2
ACAD
 70
     0
  0
APPID
  2
ACAD_MLEADERVER
 70
     0
  0
APPID
  2
ACAD_EXEMPT_FROM_CAD_STANDARDS
 70
     0
  0
APPID
  2
ACAD_NAV_VCDISPLAY
 70
     0
  0
APPID
  2
ACADANNOMONITORALERTICONDI
 70
     0
  0
APPID
  2
ACAD_DSTYLE_DIMJAG
 70
     0
  0
APPID
  2
ACAD_DSTYLE_DIMTALN
 70
     0
  0
APPID
  2
ACDBATTR
 70
     0
  0
APPID
  2
DCO15
 70
     0
  0
APPID
  2
ACAD_PSEXT
 70
     0
  0
ENDTAB
  0
TABLE
  2
DIMSTYLE
 70
     1
  0
DIMSTYLE
  2
STANDARD
 70
     0
  3

  4

  5

  6

  7

 40
1.0
 41
0.1875
 42
0.0625
 43
0.38
 44
0.125
 45
0.0
 46
0.0
 47
1.5
 48
1.5
140
1.5
141
0.09
142
0.0
143
25.3999999999999986
144
1.0
145
0.0
146
1.0
147
0.09
 71
     0
 72
     0
 73
     1
 74
     1
 75
     0
 76
     0
 77
     0
 78
     4
170
     0
171
     2
172
     0
173
     0
174
     0
175
     0
176
     0
177
     0
178
     0
  0
ENDTAB
  0
ENDSEC
  0
SECTION
  2
BLOCKS
  0
BLOCK
  8
0
  2
$MODEL_SPACE
 70
     0
 10
0.0
 20
0.0
 30
0.0
  3
$MODEL_SPACE
  1

  0
ENDBLK
  5
21
  8
0
  0
BLOCK
 67
     1
  8
0
  2
$PAPER_SPACE
 70
     0
 10
0.0
 20
0.0
 30
0.0
  3
$PAPER_SPACE
  1

  0
ENDBLK
  5
1D
 67
     1
  8
0
  0
ENDSEC
  0
SECTION
  2
ENTITIES
  0
ATTDEF
  5
4EF9
  8
DEFPOINTS
 10
459.919963171926895
 20
40.5674854547378132
 30
0.0
 40
0.001
  1
P31427-00
  3

  2
MODELNUMBER
 70
     0
1001
ACDBATTR
1070
     0
1070
     1
  0
ATTDEF
  5
4EFA
  8
DEFPOINTS
 10
459.919963171926895
 20
40.5658187880711267
 30
0.0
 40
0.001
  1
CENTRAL PARK WEST
  3

  2
TRADENAME
 70
     0
1001
ACDBATTR
1070
     0
1070
     1
  0
ATTDEF
  5
4EFB
  8
DEFPOINTS
 10
459.919963171926895
 20
40.5641521214044474
 30
0.0
 40
0.001
  1
TOILET TISSUE HOLDER
  3

  2
PRODUCT
 70
     0
1001
ACDBATTR
1070
     0
1070
     1
  0
LINE
  5
19C23
  8
0
 10
459.9199233385857042
 20
41.5799026349546281
 30
0.0
 11
459.9199233385857042
 21
39.5483090037508873
 31
0.0
  0
LINE
  5
19C24
  8
0
 10
459.7719233385856796
 20
41.5698774729027605
 30
0.0
 11
459.7719233385856796
 21
39.5583341658027692
 31
0.0
  0
LINE
  5
19C25
  8
0
 10
459.6815408639857878
 20
41.4082221699027713
 30
0.0
 11
459.6815408639857878
 21
39.7199894688027584
 31
0.0
  0
LINE
  5
19C26
  8
0
 10
459.5199233385857269
 20
41.2827991791752567
 30
0.0
 11
459.5199233385857269
 21
39.845412459530273
 31
0.0
  0
LINE
  5
19C27
  8
0
 10
457.9317795194858149
 20
41.1924391526361902
 30
0.0
 11
457.9317795194858149
 21
39.9357724860693395
 31
0.0
  0
LINE
  5
19C28
  8
0
 10
457.8940671577856847
 20
41.1924391525465978
 30
0.0
 11
457.8940671577856847
 21
39.9357724861589318
 31
0.0
  0
LINE
  5
19C29
  8
0
 10
457.7699233385857838
 20
41.1891425145840415
 30
0.0
 11
457.7699233385857838
 21
39.9390691241215023
 31
0.0
  0
LINE
  5
19C2A
  8
0
 10
457.7099233385857247
 20
41.0060516127027626
 30
0.0
 11
457.7099233385857247
 21
40.1221600260027671
 31
0.0
  0
LINE
  5
19C2B
  8
0
 10
457.5299233385857178
 20
41.006105819302519
 30
0.0
 11
457.5299233385857178
 21
40.1221058194029965
 31
0.0
  0
LINE
  5
19C2C
  8
0
 10
457.4699233385857724
 20
40.9316058193027601
 30
0.0
 11
457.4699233385857724
 21
40.1966058194027767
 31
0.0
  0
LINE
  5
19C2D
  8
0
 10
457.3419233385856728
 20
40.8911802310962926
 30
0.0
 11
457.3419233385856728
 21
40.237031407609237
 31
0.0
  0
LINE
  5
19C2E
  8
0
 10
457.2829233385857037
 20
40.9326693820667771
 30
0.0
 11
457.2829233385857037
 21
40.1955422566387597
 31
0.0
  0
LINE
  5
19C2F
  8
0
 10
456.5379233385856992
 20
40.9326636960668893
 30
0.0
 11
456.5379233385856992
 21
40.1955479426386404
 31
0.0
  0
LINE
  5
19C30
  8
0
 10
459.909923338585827
 20
41.5898774729027565
 30
0.0
 11
459.7919233385857751
 21
41.5898774729027565
 31
0.0
  0
ARC
  5
19C31
  8
0
 10
459.9099233161047096
 20
41.5798774186287119
 30
0.0
 40
0.0100000542740895
 50
0.1444782740654362
 51
89.9998711937308116
  0
ARC
  5
19C32
  8
0
 10
459.7919233385857751
 20
41.5698774729027605
 30
0.0
 40
0.019999999999996
 50
89.9999999999902229
 51
180.0000000000098055
  0
LINE
  5
19C33
  8
0
 10
459.7012592056357789
 20
41.4248774729027573
 30
0.0
 11
459.7399233385856974
 21
41.4248774729027573
 31
0.0
  0
ARC
  5
19C34
  8
0
 10
459.7399233385856974
 20
41.4568774729027609
 30
0.0
 40
0.0319999999999929
 50
269.9999999999902229
 51
0.0000000000126204
  0
ARC
  5
19C35
  8
0
 10
459.7012592056357789
 20
41.4048774730393987
 30
0.0
 40
0.0199999998633622
 50
89.999999856807662
 51
170.372914197735895
  0
ARC
  5
19C36
  8
0
 10
459.5698360023461078
 20
41.4304584937037106
 30
0.0
 40
0.1138965768146882
 50
300.6601521719875905
 51
348.7416887703910788
  0
ARC
  5
19C37
  8
0
 10
459.5281036229443998
 20
41.4833214416883465
 30
0.0
 40
0.1808720105397999
 50
273.2950942309637981
 51
303.493691550035976
  0
ARC
  5
19C38
  8
0
 10
459.5399233386556261
 20
41.2827991791752567
 30
0.0
 40
0.0200000000698906
 50
94.0813499176005337
 51
179.9999999212137993
  0
LINE
  5
19C39
  8
0
 10
457.8846390673384121
 20
41.1991058193027584
 30
0.0
 11
457.7799233385857178
 21
41.1991058193027584
 31
0.0
  0
LINE
  5
19C3A
  8
0
 10
457.9412076098727766
 20
41.1991058193027584
 30
0.0
 11
459.4879233385856878
 21
41.1991058193027584
 31
0.0
  0
ARC
  5
19C3B
  8
0
 10
459.4879233385856878
 20
41.231105819302762
 30
0.0
 40
0.0319999999999965
 50
269.9999999999968168
 51
0.0000000000061067
  0
ARC
  5
19C3C
  8
0
 10
457.9412076098727766
 20
41.1891058193433182
 30
0.0
 40
0.0099999999594438
 50
89.9999999261402905
 51
160.5287795292425983
  0
ARC
  5
19C3D
  8
0
 10
457.9129233386016153
 20
41.1991058192803692
 30
0.0
 40
0.0199999999775992
 50
199.4712205888270091
 51
340.5287794111729909
  0
ARC
  5
19C3E
  8
0
 10
457.8846390673384121
 20
41.1891058193029806
 30
0.0
 40
0.0099999999997911
 50
19.4712206341933083
 51
89.9999997288933855
  0
ARC
  5
19C3F
  8
0
 10
457.7799233864932944
 20
41.1891057036435484
 30
0.0
 40
0.0100001156593212
 50
90.0002744872013523
 51
179.7890908100904994
  0
LINE
  5
19C40
  8
0
 10
457.5199233385857269
 20
40.9416058193027581
 30
0.0
 11
457.4799233385857065
 21
40.9416058193027581
 31
0.0
  0
ARC
  5
19C41
  8
0
 10
457.7599233385857929
 20
40.9316058193027601
 30
0.0
 40
0.0099999999999945
 50
359.9999999999694751
 51
90.000000000029317
  0
ARC
  5
19C42
  8
0
 10
457.7199233385857156
 20
40.9516058193027632
 30
0.0
 40
0.0100000000000016
 50
179.9999999999693898
 51
269.9999999999902229
  0
ARC
  5
19C43
  8
0
 10
457.6891976276659761
 20
41.0053855326741825
 30
0.0
 40
0.0207364113513328
 50
1.8407302773213181
 51
87.740329556233533
  0
ARC
  5
19C44
  8
0
 10
457.5506404417088788
 20
41.0053930901067503
 30
0.0
 40
0.0207293594866381
 50
92.2952164458633177
 51
178.0296340052734081
  0
ARC
  5
19C45
  8
0
 10
457.5199233385857269
 20
40.9516058193027632
 30
0.0
 40
0.009999999999998
 50
270.0000000000097771
 51
0.0000000000203555
  0
ARC
  5
19C46
  8
0
 10
457.4799233385857065
 20
40.9316058193027601
 30
0.0
 40
0.0100000000000016
 50
89.9999999999902229
 51
179.9999999999897966
  0
LINE
  5
19C47
  8
0
 10
457.4599233385857815
 20
40.8426058193027615
 30
0.0
 11
457.3519233385857774
 21
40.8426058193027615
 31
0.0
  0
ARC
  5
19C48
  8
0
 10
457.4599233385857815
 20
40.8526058193027666
 30
0.0
 40
0.0099999999999945
 50
269.9999999999707256
 51
0.0000000000305333
  0
ARC
  5
19C49
  8
0
 10
457.3519233385857774
 20
40.8526058193027666
 30
0.0
 40
0.0099999999999945
 50
179.9999999999897966
 51
270.0000000000292744
  0
LINE
  5
19C4A
  8
0
 10
457.3319233385856819
 20
40.9011058193027708
 30
0.0
 11
457.2929233385856946
 21
40.9011058193027708
 31
0.0
  0
ARC
  5
19C4B
  8
0
 10
457.3319231403003755
 20
40.8911053405995375
 30
0.0
 40
0.0100004787052051
 50
0.4290744096720885
 51
89.9988639628860483
  0
ARC
  5
19C4C
  8
0
 10
457.2929233385856946
 20
40.9111058193027475
 30
0.0
 40
0.009999999999998
 50
179.9999999999593001
 51
270.0000000000097771
  0
LINE
  5
19C4D
  8
0
 10
457.262923266774294
 20
40.9526058193027609
 30
0.0
 11
456.557923338585681
 21
40.9526058193027609
 31
0.0
  0
ARC
  5
19C4E
  8
0
 10
457.262923266774294
 20
40.9326056459347711
 30
0.0
 40
0.0200001733681237
 50
0.1825892946418654
 51
89.9999999999934914
  0
LINE
  5
19C4F
  8
0
 10
457.7199233385857156
 20
40.9416058193027581
 30
0.0
 11
457.7599233385857929
 21
40.9416058193027581
 31
0.0
  0
LINE
  5
19C50
  8
0
 10
457.689923338585686
 20
41.019743830002767
 30
0.0
 11
457.5499233385856996
 21
41.019743830002767
 31
0.0
  0
LINE
  5
19C51
  8
0
 10
457.6899233385859134
 20
41.0114293107027734
 30
0.0
 11
457.549923338585586
 21
41.0114293107027734
 31
0.0
  0
LINE
  5
19C52
  8
0
 10
457.6905770453539049
 20
40.9939011736027581
 30
0.0
 11
457.5492696318175945
 21
40.9939011736027581
 31
0.0
  0
LINE
  5
19C53
  8
0
 10
457.689923338585686
 20
40.977635519502762
 30
0.0
 11
457.5499233385856996
 21
40.977635519502762
 31
0.0
  0
LINE
  5
19C54
  8
0
 10
457.689923338585686
 20
40.9492743978027676
 30
0.0
 11
457.5499233385856996
 21
40.9492743978027676
 31
0.0
  0
LINE
  5
19C55
  8
0
 10
457.689923338585686
 20
40.9257684960027603
 30
0.0
 11
457.5499233385856996
 21
40.9257684960027603
 31
0.0
  0
LINE
  5
19C56
  8
0
 10
457.6905737230238174
 20
40.8878139070027586
 30
0.0
 11
457.5492729541476251
 21
40.8878139070027586
 31
0.0
  0
LINE
  5
19C57
  8
0
 10
457.689923338585686
 20
40.8580950781027568
 30
0.0
 11
457.5499233385856996
 21
40.8580950781027568
 31
0.0
  0
LINE
  5
19C58
  8
0
 10
457.6911727408304955
 20
40.8122058193027684
 30
0.0
 11
457.5486739363410038
 21
40.8122058193027684
 31
0.0
  0
LINE
  5
19C59
  8
0
 10
457.689923338585686
 20
40.7775729189027629
 30
0.0
 11
457.5499233385856996
 21
40.7775729189027629
 31
0.0
  0
LINE
  5
19C5A
  8
0
 10
457.6921557775349925
 20
40.7257545712027635
 30
0.0
 11
457.5476908996365069
 21
40.7257545712027635
 31
0.0
  0
LINE
  5
19C5B
  8
0
 10
457.689923338585686
 20
40.6877212231027627
 30
0.0
 11
457.5499233385856996
 21
40.6877212231027627
 31
0.0
  0
LINE
  5
19C5C
  8
0
 10
457.6957448385182943
 20
40.6322384969027723
 30
0.0
 11
457.5441018386530914
 21
40.6322384969027723
 31
0.0
  0
LINE
  5
19C5D
  8
0
 10
457.7099233385857247
 20
40.5924669410027619
 30
0.0
 11
457.5299233385857178
 21
40.5924669410027619
 31
0.0
  0
ARC
  5
19C5E
  8
0
 10
457.6898399200640029
 20
40.9996287718670587
 30
0.0
 40
0.0201152311061216
 50
3.2227888061107159
 51
89.7623918461438564
  0
ARC
  5
19C5F
  8
0
 10
457.6898044898259172
 20
40.9901784559164071
 30
0.0
 40
0.0212511871239718
 50
18.78804787458796
 51
89.6795676497649765
  0
ARC
  5
19C60
  8
0
 10
457.6902501919698807
 20
40.9741781234775502
 30
0.0
 40
0.0197257582712636
 50
4.1856059056481074
 51
89.0505725439092117
  0
ARC
  5
19C61
  8
0
 10
457.6897368144975076
 20
40.9543419689362977
 30
0.0
 40
0.0232942973542381
 50
29.9356381512787593
 51
89.5412114357283713
  0
ARC
  5
19C62
  8
0
 10
457.6895384630594776
 20
40.9279529724845617
 30
0.0
 40
0.0213248987517078
 50
17.0754371243927707
 51
88.9658595382163071
  0
ARC
  5
19C63
  8
0
 10
457.6889992275069972
 20
40.8955909093944925
 30
0.0
 40
0.0301917325568715
 50
46.1286782034484872
 51
88.2460120372754062
  0
ARC
  5
19C64
  8
0
 10
457.6902485308045812
 20
40.8673323751083899
 30
0.0
 40
0.020484113325203
 50
16.1594155955501186
 51
89.0903719328723582
  0
ARC
  5
19C65
  8
0
 10
457.6886018859805745
 20
40.8173318981412407
 30
0.0
 40
0.0407845936299874
 50
58.4809498118749786
 51
88.143247140160625
  0
ARC
  5
19C66
  8
0
 10
457.690548039708176
 20
40.792675049730228
 30
0.0
 40
0.0195407577025004
 50
7.461374170300286
 51
88.1679913353977156
  0
ARC
  5
19C67
  8
0
 10
457.6845761050623196
 20
40.6798018359228166
 30
0.0
 40
0.0979171975366145
 50
74.9973357581279174
 51
86.8695346200598664
  0
ARC
  5
19C68
  8
0
 10
457.6910395580603108
 20
40.7055552394476905
 30
0.0
 40
0.0202301495117376
 50
21.0212574807605499
 51
86.8370396890744729
  0
ARC
  5
19C69
  8
0
 10
457.6811644536879271
 20
40.4254621529885867
 30
0.0
 40
0.2624052932427327
 50
83.7079036682811193
 51
88.0871560586254816
  0
ARC
  5
19C6A
  8
0
 10
457.6928340885519901
 20
40.6050137230704422
 30
0.0
 40
0.0273799338126856
 50
51.3800007877196876
 51
83.8973762137363792
  0
ARC
  5
19C6B
  8
0
 10
457.5500067571073828
 20
40.9996287718670587
 30
0.0
 40
0.0201152311061216
 50
90.2376081538561436
 51
176.7772111938888884
  0
ARC
  5
19C6C
  8
0
 10
457.5500421873455821
 20
40.9901784559164071
 30
0.0
 40
0.0212511871239718
 50
90.3204323502350377
 51
161.2119521254116989
  0
ARC
  5
19C6D
  8
0
 10
457.5495964852016186
 20
40.9741781234775502
 30
0.0
 40
0.0197257582712636
 50
90.9494274560907741
 51
175.8143940943519112
  0
ARC
  5
19C6E
  8
0
 10
457.5501098626738781
 20
40.9543419689362977
 30
0.0
 40
0.0232942973542381
 50
90.4587885642716287
 51
150.0643618487212052
  0
ARC
  5
19C6F
  8
0
 10
457.5503082141120217
 20
40.9279529724845617
 30
0.0
 40
0.0213248987517078
 50
91.0341404617836929
 51
162.9245628756071937
  0
ARC
  5
19C70
  8
0
 10
457.5508474496643885
 20
40.8955909093944925
 30
0.0
 40
0.0301917325568715
 50
91.7539879627213253
 51
133.8713217965515128
  0
ARC
  5
19C71
  8
0
 10
457.5495981463668045
 20
40.8673323751083899
 30
0.0
 40
0.020484113325203
 50
90.909628067127656
 51
163.8405844044499133
  0
ARC
  5
19C72
  8
0
 10
457.5512447911909248
 20
40.8173318981412407
 30
0.0
 40
0.0407845936299874
 50
91.856752859839375
 51
121.519050188124794
  0
ARC
  5
19C73
  8
0
 10
457.5492986374633233
 20
40.792675049730228
 30
0.0
 40
0.0195407577025004
 50
91.8320086646022844
 51
172.5386258296996971
  0
ARC
  5
19C74
  8
0
 10
457.5552705721091797
 20
40.6798018359228166
 30
0.0
 40
0.0979171975366145
 50
93.1304653799401052
 51
105.0026642418720968
  0
ARC
  5
19C75
  8
0
 10
457.5488071191110748
 20
40.7055552394476905
 30
0.0
 40
0.0202301495117376
 50
93.1629603109255271
 51
158.9787425192394039
  0
ARC
  5
19C76
  8
0
 10
457.5586822234836859
 20
40.4254621529885867
 30
0.0
 40
0.2624052932427327
 50
91.9128439413745184
 51
96.2920963317188949
  0
ARC
  5
19C77
  8
0
 10
457.5470125886193955
 20
40.6050137230704422
 30
0.0
 40
0.0273799338126856
 50
96.1026237862636066
 51
128.6199992122803053
  0
ARC
  5
19C78
  8
0
 10
456.5579233980948857
 20
40.9326056756347825
 30
0.0
 40
0.020000143668067
 50
90.0001704801605626
 51
179.8337846665934023
  0
LINE
  5
19C79
  8
0
 10
459.909923338585827
 20
39.5383341658027732
 30
0.0
 11
459.7919233385857751
 21
39.5383341658027732
 31
0.0
  0
ARC
  5
19C7A
  8
0
 10
459.9099233161047096
 20
39.548334220076832
 30
0.0
 40
0.0100000542740895
 50
270.0001288062691742
 51
359.8555217259345795
  0
ARC
  5
19C7B
  8
0
 10
459.7919233385857751
 20
39.5583341658027692
 30
0.0
 40
0.019999999999996
 50
179.9999999999897966
 51
270.0000000000097771
  0
LINE
  5
19C7C
  8
0
 10
459.7012592056357789
 20
39.7033341658027723
 30
0.0
 11
459.7399233385856974
 21
39.7033341658027723
 31
0.0
  0
ARC
  5
19C7D
  8
0
 10
459.7399233385856974
 20
39.6713341658027829
 30
0.0
 40
0.0319999999999929
 50
359.9999999999869829
 51
90.0000000000097771
  0
ARC
  5
19C7E
  8
0
 10
459.7012592056357789
 20
39.723334165666131
 30
0.0
 40
0.0199999998633622
 50
189.6270858022637071
 51
270.0000001431923238
  0
ARC
  5
19C7F
  8
0
 10
459.5698360023461078
 20
39.6977531450018191
 30
0.0
 40
0.1138965768146882
 50
11.2583112296084202
 51
59.3398478280124593
  0
ARC
  5
19C80
  8
0
 10
459.5281036229443998
 20
39.6448901970171832
 30
0.0
 40
0.1808720105397999
 50
56.5063084499639672
 51
86.7049057690362446
  0
ARC
  5
19C81
  8
0
 10
459.5399233386556261
 20
39.845412459530273
 30
0.0
 40
0.0200000000698906
 50
180.0000000787856891
 51
265.9186500823994947
  0
LINE
  5
19C82
  8
0
 10
457.8846390673384121
 20
39.9291058194027713
 30
0.0
 11
457.7799233385857178
 21
39.9291058194027713
 31
0.0
  0
LINE
  5
19C83
  8
0
 10
457.9412076098727766
 20
39.9291058194027713
 30
0.0
 11
458.9474233673857952
 21
39.9291058194027713
 31
0.0
  0
LINE
  5
19C84
  8
0
 10
459.2024233099857042
 20
39.9291058194027713
 30
0.0
 11
459.4879233385856878
 21
39.9291058194027713
 31
0.0
  0
ARC
  5
19C85
  8
0
 10
459.4879233385856878
 20
39.8971058194027819
 30
0.0
 40
0.0319999999999965
 50
359.9999999999935199
 51
90.0000000000032543
  0
ARC
  5
19C86
  8
0
 10
457.9412076098727766
 20
39.9391058193622186
 30
0.0
 40
0.0099999999594438
 50
199.4712204707570038
 51
270.0000000738597237
  0
ARC
  5
19C87
  8
0
 10
457.9129233386016153
 20
39.9291058194251676
 30
0.0
 40
0.0199999999775992
 50
19.4712205888269985
 51
160.528779411172593
  0
ARC
  5
19C88
  8
0
 10
457.8846390673384121
 20
39.939105819402549
 30
0.0
 40
0.0099999999997911
 50
270.0000002711066145
 51
340.5287793658063151
  0
ARC
  5
19C89
  8
0
 10
457.7799233864932944
 20
39.9391059350619813
 30
0.0
 40
0.0100001156593212
 50
180.210909189908989
 51
269.9997255127954077
  0
LINE
  5
19C8A
  8
0
 10
457.5199233385857269
 20
40.1866058194027573
 30
0.0
 11
457.4799233385857065
 21
40.1866058194027573
 31
0.0
  0
ARC
  5
19C8B
  8
0
 10
457.7599233385857929
 20
40.1966058194027696
 30
0.0
 40
0.0099999999999945
 50
269.9999999999707256
 51
0.0000000000305333
  0
ARC
  5
19C8C
  8
0
 10
457.7199233385857156
 20
40.1766058194027735
 30
0.0
 40
0.0100000000000016
 50
90.0000000000097771
 51
180.0000000000300986
  0
ARC
  5
19C8D
  8
0
 10
457.6891976276659761
 20
40.1228261060313471
 30
0.0
 40
0.0207364113513457
 50
272.2596704437989956
 51
358.159269722667716
  0
ARC
  5
19C8E
  8
0
 10
457.5506404417089925
 20
40.1228185485987794
 30
0.0
 40
0.0207293594866492
 50
181.970365994740007
 51
267.7047835541105769
  0
ARC
  5
19C8F
  8
0
 10
457.5199233385857269
 20
40.1766058194027735
 30
0.0
 40
0.009999999999998
 50
359.9999999999797069
 51
89.9999999999902229
  0
ARC
  5
19C90
  8
0
 10
457.4799233385857065
 20
40.1966058194027767
 30
0.0
 40
0.0100000000000016
 50
180.0000000000098055
 51
270.0000000000097771
  0
LINE
  5
19C91
  8
0
 10
457.4599233385857815
 20
40.2856058194027682
 30
0.0
 11
457.3519233385857774
 21
40.2856058194027682
 31
0.0
  0
ARC
  5
19C92
  8
0
 10
457.4599233385857815
 20
40.2756058194027702
 30
0.0
 40
0.0099999999999945
 50
359.9999999999694751
 51
90.000000000029317
  0
ARC
  5
19C93
  8
0
 10
457.3519233385857774
 20
40.2756058194027702
 30
0.0
 40
0.0099999999999945
 50
89.999999999970683
 51
180.0000000000098055
  0
LINE
  5
19C94
  8
0
 10
457.3319233385856819
 20
40.2271058194027731
 30
0.0
 11
457.2929233385856946
 21
40.2271058194027731
 31
0.0
  0
ARC
  5
19C95
  8
0
 10
457.3319231403003755
 20
40.2371062981059993
 30
0.0
 40
0.0100004787052051
 50
270.0011360371140086
 51
359.5709255903274766
  0
ARC
  5
19C96
  8
0
 10
457.2929233385856946
 20
40.2171058194027822
 30
0.0
 40
0.009999999999998
 50
89.9999999999902229
 51
180.000000000040302
  0
LINE
  5
19C97
  8
0
 10
456.557923338585681
 20
40.1756058194027688
 30
0.0
 11
457.262923266774294
 21
40.1756058194027688
 31
0.0
  0
ARC
  5
19C98
  8
0
 10
457.262923266774294
 20
40.1956059927707727
 30
0.0
 40
0.0200001733681166
 50
270.0
 51
359.8174107057550941
  0
LINE
  5
19C99
  8
0
 10
457.7199233385857156
 20
40.1866058194027573
 30
0.0
 11
457.7599233385857929
 21
40.1866058194027573
 31
0.0
  0
LINE
  5
19C9A
  8
0
 10
457.689923338585686
 20
40.1084678087027626
 30
0.0
 11
457.5499233385856996
 21
40.1084678087027626
 31
0.0
  0
LINE
  5
19C9B
  8
0
 10
457.6899233385859134
 20
40.1167823280027704
 30
0.0
 11
457.549923338585586
 21
40.1167823280027704
 31
0.0
  0
LINE
  5
19C9C
  8
0
 10
457.6905770453539049
 20
40.1343104651027716
 30
0.0
 11
457.5492696318175945
 21
40.1343104651027716
 31
0.0
  0
LINE
  5
19C9D
  8
0
 10
457.689923338585686
 20
40.1505761192027677
 30
0.0
 11
457.5499233385856996
 21
40.1505761192027677
 31
0.0
  0
LINE
  5
19C9E
  8
0
 10
457.689923338585686
 20
40.1789372409027692
 30
0.0
 11
457.5499233385856996
 21
40.1789372409027692
 31
0.0
  0
LINE
  5
19C9F
  8
0
 10
457.689923338585686
 20
40.2024431427027693
 30
0.0
 11
457.5499233385856996
 21
40.2024431427027693
 31
0.0
  0
LINE
  5
19CA0
  8
0
 10
457.6905737230238174
 20
40.240397731702771
 30
0.0
 11
457.5492729541476251
 21
40.240397731702771
 31
0.0
  0
LINE
  5
19CA1
  8
0
 10
457.689923338585686
 20
40.2701165606027729
 30
0.0
 11
457.5499233385856996
 21
40.2701165606027729
 31
0.0
  0
LINE
  5
19CA2
  8
0
 10
457.6911727408304955
 20
40.3160058194027684
 30
0.0
 11
457.5486739363410038
 21
40.3160058194027684
 31
0.0
  0
LINE
  5
19CA3
  8
0
 10
457.689923338585686
 20
40.3506387198027667
 30
0.0
 11
457.5499233385856996
 21
40.3506387198027667
 31
0.0
  0
LINE
  5
19CA4
  8
0
 10
457.6921557775349925
 20
40.4024570675027732
 30
0.0
 11
457.5476908996365069
 21
40.4024570675027732
 31
0.0
  0
LINE
  5
19CA5
  8
0
 10
457.689923338585686
 20
40.4404904156027669
 30
0.0
 11
457.5499233385856996
 21
40.4404904156027669
 31
0.0
  0
LINE
  5
19CA6
  8
0
 10
457.6957448385182943
 20
40.4959731418027715
 30
0.0
 11
457.5441018386530914
 21
40.4959731418027715
 31
0.0
  0
LINE
  5
19CA7
  8
0
 10
457.7099233385857247
 20
40.5357446977027678
 30
0.0
 11
457.5299233385857178
 21
40.5357446977027678
 31
0.0
  0
ARC
  5
19CA8
  8
0
 10
457.6898399200640029
 20
40.128582866838471
 30
0.0
 40
0.0201152311061216
 50
270.2376081538561152
 51
356.7772111938888884
  0
ARC
  5
19CA9
  8
0
 10
457.6898044898259172
 20
40.1380331827891084
 30
0.0
 40
0.0212511871239718
 50
270.3204323502350235
 51
341.2119521254115853
  0
ARC
  5
19CAA
  8
0
 10
457.6902501919698807
 20
40.1540335152279795
 30
0.0
 40
0.0197257582712636
 50
270.9494274560908025
 51
355.8143940943518828
  0
ARC
  5
19CAB
  8
0
 10
457.6897368144975076
 20
40.1738696697692319
 30
0.0
 40
0.0232942973542381
 50
270.4587885642715719
 51
330.0643618487208073
  0
ARC
  5
19CAC
  8
0
 10
457.6895384630594776
 20
40.2002586662209822
 30
0.0
 40
0.0213248987517078
 50
271.0341404617836929
 51
342.9245628756071937
  0
ARC
  5
19CAD
  8
0
 10
457.6889992275069972
 20
40.2326207293110372
 30
0.0
 40
0.0301917325568715
 50
271.7539879627245796
 51
313.8713217965515128
  0
ARC
  5
19CAE
  8
0
 10
457.6902485308045812
 20
40.2608792635971398
 30
0.0
 40
0.020484113325203
 50
270.9096280671276986
 51
343.840584404449487
  0
ARC
  5
19CAF
  8
0
 10
457.6886018859805745
 20
40.3108797405642889
 30
0.0
 40
0.0407845936299874
 50
271.8567528598393892
 51
301.5190501881249929
  0
ARC
  5
19CB0
  8
0
 10
457.690548039708176
 20
40.3355365889753017
 30
0.0
 40
0.0195407577025004
 50
271.8320086646023128
 51
352.5386258296994129
  0
ARC
  5
19CB1
  8
0
 10
457.6845761050623196
 20
40.448409802782713
 30
0.0
 40
0.0979171975366145
 50
273.1304653799401194
 51
285.0026642418720826
  0
ARC
  5
19CB2
  8
0
 10
457.6910395580603108
 20
40.4226563992578392
 30
0.0
 40
0.0202301495117376
 50
273.1629603109254845
 51
338.9787425192395176
  0
ARC
  5
19CB3
  8
0
 10
457.6811644536879271
 20
40.702749485716943
 30
0.0
 40
0.2624052932427327
 50
271.91284394137449
 51
276.2920963317188807
  0
ARC
  5
19CB4
  8
0
 10
457.6928340885519901
 20
40.5231979156350803
 30
0.0
 40
0.0273799338126856
 50
276.1026237862636208
 51
308.6199992122803906
  0
ARC
  5
19CB5
  8
0
 10
457.5500067571073828
 20
40.128582866838471
 30
0.0
 40
0.0201152311061216
 50
183.2227888061102874
 51
269.7623918461438279
  0
ARC
  5
19CB6
  8
0
 10
457.5500421873455821
 20
40.1380331827891084
 30
0.0
 40
0.0212511871239718
 50
198.7880478745879032
 51
269.6795676497649765
  0
ARC
  5
19CB7
  8
0
 10
457.5495964852016186
 20
40.1540335152279795
 30
0.0
 40
0.0197257582712636
 50
184.1856059056474066
 51
269.0505725439093112
  0
ARC
  5
19CB8
  8
0
 10
457.5501098626738781
 20
40.1738696697692319
 30
0.0
 40
0.0232942973542381
 50
209.9356381512787948
 51
269.5412114357284281
  0
ARC
  5
19CB9
  8
0
 10
457.5503082141120217
 20
40.2002586662209822
 30
0.0
 40
0.0213248987517078
 50
197.0754371243924084
 51
268.9658595382163071
  0
ARC
  5
19CBA
  8
0
 10
457.5508474496643885
 20
40.2326207293110372
 30
0.0
 40
0.0301917325568715
 50
226.1286782034484872
 51
268.2460120372754204
  0
ARC
  5
19CBB
  8
0
 10
457.5495981463668045
 20
40.2608792635971398
 30
0.0
 40
0.020484113325203
 50
196.1594155955496888
 51
269.0903719328724151
  0
ARC
  5
19CBC
  8
0
 10
457.5512447911909248
 20
40.3108797405642889
 30
0.0
 40
0.0407845936299874
 50
238.4809498118750071
 51
268.1432471401606108
  0
ARC
  5
19CBD
  8
0
 10
457.5492986374633233
 20
40.3355365889753017
 30
0.0
 40
0.0195407577025004
 50
187.4613741703003029
 51
268.1679913353978009
  0
ARC
  5
19CBE
  8
0
 10
457.5552705721091797
 20
40.448409802782713
 30
0.0
 40
0.0979171975366145
 50
254.997335758127889
 51
266.8695346200598237
  0
ARC
  5
19CBF
  8
0
 10
457.5488071191110748
 20
40.4226563992578392
 30
0.0
 40
0.0202301495117376
 50
201.0212574807605961
 51
266.8370396890745155
  0
ARC
  5
19CC0
  8
0
 10
457.5586822234836859
 20
40.702749485716943
 30
0.0
 40
0.2624052932427327
 50
263.7079036682811193
 51
268.0871560586253963
  0
ARC
  5
19CC1
  8
0
 10
457.5470125886193955
 20
40.5231979156350803
 30
0.0
 40
0.0273799338126856
 50
231.3800007877196947
 51
263.8973762137363792
  0
ARC
  5
19CC2
  8
0
 10
456.5579233980948857
 20
40.1956059630707472
 30
0.0
 40
0.020000143668067
 50
180.1662153334065977
 51
269.9998295198394089
  0
CIRCLE
  5
19CC3
  8
0
 10
456.9114500385857127
 20
40.5641058194027622
 30
0.0
 40
0.2402204728000008
  0
ARC
  5
19CC4
  8
0
 10
459.0749233386857782
 20
39.3370070400046288
 30
0.0
 40
0.6056708736981391
 50
77.8477398514000782
 51
102.1522601485966959
  0
LINE
  5
19CC5
  8
0
 10
457.5498102646321854
 20
40.1021058194027731
 30
0.0
 11
457.6900152325592899
 21
40.1021058194027731
 31
0.0
  0
LINE
  5
19CC6
  8
0
 10
457.6900152325591762
 20
41.0261058193027566
 30
0.0
 11
457.5498102646320717
 21
41.0261058193027566
 31
0.0
  0
LINE
  5
19CC8
  8
0
 10
456.6852295657856757
 20
38.3931058193027681
 30
0.0
 11
457.1376705112857053
 21
38.3931058193027681
 31
0.0
  0
LINE
  5
19CC9
  8
0
 10
457.1476705106857139
 20
37.4741058190527667
 30
0.0
 11
457.1476705106857139
 21
40.1756058194027688
 31
0.0
  0
LINE
  5
19CCA
  8
0
 10
456.6752295657856848
 20
37.4741058190527667
 30
0.0
 11
456.6752295657856848
 21
40.1756058194027688
 31
0.0
  0
ARC
  5
19CCB
  8
0
 10
456.9114500382357278
 20
37.4741058190527667
 30
0.0
 40
0.2362204724500024
 50
180.0
 51
0.0
  0
ARC
  5
19CCC
  8
0
 10
456.6852295657856757
 20
38.3831058193027701
 30
0.0
 40
0.0099999999999945
 50
89.9999999999576659
 51
180.0000000000150067
  0
ARC
  5
19CCD
  8
0
 10
457.1376705112857053
 20
38.383105819302763
 30
0.0
 40
0.009999999999998
 50
0.0000000000048853
 51
90.0000005729777968
  0
CIRCLE
  5
19CCE
  8
0
 10
456.9114500382357278
 20
40.5641058193527684
 30
0.0
 40
0.2362204724500003
  0
ARC
  5
19CCF
  8
0
 10
457.1476705112856962
 20
40.5641058193027604
 30
0.0
 40
0.0199999999999996
 50
92.4262480869070799
 51
267.5737518888399222
  0
ARC
  5
19CD0
  8
0
 10
457.127248178422974
 20
40.660185341394552
 30
0.0
 40
0.0199999999999996
 50
116.4262479088680067
 51
291.5737519999162828
  0
ARC
  5
19CD1
  8
0
 10
457.069512386717804
 20
40.7396518412615904
 30
0.0
 40
0.0199999999999996
 50
140.4262475908051897
 51
315.5737522667873236
  0
ARC
  5
19CD2
  8
0
 10
456.9844461790693231
 20
40.7887648391464168
 30
0.0
 40
0.0199999999999996
 50
164.4262471877173937
 51
339.5737526433101721
  0
ARC
  5
19CD3
  8
0
 10
456.8867582755819967
 20
40.7990322515371489
 30
0.0
 40
0.0199999999999996
 50
188.4262467692950054
 51
3.573753064383653
  0
ARC
  5
19CD4
  8
0
 10
456.7933398022357778
 20
40.7686787495549297
 30
0.0
 40
0.0199999999999996
 50
212.4262464078944106
 51
27.5737534571938099
  0
ARC
  5
19CD5
  8
0
 10
456.7203436617521106
 20
40.7029527294453786
 30
0.0
 40
0.0199999999999996
 50
236.4262461659984922
 51
51.5737537538276669
  0
ARC
  5
19CD6
  8
0
 10
456.6803915499701247
 20
40.6132188171875868
 30
0.0
 40
0.0199999999999996
 50
260.4262460854398
 51
75.573753902984663
  0
ARC
  5
19CD7
  8
0
 10
456.6803915499701247
 20
40.5149928214179411
 30
0.0
 40
0.0199999999999996
 50
284.4262461801433801
 51
99.5737538788856966
  0
ARC
  5
19CD8
  8
0
 10
456.7203436617521106
 20
40.4252589091601493
 30
0.0
 40
0.0199999999999996
 50
308.4262464337292045
 51
123.5737536856902068
  0
ARC
  5
19CD9
  8
0
 10
456.7933398022357778
 20
40.3595328890505911
 30
0.0
 40
0.0199999999999996
 50
332.4262468023630959
 51
147.5737533568050139
  0
ARC
  5
19CDA
  8
0
 10
456.8867582755819967
 20
40.3291793870683719
 30
0.0
 40
0.0199999999999996
 50
356.4262472222964107
 51
171.5737529490970985
  0
ARC
  5
19CDB
  8
0
 10
456.9844461790693231
 20
40.339446799459111
 30
0.0
 40
0.0199999999999996
 50
20.426247620918371
 51
195.5737525330632991
  0
ARC
  5
19CDC
  8
0
 10
457.069512386717804
 20
40.3885597973439303
 30
0.0
 40
0.0199999999999996
 50
44.4262479293087367
 51
219.5737521806364043
  0
ARC
  5
19CDD
  8
0
 10
457.127248178422974
 20
40.468026297210983
 30
0.0
 40
0.0199999999999996
 50
68.4262480941360138
 51
243.5737519527654058
  0
ENDSEC
  0
EOF
