  0
SECTION
  2
HEADER
  9
$ACADVER
  1
AC1009
  9
$INSBASE
 10
451.389931920412721
 20
39.923177050584421
 30
0.0
  9
$EXTMIN
 10
450.3503147643730813
 20
38.8951445341695674
 30
-0.0015258207003583
  9
$EXTMAX
 10
452.4432752587467803
 20
41.4454186568023601
 30
0.0000000349246037
  9
$LIMMIN
 10
0.0
 20
0.0
  9
$LIMMAX
 10
22.0
 20
17.0
  9
$ORTHOMODE
 70
     0
  9
$REGENMODE
 70
     1
  9
$FILLMODE
 70
     1
  9
$QTEXTMODE
 70
     0
  9
$MIRRTEXT
 70
     0
  9
$DRAGMODE
 70
     2
  9
$LTSCALE
 40
1.2099999999999991
  9
$OSMODE
 70
     7
  9
$ATTMODE
 70
     1
  9
$TEXTSIZE
 40
0.2
  9
$TRACEWID
 40
0.05
  9
$TEXTSTYLE
  7
STANDARD
  9
$CLAYER
  8
0
  9
$CELTYPE
  6
BYLAYER
  9
$CECOLOR
 62
   256
  9
$DIMSCALE
 40
1.0
  9
$DIMASZ
 40
0.1875
  9
$DIMEXO
 40
0.0625
  9
$DIMDLI
 40
0.38
  9
$DIMRND
 40
0.0
  9
$DIMDLE
 40
0.0
  9
$DIMEXE
 40
0.125
  9
$DIMTP
 40
1.5
  9
$DIMTM
 40
1.5
  9
$DIMTXT
 40
1.5
  9
$DIMCEN
 40
0.09
  9
$DIMTSZ
 40
0.0
  9
$DIMTOL
 70
     0
  9
$DIMLIM
 70
     0
  9
$DIMTIH
 70
     1
  9
$DIMTOH
 70
     1
  9
$DIMSE1
 70
     0
  9
$DIMSE2
 70
     0
  9
$DIMTAD
 70
     0
  9
$DIMZIN
 70
     4
  9
$DIMBLK
  1

  9
$DIMASO
 70
     1
  9
$DIMSHO
 70
     1
  9
$DIMPOST
  1

  9
$DIMAPOST
  1

  9
$DIMALT
 70
     0
  9
$DIMALTD
 70
     2
  9
$DIMALTF
 40
25.3999999999999986
  9
$DIMLFAC
 40
1.0
  9
$DIMTOFL
 70
     0
  9
$DIMTVP
 40
0.0
  9
$DIMTIX
 70
     0
  9
$DIMSOXD
 70
     0
  9
$DIMSAH
 70
     0
  9
$DIMBLK1
  1

  9
$DIMBLK2
  1

  9
$DIMSTYLE
  2
STANDARD
  9
$DIMCLRD
 70
     0
  9
$DIMCLRE
 70
     0
  9
$DIMCLRT
 70
     0
  9
$DIMTFAC
 40
1.0
  9
$DIMGAP
 40
0.09
  9
$LUNITS
 70
     2
  9
$LUPREC
 70
     4
  9
$SKETCHINC
 40
0.1
  9
$FILLETRAD
 40
0.0
  9
$AUNITS
 70
     0
  9
$AUPREC
 70
     0
  9
$MENU
  1
.
  9
$ELEVATION
 40
0.0
  9
$PELEVATION
 40
0.0
  9
$THICKNESS
 40
0.0
  9
$LIMCHECK
 70
     0
  9
$BLIPMODE
 70
     0
  9
$CHAMFERA
 40
0.0
  9
$CHAMFERB
 40
0.0
  9
$SKPOLY
 70
     0
  9
$TDCREATE
 40
2457827.4934837957844138
  9
$TDUPDATE
 40
2459510.4837500001303852
  9
$TDINDWG
 40
1.1494348379999999
  9
$TDUSRTIMER
 40
1.1494348379999999
  9
$USRTIMER
 70
     1
  9
$ANGBASE
 50
0.0
  9
$ANGDIR
 70
     0
  9
$PDMODE
 70
     0
  9
$PDSIZE
 40
0.3125
  9
$PLINEWID
 40
0.0
  9
$COORDS
 70
     1
  9
$SPLFRAME
 70
     0
  9
$SPLINETYPE
 70
     6
  9
$SPLINESEGS
 70
     8
  9
$ATTDIA
 70
     1
  9
$ATTREQ
 70
     1
  9
$HANDLING
 70
     1
  9
$HANDSEED
  5
19775
  9
$SURFTAB1
 70
     6
  9
$SURFTAB2
 70
     6
  9
$SURFTYPE
 70
     6
  9
$SURFU
 70
     6
  9
$SURFV
 70
     6
  9
$UCSNAME
  2

  9
$UCSORG
 10
0.0
 20
0.0
 30
0.0
  9
$UCSXDIR
 10
1.0
 20
0.0
 30
0.0
  9
$UCSYDIR
 10
0.0
 20
1.0
 30
0.0
  9
$PUCSNAME
  2

  9
$PUCSORG
 10
0.0
 20
0.0
 30
0.0
  9
$PUCSXDIR
 10
1.0
 20
0.0
 30
0.0
  9
$PUCSYDIR
 10
0.0
 20
1.0
 30
0.0
  9
$USERI1
 70
     0
  9
$USERI2
 70
     0
  9
$USERI3
 70
     0
  9
$USERI4
 70
     0
  9
$USERI5
 70
     0
  9
$USERR1
 40
0.0
  9
$USERR2
 40
0.0
  9
$USERR3
 40
0.0
  9
$USERR4
 40
0.0
  9
$USERR5
 40
0.0
  9
$WORLDVIEW
 70
     1
  9
$SHADEDGE
 70
     3
  9
$SHADEDIF
 70
    70
  9
$TILEMODE
 70
     1
  9
$MAXACTVP
 70
    48
  9
$PLIMCHECK
 70
     0
  9
$PEXTMIN
 10
1.0000000000000000E+20
 20
1.0000000000000000E+20
 30
1.0000000000000000E+20
  9
$PEXTMAX
 10
-1.0000000000000000E+20
 20
-1.0000000000000000E+20
 30
-1.0000000000000000E+20
  9
$PLIMMIN
 10
0.0
 20
0.0
  9
$PLIMMAX
 10
12.0
 20
9.0
  9
$UNITMODE
 70
     0
  9
$VISRETAIN
 70
     1
  9
$PLINEGEN
 70
     0
  9
$PSLTSCALE
 70
     1
  0
ENDSEC
  0
SECTION
  2
TABLES
  0
TABLE
  2
VPORT
 70
     1
  0
VPORT
  2
*ACTIVE
 70
     0
 10
0.0
 20
0.0
 11
1.0
 21
1.0
 12
240.4178673992553001
 22
32.967832409925407
 13
0.0
 23
0.0
 14
1.0
 24
1.0
 15
0.0
 25
0.0
 16
-0.0000000000000284
 26
0.0
 36
157.2215818301446859
 17
210.9789276123046875
 27
7.2024491855605604
 37
0.0
 40
2.6554875814041532
 41
2.2118055555555549
 42
50.0
 43
0.0
 44
0.0
 50
0.0
 51
0.0
 71
     0
 72
   100
 73
     1
 74
     1
 75
     0
 76
     0
 77
     0
 78
     0
  0
ENDTAB
  0
TABLE
  2
LTYPE
 70
     2
  0
LTYPE
  2
CONTINUOUS
 70
     0
  3
Solid line
 72
    65
 73
     0
 40
0.0
  0
LTYPE
  2
PHANTOM2
 70
     0
  3
___ _ _ ___ _ _ ___ _ _ ___ _ _
 72
    65
 73
     6
 40
1.25
 49
0.625
 49
-0.125
 49
0.125
 49
-0.125
 49
0.125
 49
-0.125
  0
ENDTAB
  0
TABLE
  2
LAYER
 70
     2
  0
LAYER
  2
0
 70
     0
 62
     7
  6
CONTINUOUS
  0
LAYER
  2
DEFPOINTS
 70
     0
 62
     7
  6
CONTINUOUS
  0
ENDTAB
  0
TABLE
  2
STYLE
 70
     1
  0
STYLE
  2
STANDARD
 70
     0
 40
0.0
 41
0.8
 50
0.0
 71
     0
 42
0.2
  3
txt
  4

  0
ENDTAB
  0
TABLE
  2
VIEW
 70
     0
  0
ENDTAB
  0
TABLE
  2
UCS
 70
     0
  0
ENDTAB
  0
TABLE
  2
APPID
 70
    10
  0
APPID
  2
ACAD
 70
     0
  0
APPID
  2
ACAD_MLEADERVER
 70
     0
  0
APPID
  2
ACAD_EXEMPT_FROM_CAD_STANDARDS
 70
     0
  0
APPID
  2
ACAD_NAV_VCDISPLAY
 70
     0
  0
APPID
  2
ACADANNOMONITORALERTICONDI
 70
     0
  0
APPID
  2
ACAD_DSTYLE_DIMJAG
 70
     0
  0
APPID
  2
ACAD_DSTYLE_DIMTALN
 70
     0
  0
APPID
  2
ACDBATTR
 70
     0
  0
APPID
  2
DCO15
 70
     0
  0
APPID
  2
ACAD_PSEXT
 70
     0
  0
ENDTAB
  0
TABLE
  2
DIMSTYLE
 70
     1
  0
DIMSTYLE
  2
STANDARD
 70
     0
  3

  4

  5

  6

  7

 40
1.0
 41
0.1875
 42
0.0625
 43
0.38
 44
0.125
 45
0.0
 46
0.0
 47
1.5
 48
1.5
140
1.5
141
0.09
142
0.0
143
25.3999999999999986
144
1.0
145
0.0
146
1.0
147
0.09
 71
     0
 72
     0
 73
     1
 74
     1
 75
     0
 76
     0
 77
     0
 78
     4
170
     0
171
     2
172
     0
173
     0
174
     0
175
     0
176
     0
177
     0
178
     0
  0
ENDTAB
  0
ENDSEC
  0
SECTION
  2
BLOCKS
  0
BLOCK
  8
0
  2
$MODEL_SPACE
 70
     0
 10
0.0
 20
0.0
 30
0.0
  3
$MODEL_SPACE
  1

  0
ENDBLK
  5
21
  8
0
  0
BLOCK
 67
     1
  8
0
  2
$PAPER_SPACE
 70
     0
 10
0.0
 20
0.0
 30
0.0
  3
$PAPER_SPACE
  1

  0
ENDBLK
  5
1D
 67
     1
  8
0
  0
BLOCK
  8
0
  2
_FILLED
 70
     0
 10
0.0
 20
0.0
 30
0.0
  3
_FILLED
  1

  0
SOLID
  5
19599
  8
0
  6
BYBLOCK
 62
     0
 10
0.0
 20
0.0
 30
0.0
 11
-1.0
 21
0.1666666667
 31
0.0
 12
-1.0
 22
-0.1666666667
 32
0.0
 13
-1.0
 23
-0.1666666667
 33
0.0
  0
ENDBLK
  5
1959A
  8
0
  6
BYBLOCK
 62
     0
  0
ENDSEC
  0
SECTION
  2
ENTITIES
  0
ATTDEF
  5
4EF9
  8
DEFPOINTS
 10
451.3900202889116144
 20
39.9265987995724672
 30
0.0
 40
0.001
  1
P31426-00
  3

  2
MODELNUMBER
 70
     0
1001
ACDBATTR
1070
     0
1070
     1
  0
ATTDEF
  5
4EFA
  8
DEFPOINTS
 10
451.3900202889116144
 20
39.9249321329057878
 30
0.0
 40
0.001
  1
CENTRAL PARK WEST
  3

  2
TRADENAME
 70
     0
1001
ACDBATTR
1070
     0
1070
     1
  0
ATTDEF
  5
4EFB
  8
DEFPOINTS
 10
451.3900202889116144
 20
39.9232654662391084
 30
0.0
 40
0.001
  1
ROBE HOOK
  3

  2
PRODUCT
 70
     0
1001
ACDBATTR
1070
     0
1070
     1
  0
ARC
  5
19607
  8
0
 10
451.389931920412721
 20
39.923177050584421
 30
0.0
 40
1.0257716535499961
 50
103.3138886126868954
 51
76.686111387313062
  0
ARC
  5
19608
  8
0
 10
451.389931920412721
 20
39.923177050584421
 30
0.0
 40
0.8607716535499979
 50
285.9279731540959233
 51
74.0720268459040909
  0
ARC
  5
19609
  8
0
 10
451.389931920412721
 20
39.923177050584421
 30
0.0
 40
0.8607716535499979
 50
105.9279731540958949
 51
254.0720268459039914
  0
ARC
  5
1960A
  8
0
 10
451.389931920412721
 20
39.923177050584421
 30
0.0
 40
0.6349999999499955
 50
291.8390613750989928
 51
68.1609386249009361
  0
ARC
  5
1960B
  8
0
 10
451.389931920412721
 20
39.923177050584421
 30
0.0
 40
0.6349999999499955
 50
111.839061375099007
 51
248.1609386249008935
  0
ARC
  5
1960C
  8
0
 10
451.389931920412721
 20
39.923177050584421
 30
0.0
 40
0.4619999999499998
 50
56.4805304895832734
 51
59.2495574569888319
  0
ARC
  5
1960D
  8
0
 10
451.389931920412721
 20
39.923177050584421
 30
0.0
 40
0.4619999999499998
 50
120.7504425430111041
 51
123.5194695047764952
  0
ARC
  5
1960E
  8
0
 10
451.389931920412721
 20
39.923177050584421
 30
0.0
 40
0.4619999999499998
 50
128.4805304895826907
 51
135.5194695047786126
  0
ARC
  5
1960F
  8
0
 10
451.389931920412721
 20
39.923177050584421
 30
0.0
 40
0.4619999999499998
 50
140.4805304895841971
 51
147.5194695047781011
  0
ARC
  5
19610
  8
0
 10
451.389931920412721
 20
39.923177050584421
 30
0.0
 40
0.4619999999499998
 50
152.4805304895839129
 51
159.5194695047775042
  0
ARC
  5
19611
  8
0
 10
451.389931920412721
 20
39.923177050584421
 30
0.0
 40
0.4619999999499998
 50
164.4805304895837992
 51
171.5194695047775895
  0
ARC
  5
19612
  8
0
 10
451.389931920412721
 20
39.923177050584421
 30
0.0
 40
0.4619999999499998
 50
176.4805304895841118
 51
183.5194695047775895
  0
ARC
  5
19613
  8
0
 10
451.389931920412721
 20
39.923177050584421
 30
0.0
 40
0.4619999999499998
 50
188.4805304895837139
 51
195.5194695047783
  0
ARC
  5
19614
  8
0
 10
451.389931920412721
 20
39.923177050584421
 30
0.0
 40
0.4619999999499998
 50
200.4805304895839981
 51
207.5194695047775042
  0
ARC
  5
19615
  8
0
 10
451.389931920412721
 20
39.923177050584421
 30
0.0
 40
0.4619999999499998
 50
212.4805304895826907
 51
219.5194695047769073
  0
ARC
  5
19616
  8
0
 10
451.389931920412721
 20
39.923177050584421
 30
0.0
 40
0.4619999999499998
 50
224.4805304895828897
 51
231.5194695047769073
  0
ARC
  5
19617
  8
0
 10
451.389931920412721
 20
39.923177050584421
 30
0.0
 40
0.4619999999499998
 50
236.4805304895832876
 51
239.2495574569886116
  0
ARC
  5
19618
  8
0
 10
451.389931920412721
 20
39.923177050584421
 30
0.0
 40
0.4619999999499998
 50
300.7504425430111041
 51
303.5194695047765094
  0
ARC
  5
19619
  8
0
 10
451.389931920412721
 20
39.923177050584421
 30
0.0
 40
0.4619999999499998
 50
308.4805304895826907
 51
315.5194695047786126
  0
ARC
  5
1961A
  8
0
 10
451.389931920412721
 20
39.923177050584421
 30
0.0
 40
0.4619999999499998
 50
320.4805304895838844
 51
327.5194695047781011
  0
ARC
  5
1961B
  8
0
 10
451.389931920412721
 20
39.923177050584421
 30
0.0
 40
0.4619999999499998
 50
332.4805304895838844
 51
339.5194695047778737
  0
ARC
  5
1961C
  8
0
 10
451.389931920412721
 20
39.923177050584421
 30
0.0
 40
0.4619999999499998
 50
344.4805304895833729
 51
351.5194695047781011
  0
ARC
  5
1961D
  8
0
 10
451.389931920412721
 20
39.923177050584421
 30
0.0
 40
0.4619999999499998
 50
356.4805304895837139
 51
3.5194695047780469
  0
ARC
  5
1961E
  8
0
 10
451.389931920412721
 20
39.923177050584421
 30
0.0
 40
0.4619999999499998
 50
8.4805304895837388
 51
15.5194695047782592
  0
ARC
  5
1961F
  8
0
 10
451.389931920412721
 20
39.923177050584421
 30
0.0
 40
0.4619999999499998
 50
20.4805304895839697
 51
27.5194695047778204
  0
ARC
  5
19620
  8
0
 10
451.389931920412721
 20
39.923177050584421
 30
0.0
 40
0.4619999999499998
 50
32.4805304895851066
 51
39.519469504779309
  0
ARC
  5
19621
  8
0
 10
451.389931920412721
 20
39.923177050584421
 30
0.0
 40
0.4619999999499998
 50
44.4805304895832165
 51
51.5194695047767084
  0
ARC
  5
19622
  8
0
 10
451.6614887069627002
 20
40.2969429019344005
 30
0.0
 40
0.0199999999999996
 50
145.2402652525296105
 51
322.7597347418296749
  0
ARC
  5
19623
  8
0
 10
451.1183751338995194
 20
40.2969429019611383
 30
0.0
 40
0.0199999999999996
 50
217.2402652525302926
 51
34.7597347418289999
  0
ARC
  5
19624
  8
0
 10
451.0465990110922121
 20
40.2323153907077682
 30
0.0
 40
0.0199999999999995
 50
229.2402652525292126
 51
46.7597347418300515
  0
ARC
  5
19625
  8
0
 10
450.9898281839161882
 20
40.1541770505806923
 30
0.0
 40
0.0199999999999995
 50
241.2402652525312874
 51
58.7597347418295186
  0
ARC
  5
19626
  8
0
 10
450.9505438099358798
 20
40.0659429019927913
 30
0.0
 40
0.0199999999999995
 50
253.2402652525294116
 51
70.7597347418297318
  0
ARC
  5
19627
  8
0
 10
450.9304628048013797
 20
39.9714692006317804
 30
0.0
 40
0.0199999999999995
 50
265.2402652525302074
 51
82.7597347418288791
  0
ARC
  5
19628
  8
0
 10
450.9304628047967185
 20
39.8748849005822592
 30
0.0
 40
0.0199999999999995
 50
277.2402652525307758
 51
94.7597347418288791
  0
ARC
  5
19629
  8
0
 10
450.9505438099217827
 20
39.7804111992192801
 30
0.0
 40
0.0199999999999995
 50
289.240265252530321
 51
106.759734741831096
  0
ARC
  5
1962A
  8
0
 10
450.9898281838935077
 20
39.6921770506274996
 30
0.0
 40
0.0199999999999995
 50
301.2402652525295821
 51
118.7597347418287939
  0
ARC
  5
1962B
  8
0
 10
451.0465990110616872
 20
39.6140387104948317
 30
0.0
 40
0.0199999999999995
 50
313.2402652525314011
 51
130.7597347418299876
  0
ARC
  5
1962C
  8
0
 10
451.1183751338626848
 20
39.5494111992344202
 30
0.0
 40
0.0199999999999995
 50
325.2402652525299231
 51
142.7597347418293054
  0
ARC
  5
1962D
  8
0
 10
451.6614887069259225
 20
39.5494111992076895
 30
0.0
 40
0.0199999999999994
 50
37.2402652525305911
 51
214.7597347418289928
  0
ARC
  5
1962E
  8
0
 10
451.733264829733173
 20
39.6140387104610525
 30
0.0
 40
0.0199999999999994
 50
49.240265252529241
 51
226.7597347418301013
  0
ARC
  5
1962F
  8
0
 10
451.7900356569091969
 20
39.6921770505881284
 30
0.0
 40
0.0199999999999994
 50
61.2402652525313371
 51
238.7597347418293054
  0
ARC
  5
19630
  8
0
 10
451.8293200308895052
 20
39.7804111991760365
 30
0.0
 40
0.0199999999999994
 50
73.2402652525293831
 51
250.7597347418295897
  0
ARC
  5
19631
  8
0
 10
451.8494010360238917
 20
39.8748849005370474
 30
0.0
 40
0.0199999999999994
 50
85.2402652525302642
 51
262.7597347418288791
  0
ARC
  5
19632
  8
0
 10
451.8494010360286097
 20
39.9714692005865686
 30
0.0
 40
0.0199999999999994
 50
97.2402652525308184
 51
274.7597347418288791
  0
ARC
  5
19633
  8
0
 10
451.8293200309034887
 20
40.0659429019495477
 30
0.0
 40
0.0199999999999994
 50
109.2402652525301932
 51
286.759734741831096
  0
ARC
  5
19634
  8
0
 10
451.7900356569318774
 20
40.1541770505413211
 30
0.0
 40
0.0199999999999994
 50
121.2402652525295963
 51
298.7597347418289928
  0
ARC
  5
19635
  8
0
 10
451.7332648297636979
 20
40.232315390673989
 30
0.0
 40
0.0199999999999994
 50
133.2402652525310884
 51
310.759734741830016
  0
LINE
  5
19636
  8
0
 10
451.6261523928625934
 20
39.6147420682029718
 30
0.0
 11
451.6261523928625934
 21
39.0333345602653168
 31
0.0
  0
LINE
  5
19637
  8
0
 10
451.153711447962678
 20
39.6147420682029718
 30
0.0
 11
451.153711447962678
 21
39.0333345602653168
 31
0.0
  0
CIRCLE
  5
19638
  8
0
 10
451.389931920412721
 20
39.923177050584421
 30
0.0
 40
0.3884999999499961
  0
LINE
  5
19639
  8
0
 10
451.6061934770106063
 20
39.0133345308344133
 30
0.0
 11
451.1736703638147219
 21
39.0133345308344133
 31
0.0
  0
ARC
  5
1963A
  8
0
 10
451.6061523210867108
 20
39.0333345602653026
 30
0.0
 40
0.0200000717760243
 50
270.1179026972901056
 51
0.0000000000940426
  0
ARC
  5
1963B
  8
0
 10
451.1737115197386743
 20
39.0333345602653168
 30
0.0
 40
0.0200000717760572
 50
180.0
 51
269.8820973026708998
  0
LINE
  5
1963D
  8
0
 10
451.6219276290627249
 20
39.3833345309344196
 30
0.0
 11
451.6219276290627249
 21
39.0333345309344182
 31
0.0
  0
LINE
  5
1963E
  8
0
 10
451.6037626512626844
 20
39.0333345309344182
 30
0.0
 11
451.6037626512626844
 21
39.3833345309344196
 31
0.0
  0
LINE
  5
1963F
  8
0
 10
451.5837805804625873
 20
39.3833345309344196
 30
0.0
 11
451.5837805804625873
 21
39.0333345309344182
 31
0.0
  0
LINE
  5
19640
  8
0
 10
451.5444470073626917
 20
39.3833345309344196
 30
0.0
 11
451.5444470073626917
 21
39.0333345309344182
 31
0.0
  0
LINE
  5
19641
  8
0
 10
451.512115337462717
 20
39.3833345309344196
 30
0.0
 11
451.512115337462717
 21
39.0333345309344182
 31
0.0
  0
LINE
  5
19642
  8
0
 10
451.4584143010627031
 20
39.3833345309344196
 30
0.0
 11
451.4584143010627031
 21
39.0333345309344182
 31
0.0
  0
LINE
  5
19643
  8
0
 10
451.4193234717627092
 20
39.3833345309344196
 30
0.0
 11
451.4193234717627092
 21
39.0133345308344133
 31
0.0
  0
ARC
  5
19644
  8
0
 10
454.3899715390390952
 20
39.3873573008939175
 30
0.0
 40
2.7680468331001502
 50
177.3917983080663987
 51
180.0832673128969077
  0
ARC
  5
19645
  8
0
 10
448.8596129004862973
 20
39.3873573008939175
 30
0.0
 40
2.7680468331001502
 50
1.8909338641824509
 51
2.6082016919335582
  0
ARC
  5
19646
  8
0
 10
450.8314970305498264
 20
39.3854257234820011
 30
0.0
 40
0.7722684520432801
 50
359.8448510317429054
 51
9.4961140276318154
  0
ARC
  5
19647
  8
0
 10
452.4378582963893791
 20
39.3864161224923421
 30
0.0
 40
0.854083275242591
 50
171.487963140991809
 51
180.2067275857729953
  0
ARC
  5
19648
  8
0
 10
451.0066507912659972
 20
39.3843586279705988
 30
0.0
 40
0.5377971911628486
 50
359.8908947937799212
 51
13.8767369199712505
  0
ARC
  5
19649
  8
0
 10
451.9904112252897903
 20
39.3881960424494721
 30
0.0
 40
0.4783205939602822
 50
164.8330033651992892
 51
180.582347679053612
  0
ARC
  5
1964A
  8
0
 10
451.0330134862518889
 20
39.3864888120080607
 30
0.0
 40
0.4254125089025304
 50
359.5751684655600116
 51
17.3482298711238414
  0
ARC
  5
1964B
  8
0
 10
451.8407563687094921
 20
39.3858107014217325
 30
0.0
 40
0.4214401713758349
 50
162.3862874716866997
 51
180.3366431209232132
  0
LINE
  5
1964C
  8
0
 10
451.157936211762717
 20
39.3833345309344196
 30
0.0
 11
451.157936211762717
 21
39.0333345309344182
 31
0.0
  0
LINE
  5
1964D
  8
0
 10
451.1761011895627007
 20
39.0333345309344182
 30
0.0
 11
451.1761011895627007
 21
39.3833345309344196
 31
0.0
  0
LINE
  5
1964E
  8
0
 10
451.1960832603626841
 20
39.3833345309344196
 30
0.0
 11
451.1960832603626841
 21
39.0333345309344182
 31
0.0
  0
LINE
  5
1964F
  8
0
 10
451.2354168334626934
 20
39.3833345309344196
 30
0.0
 11
451.2354168334626934
 21
39.0333345309344182
 31
0.0
  0
LINE
  5
19650
  8
0
 10
451.2677485033627249
 20
39.3833345309344196
 30
0.0
 11
451.2677485033627249
 21
39.0333345309344182
 31
0.0
  0
LINE
  5
19651
  8
0
 10
451.321449539762682
 20
39.3833345309344196
 30
0.0
 11
451.321449539762682
 21
39.0333345309344182
 31
0.0
  0
LINE
  5
19652
  8
0
 10
451.3605403690626758
 20
39.3833345309344196
 30
0.0
 11
451.3605403690626758
 21
39.0133345308344133
 31
0.0
  0
ARC
  5
19653
  8
0
 10
448.3898923017861762
 20
39.3873573008939175
 30
0.0
 40
2.7680468331001502
 50
359.9167326871029786
 51
2.6082016919335582
  0
ARC
  5
19654
  8
0
 10
453.9202509403390877
 20
39.3873573008939175
 30
0.0
 40
2.7680468331001502
 50
177.3917983080663987
 51
178.1090661358174998
  0
ARC
  5
19655
  8
0
 10
451.9483668102756155
 20
39.3854257234820011
 30
0.0
 40
0.7722684520432801
 50
170.5038859723678115
 51
180.1551489682570093
  0
ARC
  5
19656
  8
0
 10
450.3420055444360059
 20
39.3864161224923421
 30
0.0
 40
0.854083275242591
 50
359.7932724142269194
 51
8.5120368590081679
  0
ARC
  5
19657
  8
0
 10
451.7732130495593879
 20
39.3843586279705988
 30
0.0
 40
0.5377971911628486
 50
166.1232630800286927
 51
180.1091052062201072
  0
ARC
  5
19658
  8
0
 10
450.7894526155355948
 20
39.3881960424494721
 30
0.0
 40
0.4783205939602822
 50
359.4176523209465017
 51
15.1669966348006895
  0
ARC
  5
19659
  8
0
 10
451.7468503545733824
 20
39.3864888120080607
 30
0.0
 40
0.4254125089025304
 50
162.6517701288761089
 51
180.4248315344395905
  0
ARC
  5
1965A
  8
0
 10
450.9391074721157793
 20
39.3858107014217325
 30
0.0
 40
0.4214401713758349
 50
359.6633568790767868
 51
17.6137125283132292
  0
ARC
  5
1965B
  8
0
 10
451.6018685193296278
 20
39.0331651887471907
 30
0.0
 40
0.020059824527184
 50
278.6689013840746725
 51
0.4836885713898955
  0
ARC
  5
1965C
  8
0
 10
451.5834909971759998
 20
39.0332670370885495
 30
0.0
 40
0.0202717664456809
 50
280.4970153740558203
 51
0.1907638224951293
  0
ARC
  5
1965D
  8
0
 10
451.5566966318353934
 20
39.0339947979346391
 30
0.0
 40
0.0270919956029787
 50
310.3063427438659119
 51
358.6034894221693889
  0
ARC
  5
1965E
  8
0
 10
451.5244375091147049
 20
39.0330358761688103
 30
0.0
 40
0.0200117269320923
 50
280.1043005684874174
 51
0.8551132504828109
  0
ARC
  5
1965F
  8
0
 10
451.4389365785717132
 20
39.037629278333732
 30
0.0
 40
0.0733046765768745
 50
340.6449211701328181
 51
356.6412526057442278
  0
ARC
  5
19660
  8
0
 10
451.4313077883417122
 20
39.0318725464867384
 30
0.0
 40
0.027145910012663
 50
316.9291100178996885
 51
3.087245389315834
  0
ARC
  5
19661
  8
0
 10
451.1779953214958141
 20
39.0331651887471907
 30
0.0
 40
0.020059824527184
 50
179.5163114286100949
 51
261.3310986159253275
  0
ARC
  5
19662
  8
0
 10
451.1963728436493284
 20
39.0332670370885495
 30
0.0
 40
0.0202717664456809
 50
179.8092361775044026
 51
259.5029846259441797
  0
ARC
  5
19663
  8
0
 10
451.223167208989878
 20
39.0339947979346391
 30
0.0
 40
0.0270919956029787
 50
181.3965105778306111
 51
229.6936572561340881
  0
ARC
  5
19664
  8
0
 10
451.2554263317106233
 20
39.0330358761688103
 30
0.0
 40
0.0200117269320923
 50
179.1448867495172124
 51
259.8956994315125257
  0
ARC
  5
19665
  8
0
 10
451.3409272622536719
 20
39.037629278333732
 30
0.0
 40
0.0733046765768745
 50
183.3587473942558006
 51
199.3550788298670966
  0
ARC
  5
19666
  8
0
 10
451.348556052483616
 20
39.0318725464867384
 30
0.0
 40
0.027145910012663
 50
176.9127546106842033
 51
223.0708899821001978
  0
LINE
  5
19667
  8
0
 10
451.6261523928625934
 20
40.2316120329658631
 30
0.0
 11
451.6261523928625934
 21
41.4033345309344085
 31
0.0
  0
LINE
  5
19668
  8
0
 10
451.153711447962678
 20
40.2316120329658702
 30
0.0
 11
451.153711447962678
 21
41.4033345309344085
 31
0.0
  0
LINE
  5
19669
  8
0
 10
451.5861523927625854
 20
41.4433345309344077
 30
0.0
 11
451.193711448062686
 21
41.4433345309344077
 31
0.0
  0
ARC
  5
1966A
  8
0
 10
451.5861523927625854
 20
41.4033345309344085
 30
0.0
 40
0.0400000000000045
 50
0.000000000003664
 51
89.9999999999934914
  0
ARC
  5
1966B
  8
0
 10
451.193711448062686
 20
41.4033345309344085
 30
0.0
 40
0.0400000000000045
 50
90.0000000000065086
 51
179.9999999999963052
  0
ARC
  5
1966C
  8
0
 10
451.389931920412721
 20
39.923177050584421
 30
0.0
 40
0.7386426399500011
 50
108.651039438924002
 51
251.3489605610720048
  0
ARC
  5
1966D
  8
0
 10
451.389931920412721
 20
39.923177050584421
 30
0.0
 40
0.7386426399500011
 50
288.6510394389229077
 51
71.3489605610759554
  0
ENDSEC
  0
EOF
