  0
SECTION
  2
HEADER
  9
$ACADVER
  1
AC1009
  9
$INSBASE
 10
448.9488552553589784
 20
29.5428448829060883
 30
0.0
  9
$EXTMIN
 10
435.9230737593089771
 20
28.5170732293561002
 30
0.0
  9
$EXTMAX
 10
461.9746367514089798
 20
30.5686165364560907
 30
0.0
  9
$LIMMIN
 10
0.0
 20
0.0
  9
$LIMMAX
 10
22.0
 20
17.0
  9
$ORTHOMODE
 70
     0
  9
$REGENMODE
 70
     1
  9
$FILLMODE
 70
     1
  9
$QTEXTMODE
 70
     0
  9
$MIRRTEXT
 70
     0
  9
$DRAGMODE
 70
     2
  9
$LTSCALE
 40
1.2099999999999991
  9
$OSMODE
 70
     7
  9
$ATTMODE
 70
     1
  9
$TEXTSIZE
 40
0.2
  9
$TRACEWID
 40
0.05
  9
$TEXTSTYLE
  7
STANDARD
  9
$CLAYER
  8
0
  9
$CELTYPE
  6
BYLAYER
  9
$CECOLOR
 62
   256
  9
$DIMSCALE
 40
1.0
  9
$DIMASZ
 40
0.1875
  9
$DIMEXO
 40
0.0625
  9
$DIMDLI
 40
0.38
  9
$DIMRND
 40
0.0
  9
$DIMDLE
 40
0.0
  9
$DIMEXE
 40
0.125
  9
$DIMTP
 40
1.5
  9
$DIMTM
 40
1.5
  9
$DIMTXT
 40
1.5
  9
$DIMCEN
 40
0.09
  9
$DIMTSZ
 40
0.0
  9
$DIMTOL
 70
     0
  9
$DIMLIM
 70
     0
  9
$DIMTIH
 70
     1
  9
$DIMTOH
 70
     1
  9
$DIMSE1
 70
     0
  9
$DIMSE2
 70
     0
  9
$DIMTAD
 70
     0
  9
$DIMZIN
 70
     4
  9
$DIMBLK
  1

  9
$DIMASO
 70
     1
  9
$DIMSHO
 70
     1
  9
$DIMPOST
  1

  9
$DIMAPOST
  1

  9
$DIMALT
 70
     0
  9
$DIMALTD
 70
     2
  9
$DIMALTF
 40
25.3999999999999986
  9
$DIMLFAC
 40
1.0
  9
$DIMTOFL
 70
     0
  9
$DIMTVP
 40
0.0
  9
$DIMTIX
 70
     0
  9
$DIMSOXD
 70
     0
  9
$DIMSAH
 70
     0
  9
$DIMBLK1
  1

  9
$DIMBLK2
  1

  9
$DIMSTYLE
  2
STANDARD
  9
$DIMCLRD
 70
     0
  9
$DIMCLRE
 70
     0
  9
$DIMCLRT
 70
     0
  9
$DIMTFAC
 40
1.0
  9
$DIMGAP
 40
0.09
  9
$LUNITS
 70
     2
  9
$LUPREC
 70
     4
  9
$SKETCHINC
 40
0.1
  9
$FILLETRAD
 40
0.0
  9
$AUNITS
 70
     0
  9
$AUPREC
 70
     0
  9
$MENU
  1
.
  9
$ELEVATION
 40
0.0
  9
$PELEVATION
 40
0.0
  9
$THICKNESS
 40
0.0
  9
$LIMCHECK
 70
     0
  9
$BLIPMODE
 70
     0
  9
$CHAMFERA
 40
0.0
  9
$CHAMFERB
 40
0.0
  9
$SKPOLY
 70
     0
  9
$TDCREATE
 40
2457827.4934837957844138
  9
$TDUPDATE
 40
2459510.4668402778916061
  9
$TDINDWG
 40
1.1501755787000001
  9
$TDUSRTIMER
 40
1.1501755787000001
  9
$USRTIMER
 70
     1
  9
$ANGBASE
 50
0.0
  9
$ANGDIR
 70
     0
  9
$PDMODE
 70
     0
  9
$PDSIZE
 40
0.3125
  9
$PLINEWID
 40
0.0
  9
$COORDS
 70
     1
  9
$SPLFRAME
 70
     0
  9
$SPLINETYPE
 70
     6
  9
$SPLINESEGS
 70
     8
  9
$ATTDIA
 70
     1
  9
$ATTREQ
 70
     1
  9
$HANDLING
 70
     1
  9
$HANDSEED
  5
198A1
  9
$SURFTAB1
 70
     6
  9
$SURFTAB2
 70
     6
  9
$SURFTYPE
 70
     6
  9
$SURFU
 70
     6
  9
$SURFV
 70
     6
  9
$UCSNAME
  2

  9
$UCSORG
 10
0.0
 20
0.0
 30
0.0
  9
$UCSXDIR
 10
1.0
 20
0.0
 30
0.0
  9
$UCSYDIR
 10
0.0
 20
1.0
 30
0.0
  9
$PUCSNAME
  2

  9
$PUCSORG
 10
0.0
 20
0.0
 30
0.0
  9
$PUCSXDIR
 10
1.0
 20
0.0
 30
0.0
  9
$PUCSYDIR
 10
0.0
 20
1.0
 30
0.0
  9
$USERI1
 70
     0
  9
$USERI2
 70
     0
  9
$USERI3
 70
     0
  9
$USERI4
 70
     0
  9
$USERI5
 70
     0
  9
$USERR1
 40
0.0
  9
$USERR2
 40
0.0
  9
$USERR3
 40
0.0
  9
$USERR4
 40
0.0
  9
$USERR5
 40
0.0
  9
$WORLDVIEW
 70
     1
  9
$SHADEDGE
 70
     3
  9
$SHADEDIF
 70
    70
  9
$TILEMODE
 70
     1
  9
$MAXACTVP
 70
    48
  9
$PLIMCHECK
 70
     0
  9
$PEXTMIN
 10
1.0000000000000000E+20
 20
1.0000000000000000E+20
 30
1.0000000000000000E+20
  9
$PEXTMAX
 10
-1.0000000000000000E+20
 20
-1.0000000000000000E+20
 30
-1.0000000000000000E+20
  9
$PLIMMIN
 10
0.0
 20
0.0
  9
$PLIMMAX
 10
12.0
 20
9.0
  9
$UNITMODE
 70
     0
  9
$VISRETAIN
 70
     1
  9
$PLINEGEN
 70
     0
  9
$PSLTSCALE
 70
     1
  0
ENDSEC
  0
SECTION
  2
TABLES
  0
TABLE
  2
VPORT
 70
     1
  0
VPORT
  2
*ACTIVE
 70
     0
 10
0.0
 20
0.0
 11
1.0
 21
1.0
 12
237.976341706575397
 22
22.3397602842172915
 13
0.0
 23
0.0
 14
1.0
 24
1.0
 15
0.0
 25
0.0
 16
-0.0000000000000284
 26
0.0
 36
157.2215818301446859
 17
210.9789276123046875
 27
7.2024491855605604
 37
0.0
 40
11.8319632219106001
 41
2.2118055555555549
 42
50.0
 43
0.0
 44
0.0
 50
0.0
 51
0.0
 71
     0
 72
   100
 73
     1
 74
     1
 75
     0
 76
     0
 77
     0
 78
     0
  0
ENDTAB
  0
TABLE
  2
LTYPE
 70
     2
  0
LTYPE
  2
CONTINUOUS
 70
     0
  3
Solid line
 72
    65
 73
     0
 40
0.0
  0
LTYPE
  2
PHANTOM2
 70
     0
  3
___ _ _ ___ _ _ ___ _ _ ___ _ _
 72
    65
 73
     6
 40
1.25
 49
0.625
 49
-0.125
 49
0.125
 49
-0.125
 49
0.125
 49
-0.125
  0
ENDTAB
  0
TABLE
  2
LAYER
 70
     2
  0
LAYER
  2
0
 70
     0
 62
     7
  6
CONTINUOUS
  0
LAYER
  2
DEFPOINTS
 70
     0
 62
     7
  6
CONTINUOUS
  0
ENDTAB
  0
TABLE
  2
STYLE
 70
     1
  0
STYLE
  2
STANDARD
 70
     0
 40
0.0
 41
0.8
 50
0.0
 71
     0
 42
0.2
  3
txt
  4

  0
ENDTAB
  0
TABLE
  2
VIEW
 70
     0
  0
ENDTAB
  0
TABLE
  2
UCS
 70
     0
  0
ENDTAB
  0
TABLE
  2
APPID
 70
    10
  0
APPID
  2
ACAD
 70
     0
  0
APPID
  2
ACAD_MLEADERVER
 70
     0
  0
APPID
  2
ACAD_EXEMPT_FROM_CAD_STANDARDS
 70
     0
  0
APPID
  2
ACAD_NAV_VCDISPLAY
 70
     0
  0
APPID
  2
ACADANNOMONITORALERTICONDI
 70
     0
  0
APPID
  2
ACAD_DSTYLE_DIMJAG
 70
     0
  0
APPID
  2
ACAD_DSTYLE_DIMTALN
 70
     0
  0
APPID
  2
ACDBATTR
 70
     0
  0
APPID
  2
DCO15
 70
     0
  0
APPID
  2
ACAD_PSEXT
 70
     0
  0
ENDTAB
  0
TABLE
  2
DIMSTYLE
 70
     1
  0
DIMSTYLE
  2
STANDARD
 70
     0
  3

  4

  5

  6

  7

 40
1.0
 41
0.1875
 42
0.0625
 43
0.38
 44
0.125
 45
0.0
 46
0.0
 47
1.5
 48
1.5
140
1.5
141
0.09
142
0.0
143
25.3999999999999986
144
1.0
145
0.0
146
1.0
147
0.09
 71
     0
 72
     0
 73
     1
 74
     1
 75
     0
 76
     0
 77
     0
 78
     4
170
     0
171
     2
172
     0
173
     0
174
     0
175
     0
176
     0
177
     0
178
     0
  0
ENDTAB
  0
ENDSEC
  0
SECTION
  2
BLOCKS
  0
BLOCK
  8
0
  2
$MODEL_SPACE
 70
     0
 10
0.0
 20
0.0
 30
0.0
  3
$MODEL_SPACE
  1

  0
ENDBLK
  5
21
  8
0
  0
BLOCK
 67
     1
  8
0
  2
$PAPER_SPACE
 70
     0
 10
0.0
 20
0.0
 30
0.0
  3
$PAPER_SPACE
  1

  0
ENDBLK
  5
1D
 67
     1
  8
0
  0
ENDSEC
  0
SECTION
  2
ENTITIES
  0
ATTDEF
  5
4EF9
  8
DEFPOINTS
 10
448.9488587682135972
 20
29.5461983637609187
 30
0.0
 40
0.001
  1
P31425-00
  3

  2
MODELNUMBER
 70
     0
1001
ACDBATTR
1070
     0
1070
     1
  0
ATTDEF
  5
4EFA
  8
DEFPOINTS
 10
448.9488587682135972
 20
29.5445316970942393
 30
0.0
 40
0.001
  1
CENTRAL PARK WEST
  3

  2
TRADENAME
 70
     0
1001
ACDBATTR
1070
     0
1070
     1
  0
ATTDEF
  5
4EFB
  8
DEFPOINTS
 10
448.9488587682135972
 20
29.5428650304275706
 30
0.0
 40
0.001
  1
TOWEL BAR
  3

  2
PRODUCT
 70
     0
1001
ACDBATTR
1070
     0
1070
     1
  0
ARC
  5
19719
  8
0
 10
460.9488650978589135
 20
29.5428448829060883
 30
0.0
 40
1.0257716535499961
 50
193.3138886126860996
 51
166.6861113873139004
  0
ARC
  5
1971A
  8
0
 10
460.9488650978589135
 20
29.5428448829060883
 30
0.0
 40
0.8607716535499979
 50
15.9279731540953708
 51
164.0720268459047873
  0
ARC
  5
1971B
  8
0
 10
460.9488650978589135
 20
29.5428448829060883
 30
0.0
 40
0.8607716535499979
 50
195.9279731540950991
 51
344.0720268459045883
  0
ARC
  5
1971C
  8
0
 10
460.9488650978589135
 20
29.5428448829060883
 30
0.0
 40
0.6349999999499955
 50
21.8390613750978986
 51
158.1609386249020872
  0
ARC
  5
1971D
  8
0
 10
460.9488650978589135
 20
29.5428448829060883
 30
0.0
 40
0.6349999999499955
 50
201.8390613750977138
 51
338.1609386249020872
  0
ARC
  5
1971E
  8
0
 10
460.9488650978589135
 20
29.5428448829060883
 30
0.0
 40
0.4619999999499998
 50
146.4805304895828897
 51
149.2495574569890096
  0
ARC
  5
1971F
  8
0
 10
460.9488650978589135
 20
29.5428448829060883
 30
0.0
 40
0.4619999999499998
 50
210.7504425430109904
 51
213.5194695047769926
  0
ARC
  5
19720
  8
0
 10
460.9488650978589135
 20
29.5428448829060883
 30
0.0
 40
0.4619999999499998
 50
218.4805304895841971
 51
225.5194695047781011
  0
ARC
  5
19721
  8
0
 10
460.9488650978589135
 20
29.5428448829060883
 30
0.0
 40
0.4619999999499998
 50
230.4805304895845097
 51
237.5194695047763958
  0
ARC
  5
19722
  8
0
 10
460.9488650978589135
 20
29.5428448829060883
 30
0.0
 40
0.4619999999499998
 50
242.4805304895845097
 51
249.5194695047779021
  0
ARC
  5
19723
  8
0
 10
460.9488650978589135
 20
29.5428448829060883
 30
0.0
 40
0.4619999999499998
 50
254.4805304895841118
 51
261.51946950477668
  0
ARC
  5
19724
  8
0
 10
460.9488650978589135
 20
29.5428448829060883
 30
0.0
 40
0.4619999999499998
 50
266.480530489582577
 51
273.5194695047788969
  0
ARC
  5
19725
  8
0
 10
460.9488650978589135
 20
29.5428448829060883
 30
0.0
 40
0.4619999999499998
 50
278.480530489582577
 51
285.5194695047778168
  0
ARC
  5
19726
  8
0
 10
460.9488650978589135
 20
29.5428448829060883
 30
0.0
 40
0.4619999999499998
 50
290.4805304895830886
 51
297.5194695047782147
  0
ARC
  5
19727
  8
0
 10
460.9488650978589135
 20
29.5428448829060883
 30
0.0
 40
0.4619999999499998
 50
302.4805304895834865
 51
309.5194695047783853
  0
ARC
  5
19728
  8
0
 10
460.9488650978589135
 20
29.5428448829060883
 30
0.0
 40
0.4619999999499998
 50
314.4805304895838844
 51
321.5194695047779874
  0
ARC
  5
19729
  8
0
 10
460.9488650978589135
 20
29.5428448829060883
 30
0.0
 40
0.4619999999499998
 50
326.4805304895829181
 51
329.2495574569887253
  0
ARC
  5
1972A
  8
0
 10
460.9488650978589135
 20
29.5428448829060883
 30
0.0
 40
0.4619999999499998
 50
30.7504425430109585
 51
33.5194695047787619
  0
ARC
  5
1972B
  8
0
 10
460.9488650978589135
 20
29.5428448829060883
 30
0.0
 40
0.4619999999499998
 50
38.4805304895839981
 51
45.5194695047781792
  0
ARC
  5
1972C
  8
0
 10
460.9488650978589135
 20
29.5428448829060883
 30
0.0
 40
0.4619999999499998
 50
50.4805304895844031
 51
57.5194695047764526
  0
ARC
  5
1972D
  8
0
 10
460.9488650978589135
 20
29.5428448829060883
 30
0.0
 40
0.4619999999499998
 50
62.4805304895844529
 51
69.5194695047779021
  0
ARC
  5
1972E
  8
0
 10
460.9488650978589135
 20
29.5428448829060883
 30
0.0
 40
0.4619999999499998
 50
74.480530489584126
 51
81.5194695047766942
  0
ARC
  5
1972F
  8
0
 10
460.9488650978589135
 20
29.5428448829060883
 30
0.0
 40
0.4619999999499998
 50
86.4805304895825486
 51
93.5194695047789253
  0
ARC
  5
19730
  8
0
 10
460.9488650978589135
 20
29.5428448829060883
 30
0.0
 40
0.4619999999499998
 50
98.4805304895826623
 51
105.5194695047778026
  0
ARC
  5
19731
  8
0
 10
460.9488650978589135
 20
29.5428448829060883
 30
0.0
 40
0.4619999999499998
 50
110.4805304895831028
 51
117.5194695047782005
  0
ARC
  5
19732
  8
0
 10
460.9488650978589135
 20
29.5428448829060883
 30
0.0
 40
0.4619999999499998
 50
122.4805304895836002
 51
129.5194695047786126
  0
ARC
  5
19733
  8
0
 10
460.9488650978589135
 20
29.5428448829060883
 30
0.0
 40
0.4619999999499998
 50
134.4805304895839129
 51
141.5194695047779874
  0
ARC
  5
19734
  8
0
 10
460.5750992465090121
 20
29.8144016694560889
 30
0.0
 40
0.0199999999999996
 50
235.2402652525308895
 51
52.7597347418291989
  0
ARC
  5
19735
  8
0
 10
460.575099246482182
 20
29.271288096392869
 30
0.0
 40
0.0199999999999996
 50
307.24026525252998
 51
124.7597347418308971
  0
ARC
  5
19736
  8
0
 10
460.6397267577356729
 20
29.1995119735855297
 30
0.0
 40
0.0199999999999995
 50
319.2402652525295821
 51
136.7597347418310108
  0
ARC
  5
19737
  8
0
 10
460.7178650978627275
 20
29.1427411464095911
 30
0.0
 40
0.0199999999999995
 50
331.2402652525303779
 51
148.7597347418293907
  0
ARC
  5
19738
  8
0
 10
460.8060992464505716
 20
29.1034567724292685
 30
0.0
 40
0.0199999999999995
 50
343.2402652525296958
 51
160.7597347418297034
  0
ARC
  5
19739
  8
0
 10
460.9005729478116109
 20
29.0833757672948785
 30
0.0
 40
0.0199999999999995
 50
355.2402652525303779
 51
172.7597347418297034
  0
ARC
  5
1973A
  8
0
 10
460.9971572478610824
 20
29.0833757672901214
 30
0.0
 40
0.0199999999999995
 50
7.240265252530051
 51
184.7597347418299023
  0
ARC
  5
1973B
  8
0
 10
461.0916309492242249
 20
29.1034567724152211
 30
0.0
 40
0.0199999999999995
 50
19.2402652525300795
 51
196.7597347418295897
  0
ARC
  5
1973C
  8
0
 10
461.1798650978158776
 20
29.1427411463868502
 30
0.0
 40
0.0199999999999995
 50
31.2402652525294613
 51
208.7597347418297034
  0
ARC
  5
1973D
  8
0
 10
461.2580034379486165
 20
29.1995119735551114
 30
0.0
 40
0.0199999999999995
 50
43.2402652525297881
 51
220.7597347418295897
  0
ARC
  5
1973E
  8
0
 10
461.3226309492089854
 20
29.2712880963560913
 30
0.0
 40
0.0199999999999995
 50
55.2402652525310387
 51
232.7597347418289928
  0
ARC
  5
1973F
  8
0
 10
461.3226309492358155
 20
29.8144016694193112
 30
0.0
 40
0.0199999999999994
 50
127.2402652525300937
 51
304.7597347418309255
  0
ARC
  5
19740
  8
0
 10
461.2580034379823246
 20
29.8861777922266612
 30
0.0
 40
0.0199999999999994
 50
139.2402652525296105
 51
316.7597347418288223
  0
ARC
  5
19741
  8
0
 10
461.1798650978553269
 20
29.9429486194026104
 30
0.0
 40
0.0199999999999994
 50
151.2402652525304916
 51
328.7597347418289928
  0
ARC
  5
19742
  8
0
 10
461.0916309492674259
 20
29.9822329933829188
 30
0.0
 40
0.0199999999999994
 50
163.2402652525298947
 51
340.7597347418296749
  0
ARC
  5
19743
  8
0
 10
460.9971572479062729
 20
30.0023139985173088
 30
0.0
 40
0.0199999999999994
 50
175.2402652525304063
 51
352.7597347418296749
  0
ARC
  5
19744
  8
0
 10
460.9005729478568014
 20
30.0023139985220588
 30
0.0
 40
0.0199999999999994
 50
187.2402652525300084
 51
4.7597347418299636
  0
ARC
  5
19745
  8
0
 10
460.8060992464937726
 20
29.9822329933969591
 30
0.0
 40
0.0199999999999994
 50
199.2402652525300084
 51
16.7597347418297886
  0
ARC
  5
19746
  8
0
 10
460.7178650979021199
 20
29.94294861942533
 30
0.0
 40
0.0199999999999994
 50
211.2402652525294968
 51
28.7597347418299307
  0
ARC
  5
19747
  8
0
 10
460.639726757769381
 20
29.8861777922570688
 30
0.0
 40
0.0199999999999994
 50
223.2402652525296105
 51
40.7597347418297176
  0
LINE
  5
19748
  8
0
 10
436.0590029225398894
 20
29.7790653553560887
 30
0.0
 11
436.640410430477516
 21
29.7790653553560887
 31
0.0
  0
LINE
  5
19749
  8
0
 10
437.2572803952404001
 20
29.7790653553560887
 30
0.0
 11
460.6404301154774998
 21
29.7790653553560887
 31
0.0
  0
LINE
  5
1974A
  8
0
 10
461.2573000802404977
 20
29.7790653553560887
 30
0.0
 11
461.8387075881781243
 21
29.7790653553560887
 31
0.0
  0
LINE
  5
1974B
  8
0
 10
436.0590029225398894
 20
29.3066244104560916
 30
0.0
 11
436.640410430477516
 21
29.3066244104560916
 31
0.0
  0
LINE
  5
1974C
  8
0
 10
437.2572803952404001
 20
29.3066244104560916
 30
0.0
 11
460.6404301154774998
 21
29.3066244104560916
 31
0.0
  0
LINE
  5
1974D
  8
0
 10
461.2573000802404977
 20
29.3066244104560916
 30
0.0
 11
461.8387075881781243
 21
29.3066244104560916
 31
0.0
  0
CIRCLE
  5
1974E
  8
0
 10
460.9488650978589135
 20
29.5428448829060883
 30
0.0
 40
0.3884999999499961
  0
LINE
  5
1974F
  8
0
 10
461.8587076176090136
 20
29.7591064395040199
 30
0.0
 11
461.8587076176090136
 21
29.326583326308171
 31
0.0
  0
ARC
  5
19750
  8
0
 10
461.8387075881781243
 20
29.7590652835800604
 30
0.0
 40
0.0200000717760572
 50
0.1179026973277051
 51
89.999915686947304
  0
LINE
  5
19751
  8
0
 10
461.8387076176089749
 20
29.7728734744561017
 30
0.0
 11
461.4887076176088954
 21
29.7728734744561017
 31
0.0
  0
LINE
  5
19752
  8
0
 10
461.8387076176089749
 20
29.7605238754560908
 30
0.0
 11
461.4887076176088954
 21
29.7605238754560908
 31
0.0
  0
LINE
  5
19753
  8
0
 10
461.8387076176089749
 20
29.7311323241560892
 30
0.0
 11
461.4887076176088954
 21
29.7311323241560892
 31
0.0
  0
LINE
  5
19754
  8
0
 10
461.8387076176089749
 20
29.7043910937561009
 30
0.0
 11
461.4887076176088954
 21
29.7043910937561009
 31
0.0
  0
LINE
  5
19755
  8
0
 10
461.8387076176089749
 20
29.6568345647560889
 30
0.0
 11
461.4887076176088954
 21
29.6568345647560889
 31
0.0
  0
LINE
  5
19756
  8
0
 10
461.8387076176089749
 20
29.6203255045560887
 30
0.0
 11
461.4887076176088954
 21
29.6203255045560887
 31
0.0
  0
LINE
  5
19757
  8
0
 10
461.8387076176089749
 20
29.5628269537560904
 30
0.0
 11
461.4887076176088954
 21
29.5628269537560904
 31
0.0
  0
ARC
  5
19758
  8
0
 10
461.4863326283399942
 20
28.3869592998315383
 30
0.0
 40
1.385916209588191
 50
89.9018144624043885
 51
95.2768110082563311
  0
ARC
  5
19759
  8
0
 10
461.4860924642609916
 20
31.0124184001791008
 30
0.0
 40
1.251897256190966
 50
264.1674704472397934
 51
270.1196882234975192
  0
ARC
  5
1975A
  8
0
 10
461.4845590376805262
 20
29.2165069020918011
 30
0.0
 40
0.5146421433873076
 50
89.5381281958734832
 51
104.0252511112344962
  0
ARC
  5
1975B
  8
0
 10
461.4852305237612882
 20
30.3982475458882284
 30
0.0
 40
0.6938651643849952
 50
259.5883466454569088
 51
270.2871215424747788
  0
ARC
  5
1975C
  8
0
 10
461.4857830575783737
 20
29.2133978864134392
 30
0.0
 40
0.4434463222882105
 50
89.6221275203153169
 51
106.6528452867101038
  0
ARC
  5
1975D
  8
0
 10
461.4878976374275226
 20
30.0949785772439107
 30
0.0
 40
0.4746537637898582
 50
254.2056335419779032
 51
270.0977733075238234
  0
ARC
  5
1975E
  8
0
 10
461.4852063341925827
 20
29.1526306747886288
 30
0.0
 40
0.4102112215241222
 50
89.5109563366969638
 51
107.9618323753570053
  0
ARC
  5
1975F
  8
0
 10
461.8387075881781243
 20
29.3266244822321411
 30
0.0
 40
0.0200000717760572
 50
270.0
 51
359.8820973026723209
  0
LINE
  5
19760
  8
0
 10
461.8387076176089749
 20
29.3128162913560892
 30
0.0
 11
461.4887076176088954
 21
29.3128162913560892
 31
0.0
  0
LINE
  5
19761
  8
0
 10
461.8387076176089749
 20
29.3251658903560894
 30
0.0
 11
461.4887076176088954
 21
29.3251658903560894
 31
0.0
  0
LINE
  5
19762
  8
0
 10
461.8387076176089749
 20
29.354557441656091
 30
0.0
 11
461.4887076176088954
 21
29.354557441656091
 31
0.0
  0
LINE
  5
19763
  8
0
 10
461.8387076176089749
 20
29.3812986720561007
 30
0.0
 11
461.4887076176088954
 21
29.3812986720561007
 31
0.0
  0
LINE
  5
19764
  8
0
 10
461.8387076176089749
 20
29.4288552010560984
 30
0.0
 11
461.4887076176088954
 21
29.4288552010560984
 31
0.0
  0
LINE
  5
19765
  8
0
 10
461.8387076176089749
 20
29.4653642612560915
 30
0.0
 11
461.4887076176088954
 21
29.4653642612560915
 31
0.0
  0
LINE
  5
19766
  8
0
 10
461.8387076176089749
 20
29.5228628120560899
 30
0.0
 11
461.4887076176088954
 21
29.5228628120560899
 31
0.0
  0
ARC
  5
19767
  8
0
 10
461.4863326283399942
 20
30.698730465980649
 30
0.0
 40
1.385916209588191
 50
264.7231889917437115
 51
270.0981855375956115
  0
ARC
  5
19768
  8
0
 10
461.4860924642609916
 20
28.0732713656330901
 30
0.0
 40
1.251897256190966
 50
89.880311776502495
 51
95.8325295527601924
  0
ARC
  5
19769
  8
0
 10
461.4845590376805262
 20
29.8691828637204004
 30
0.0
 40
0.5146421433873076
 50
255.9747488887655038
 51
270.4618718041264742
  0
ARC
  5
1976A
  8
0
 10
461.4852305237612882
 20
28.6874422199239589
 30
0.0
 40
0.6938651643849952
 50
89.7128784575251785
 51
100.4116533545431054
  0
ARC
  5
1976B
  8
0
 10
461.4857830575783737
 20
29.8722918793987517
 30
0.0
 40
0.4434463222882105
 50
253.3471547132899104
 51
270.3778724796846973
  0
ARC
  5
1976C
  8
0
 10
461.4878976374275226
 20
28.9907111885682802
 30
0.0
 40
0.4746537637898582
 50
89.9022266924761624
 51
105.7943664580221963
  0
ARC
  5
1976D
  8
0
 10
461.4852063341925827
 20
29.9330590910235514
 30
0.0
 40
0.4102112215241222
 50
252.0381676246429947
 51
270.4890436633029935
  0
ARC
  5
1976E
  8
0
 10
461.8387320760103876
 20
29.7528765630273995
 30
0.0
 40
0.0199969263863354
 50
2.6500080195492739
 51
90.0700789457697653
  0
ARC
  5
1976F
  8
0
 10
461.8387015119047874
 20
29.7387061000164792
 30
0.0
 40
0.0218177762939576
 50
23.5138649571319505
 51
89.9839657772570831
  0
ARC
  5
19770
  8
0
 10
461.838686826280707
 20
29.7100698585557197
 30
0.0
 40
0.021062475862213
 50
18.0949499691792894
 51
89.9434418078756011
  0
ARC
  5
19771
  8
0
 10
461.8366742044551074
 20
29.6640914655603005
 30
0.0
 40
0.0403508959228082
 50
56.9038818816659173
 51
87.1114554887998764
  0
ARC
  5
19772
  8
0
 10
461.8388021165832811
 20
29.6316476787683385
 30
0.0
 40
0.0251870632630393
 50
37.7858318714452182
 51
90.2149677017575584
  0
ARC
  5
19773
  8
0
 10
461.8311058760324954
 20
29.4488141982647988
 30
0.0
 40
0.1716796862204176
 50
80.7481374370814962
 51
87.4621915565066956
  0
ARC
  5
19774
  8
0
 10
461.8388440625474232
 20
29.5122559592410489
 30
0.0
 40
0.0505711785848592
 50
66.8721542286720307
 51
90.1545886176341327
  0
ARC
  5
19775
  8
0
 10
461.8387320760103876
 20
29.3328132027847914
 30
0.0
 40
0.0199969263863354
 50
269.9299210542301921
 51
357.3499919804507954
  0
ARC
  5
19776
  8
0
 10
461.8387015119047874
 20
29.3469836657957117
 30
0.0
 40
0.0218177762939576
 50
270.0160342227428032
 51
336.4861350428678861
  0
ARC
  5
19777
  8
0
 10
461.838686826280707
 20
29.3756199072564712
 30
0.0
 40
0.021062475862213
 50
270.0565581921243847
 51
341.9050500308208029
  0
ARC
  5
19778
  8
0
 10
461.8366742044551074
 20
29.4215983002518904
 30
0.0
 40
0.0403508959228082
 50
272.888544511200223
 51
303.0961181183340045
  0
ARC
  5
19779
  8
0
 10
461.8388021165832811
 20
29.4540420870438489
 30
0.0
 40
0.0251870632630393
 50
269.7850322982425268
 51
322.2141681285547747
  0
ARC
  5
1977A
  8
0
 10
461.8311058760324954
 20
29.6368755675473814
 30
0.0
 40
0.1716796862204176
 50
272.5378084434933044
 51
279.2518625629185181
  0
ARC
  5
1977B
  8
0
 10
461.8388440625474232
 20
29.5734338065711384
 30
0.0
 40
0.0505711785848592
 50
269.84541138236591
 51
293.127845771327884
  0
ARC
  5
1977C
  8
0
 10
436.9488454128589865
 20
29.5428448829060883
 30
0.0
 40
1.0257716535499961
 50
13.3138886126860694
 51
346.686111387313872
  0
ARC
  5
1977D
  8
0
 10
436.9488454128589865
 20
29.5428448829060883
 30
0.0
 40
0.8607716535499979
 50
195.9279731540950991
 51
344.0720268459045883
  0
ARC
  5
1977E
  8
0
 10
436.9488454128589865
 20
29.5428448829060883
 30
0.0
 40
0.8607716535499979
 50
15.9279731540951808
 51
164.0720268459047873
  0
ARC
  5
1977F
  8
0
 10
436.9488454128589865
 20
29.5428448829060883
 30
0.0
 40
0.6349999999499955
 50
201.8390613750977138
 51
338.1609386249020872
  0
ARC
  5
19780
  8
0
 10
436.9488454128589865
 20
29.5428448829060883
 30
0.0
 40
0.6349999999499955
 50
21.8390613750978986
 51
158.1609386249020872
  0
ARC
  5
19781
  8
0
 10
436.9488454128589865
 20
29.5428448829060883
 30
0.0
 40
0.4619999999499998
 50
30.7504425430109585
 51
33.5194695104171174
  0
ARC
  5
19782
  8
0
 10
436.9488454128589865
 20
29.5428448829060883
 30
0.0
 40
0.4619999999499998
 50
326.4805304952212168
 51
329.2495574569887253
  0
ARC
  5
19783
  8
0
 10
436.9488454128589865
 20
29.5428448829060883
 30
0.0
 40
0.4619999999499998
 50
314.4805304952217284
 51
321.5194695104160019
  0
ARC
  5
19784
  8
0
 10
436.9488454128589865
 20
29.5428448829060883
 30
0.0
 40
0.4619999999499998
 50
302.4805304952208189
 51
309.519469510415604
  0
ARC
  5
19785
  8
0
 10
436.9488454128589865
 20
29.5428448829060883
 30
0.0
 40
0.4619999999499998
 50
290.4805304952221263
 51
297.519469510415604
  0
ARC
  5
19786
  8
0
 10
436.9488454128589865
 20
29.5428448829060883
 30
0.0
 40
0.4619999999499998
 50
278.48053049522332
 51
285.5194695104158882
  0
ARC
  5
19787
  8
0
 10
436.9488454128589865
 20
29.5428448829060883
 30
0.0
 40
0.4619999999499998
 50
266.4805304952211031
 51
273.519469510417423
  0
ARC
  5
19788
  8
0
 10
436.9488454128589865
 20
29.5428448829060883
 30
0.0
 40
0.4619999999499998
 50
254.4805304952222116
 51
261.5194695104173093
  0
ARC
  5
19789
  8
0
 10
436.9488454128589865
 20
29.5428448829060883
 30
0.0
 40
0.4619999999499998
 50
242.4805304952218137
 51
249.5194695104169114
  0
ARC
  5
1978A
  8
0
 10
436.9488454128589865
 20
29.5428448829060883
 30
0.0
 40
0.4619999999499998
 50
230.480530495221501
 51
237.5194695104163998
  0
ARC
  5
1978B
  8
0
 10
436.9488454128589865
 20
29.5428448829060883
 30
0.0
 40
0.4619999999499998
 50
218.4805304952218137
 51
225.5194695104158882
  0
ARC
  5
1978C
  8
0
 10
436.9488454128589865
 20
29.5428448829060883
 30
0.0
 40
0.4619999999499998
 50
210.7504425430109904
 51
213.5194695104169966
  0
ARC
  5
1978D
  8
0
 10
436.9488454128589865
 20
29.5428448829060883
 30
0.0
 40
0.4619999999499998
 50
146.4805304952211884
 51
149.2495574569890096
  0
ARC
  5
1978E
  8
0
 10
436.9488454128589865
 20
29.5428448829060883
 30
0.0
 40
0.4619999999499998
 50
134.4805304952218137
 51
141.5194695104158029
  0
ARC
  5
1978F
  8
0
 10
436.9488454128589865
 20
29.5428448829060883
 30
0.0
 40
0.4619999999499998
 50
122.4805304952208047
 51
129.519469510415604
  0
ARC
  5
19790
  8
0
 10
436.9488454128589865
 20
29.5428448829060883
 30
0.0
 40
0.4619999999499998
 50
110.4805304952220979
 51
117.519469510415604
  0
ARC
  5
19791
  8
0
 10
436.9488454128589865
 20
29.5428448829060883
 30
0.0
 40
0.4619999999499998
 50
98.4805304952232632
 51
105.5194695104159024
  0
ARC
  5
19792
  8
0
 10
436.9488454128589865
 20
29.5428448829060883
 30
0.0
 40
0.4619999999499998
 50
86.4805304952210747
 51
93.5194695104174656
  0
ARC
  5
19793
  8
0
 10
436.9488454128589865
 20
29.5428448829060883
 30
0.0
 40
0.4619999999499998
 50
74.4805304952221832
 51
81.5194695104173377
  0
ARC
  5
19794
  8
0
 10
436.9488454128589865
 20
29.5428448829060883
 30
0.0
 40
0.4619999999499998
 50
62.4805304952217995
 51
69.5194695104168687
  0
ARC
  5
19795
  8
0
 10
436.9488454128589865
 20
29.5428448829060883
 30
0.0
 40
0.4619999999499998
 50
50.4805304952214087
 51
57.51946951041635
  0
ARC
  5
19796
  8
0
 10
436.9488454128589865
 20
29.5428448829060883
 30
0.0
 40
0.4619999999499998
 50
38.4805304952219274
 51
45.5194695104160587
  0
ARC
  5
19797
  8
0
 10
437.3226112642090015
 20
29.8144016694560889
 30
0.0
 40
0.0199999999999996
 50
127.2402652581708935
 51
304.7597347474689968
  0
ARC
  5
19798
  8
0
 10
437.322611264235718
 20
29.271288096392869
 30
0.0
 40
0.0199999999999996
 50
55.2402652581690674
 51
232.7597347474699916
  0
ARC
  5
19799
  8
0
 10
437.2579837529823976
 20
29.1995119735855297
 30
0.0
 40
0.0199999999999995
 50
43.24026525816884
 51
220.7597347474701905
  0
ARC
  5
1979A
  8
0
 10
437.1798454128551725
 20
29.1427411464095911
 30
0.0
 40
0.0199999999999995
 50
31.2402652581708011
 51
208.7597347474693947
  0
ARC
  5
1979B
  8
0
 10
437.0916112642673852
 20
29.1034567724292685
 30
0.0
 40
0.0199999999999995
 50
19.2402652581702895
 51
196.7597347474691105
  0
ARC
  5
1979C
  8
0
 10
436.9971375629064028
 20
29.0833757672948785
 30
0.0
 40
0.0199999999999995
 50
7.2402652581700577
 51
184.7597347474695937
  0
ARC
  5
1979D
  8
0
 10
436.9005532628568744
 20
29.0833757672901214
 30
0.0
 40
0.0199999999999995
 50
355.2402652581698135
 51
172.7597347474699063
  0
ARC
  5
1979E
  8
0
 10
436.8060795614939025
 20
29.1034567724152211
 30
0.0
 40
0.0199999999999995
 50
343.2402652581702114
 51
160.7597347474699063
  0
ARC
  5
1979F
  8
0
 10
436.7178454129020793
 20
29.1427411463868502
 30
0.0
 40
0.0199999999999995
 50
331.240265258169984
 51
148.7597347474705032
  0
ARC
  5
197A0
  8
0
 10
436.6397070727693972
 20
29.1995119735551114
 30
0.0
 40
0.0199999999999995
 50
319.2402652581703251
 51
136.7597347474701905
  0
ARC
  5
197A1
  8
0
 10
436.5750795615090283
 20
29.2712880963560913
 30
0.0
 40
0.0199999999999995
 50
307.2402652581708935
 51
124.7597347474688974
  0
ARC
  5
197A2
  8
0
 10
436.5750795614823119
 20
29.8144016694193112
 30
0.0
 40
0.0199999999999994
 50
235.2402652581691029
 51
52.7597347474698708
  0
ARC
  5
197A3
  8
0
 10
436.6397070727355754
 20
29.8861777922266612
 30
0.0
 40
0.0199999999999994
 50
223.2402652581689892
 51
40.7597347474703611
  0
ARC
  5
197A4
  8
0
 10
436.7178454128626868
 20
29.9429486194026104
 30
0.0
 40
0.0199999999999994
 50
211.2402652581706093
 51
28.7597347474695297
  0
ARC
  5
197A5
  8
0
 10
436.8060795614505878
 20
29.9822329933829188
 30
0.0
 40
0.0199999999999994
 50
199.2402652581702966
 51
16.7597347474701088
  0
ARC
  5
197A6
  8
0
 10
436.9005532628116271
 20
30.0023139985173088
 30
0.0
 40
0.0199999999999994
 50
187.2402652581700124
 51
4.7597347474695981
  0
ARC
  5
197A7
  8
0
 10
436.9971375628610986
 20
30.0023139985220588
 30
0.0
 40
0.0199999999999994
 50
175.2402652581700124
 51
352.75973474747002
  0
ARC
  5
197A8
  8
0
 10
437.0916112642241274
 20
29.9822329933969591
 30
0.0
 40
0.0199999999999994
 50
163.2402652581702114
 51
340.759734747469679
  0
ARC
  5
197A9
  8
0
 10
437.1798454128160074
 20
29.94294861942533
 30
0.0
 40
0.0199999999999994
 50
151.2402652581700977
 51
328.7597347474704748
  0
ARC
  5
197AA
  8
0
 10
437.2579837529485189
 20
29.8861777922570688
 30
0.0
 40
0.0199999999999994
 50
139.2402652581704103
 51
316.7597347474701905
  0
CIRCLE
  5
197AB
  8
0
 10
436.9488454128589865
 20
29.5428448829060883
 30
0.0
 40
0.3884999999499961
  0
LINE
  5
197AC
  8
0
 10
436.0390028931090001
 20
29.7591064395040199
 30
0.0
 11
436.0390028931090001
 21
29.326583326308171
 31
0.0
  0
ARC
  5
197AD
  8
0
 10
436.0590029225398894
 20
29.7590652835800604
 30
0.0
 40
0.0200000717760572
 50
90.0000843130527244
 51
179.8820973026722925
  0
LINE
  5
197AE
  8
0
 10
436.0590028931089819
 20
29.7728734744561017
 30
0.0
 11
436.4090028931090046
 21
29.7728734744561017
 31
0.0
  0
LINE
  5
197AF
  8
0
 10
436.0590028931089819
 20
29.7605238754560908
 30
0.0
 11
436.4090028931090046
 21
29.7605238754560908
 31
0.0
  0
LINE
  5
197B0
  8
0
 10
436.0590028931089819
 20
29.7311323241560892
 30
0.0
 11
436.4090028931090046
 21
29.7311323241560892
 31
0.0
  0
LINE
  5
197B1
  8
0
 10
436.0590028931089819
 20
29.7043910937561009
 30
0.0
 11
436.4090028931090046
 21
29.7043910937561009
 31
0.0
  0
LINE
  5
197B2
  8
0
 10
436.0590028931089819
 20
29.6568345647560889
 30
0.0
 11
436.4090028931090046
 21
29.6568345647560889
 31
0.0
  0
LINE
  5
197B3
  8
0
 10
436.0590028931089819
 20
29.6203255045560887
 30
0.0
 11
436.4090028931090046
 21
29.6203255045560887
 31
0.0
  0
LINE
  5
197B4
  8
0
 10
436.0590028931089819
 20
29.5628269537560904
 30
0.0
 11
436.4090028931090046
 21
29.5628269537560904
 31
0.0
  0
ARC
  5
197B5
  8
0
 10
436.4113778823779057
 20
28.3869592998315383
 30
0.0
 40
1.385916209588191
 50
84.7231889917469232
 51
90.0981855375956258
  0
ARC
  5
197B6
  8
0
 10
436.411618046457022
 20
31.0124184001791008
 30
0.0
 40
1.251897256190966
 50
269.8803117765024808
 51
275.8325295527602066
  0
ARC
  5
197B7
  8
0
 10
436.4131514730373738
 20
29.2165069020918011
 30
0.0
 40
0.5146421433873076
 50
75.9747488887654896
 51
90.4618718041265311
  0
ARC
  5
197B8
  8
0
 10
436.4124799869566118
 20
30.3982475458882284
 30
0.0
 40
0.6938651643849952
 50
269.7128784575252212
 51
280.4116533545430912
  0
ARC
  5
197B9
  8
0
 10
436.4119274531395263
 20
29.2133978864134392
 30
0.0
 40
0.4434463222882105
 50
73.3471547132899246
 51
90.3778724796847257
  0
ARC
  5
197BA
  8
0
 10
436.4098128732904911
 20
30.0949785772439107
 30
0.0
 40
0.4746537637898582
 50
269.9022266924761766
 51
285.7943664580221252
  0
ARC
  5
197BB
  8
0
 10
436.4125041765253741
 20
29.1526306747886288
 30
0.0
 40
0.4102112215241222
 50
72.0381676246430089
 51
90.4890436633030362
  0
ARC
  5
197BC
  8
0
 10
436.0590029225398894
 20
29.3266244822321411
 30
0.0
 40
0.0200000717760572
 50
180.1179026973275086
 51
270.0
  0
LINE
  5
197BD
  8
0
 10
436.0590028931089819
 20
29.3128162913560892
 30
0.0
 11
436.4090028931090046
 21
29.3128162913560892
 31
0.0
  0
LINE
  5
197BE
  8
0
 10
436.0590028931089819
 20
29.3251658903560894
 30
0.0
 11
436.4090028931090046
 21
29.3251658903560894
 31
0.0
  0
LINE
  5
197BF
  8
0
 10
436.0590028931089819
 20
29.354557441656091
 30
0.0
 11
436.4090028931090046
 21
29.354557441656091
 31
0.0
  0
LINE
  5
197C0
  8
0
 10
436.0590028931089819
 20
29.3812986720561007
 30
0.0
 11
436.4090028931090046
 21
29.3812986720561007
 31
0.0
  0
LINE
  5
197C1
  8
0
 10
436.0590028931089819
 20
29.4288552010560984
 30
0.0
 11
436.4090028931090046
 21
29.4288552010560984
 31
0.0
  0
LINE
  5
197C2
  8
0
 10
436.0590028931089819
 20
29.4653642612560915
 30
0.0
 11
436.4090028931090046
 21
29.4653642612560915
 31
0.0
  0
LINE
  5
197C3
  8
0
 10
436.0590028931089819
 20
29.5228628120560899
 30
0.0
 11
436.4090028931090046
 21
29.5228628120560899
 31
0.0
  0
ARC
  5
197C4
  8
0
 10
436.4113778823779057
 20
30.698730465980649
 30
0.0
 40
1.385916209588191
 50
269.9018144624042748
 51
275.2768110082531052
  0
ARC
  5
197C5
  8
0
 10
436.411618046457022
 20
28.0732713656330901
 30
0.0
 40
1.251897256190966
 50
84.1674704472398076
 51
90.119688223497505
  0
ARC
  5
197C6
  8
0
 10
436.4131514730373738
 20
29.8691828637204004
 30
0.0
 40
0.5146421433873076
 50
269.5381281958735258
 51
284.0252511112345246
  0
ARC
  5
197C7
  8
0
 10
436.4124799869566118
 20
28.6874422199239589
 30
0.0
 40
0.6938651643849952
 50
79.5883466454568804
 51
90.2871215424748073
  0
ARC
  5
197C8
  8
0
 10
436.4119274531395263
 20
29.8722918793987517
 30
0.0
 40
0.4434463222882105
 50
269.6221275203153027
 51
286.6528452867100896
  0
ARC
  5
197C9
  8
0
 10
436.4098128732904911
 20
28.9907111885682802
 30
0.0
 40
0.4746537637898582
 50
74.2056335419778321
 51
90.0977733075238518
  0
ARC
  5
197CA
  8
0
 10
436.4125041765253741
 20
29.9330590910235514
 30
0.0
 40
0.4102112215241222
 50
269.5109563366968928
 51
287.9618323753538789
  0
ARC
  5
197CB
  8
0
 10
436.0589784347076829
 20
29.7528765630273995
 30
0.0
 40
0.0199969263863354
 50
89.9299210542302205
 51
177.3499919804507101
  0
ARC
  5
197CC
  8
0
 10
436.0590089988131126
 20
29.7387061000164792
 30
0.0
 40
0.0218177762939576
 50
90.0160342227429311
 51
156.4861350428679998
  0
ARC
  5
197CD
  8
0
 10
436.059023684437193
 20
29.7100698585557197
 30
0.0
 40
0.021062475862213
 50
90.0565581921243989
 51
161.9050500308206892
  0
ARC
  5
197CE
  8
0
 10
436.0610363062627926
 20
29.6640914655603005
 30
0.0
 40
0.0403508959228082
 50
92.8885445112000951
 51
123.0961181183340045
  0
ARC
  5
197CF
  8
0
 10
436.0589083941346189
 20
29.6316476787683385
 30
0.0
 40
0.0251870632630393
 50
89.7850322982424274
 51
142.2141681285548032
  0
ARC
  5
197D0
  8
0
 10
436.0666046346855182
 20
29.4488141982647988
 30
0.0
 40
0.1716796862204176
 50
92.5378084434933044
 51
99.2518625629185323
  0
ARC
  5
197D1
  8
0
 10
436.0588664481705905
 20
29.5122559592410489
 30
0.0
 40
0.0505711785848592
 50
89.8454113823658957
 51
113.1278457713279977
  0
ARC
  5
197D2
  8
0
 10
436.0589784347076829
 20
29.3328132027847914
 30
0.0
 40
0.0199969263863354
 50
182.6500080195490057
 51
270.0700789457698079
  0
ARC
  5
197D3
  8
0
 10
436.0590089988131126
 20
29.3469836657957117
 30
0.0
 40
0.0218177762939576
 50
203.5138649571316876
 51
269.9839657772570831
  0
ARC
  5
197D4
  8
0
 10
436.059023684437193
 20
29.3756199072564712
 30
0.0
 40
0.021062475862213
 50
198.0949499691791118
 51
269.9434418078756153
  0
ARC
  5
197D5
  8
0
 10
436.0610363062627926
 20
29.4215983002518904
 30
0.0
 40
0.0403508959228082
 50
236.9038818816659102
 51
267.1114554887998906
  0
ARC
  5
197D6
  8
0
 10
436.0589083941346189
 20
29.4540420870438489
 30
0.0
 40
0.0251870632630393
 50
217.7858318714451968
 51
270.2149677017574732
  0
ARC
  5
197D7
  8
0
 10
436.0666046346855182
 20
29.6368755675473814
 30
0.0
 40
0.1716796862204176
 50
260.7481374370814251
 51
267.4621915565066956
  0
ARC
  5
197D8
  8
0
 10
436.0588664481705905
 20
29.5734338065711384
 30
0.0
 40
0.0505711785848592
 50
246.8721542286720023
 51
270.15458861763409
  0
ENDSEC
  0
EOF
