  0
SECTION
  2
HEADER
  9
$ACADVER
  1
AC1009
  9
$INSBASE
 10
4368.6742937973658627
 20
113.142667566947793
 30
0.0
  9
$EXTMIN
 10
4365.3878015392010639
 20
106.8156776197832016
 30
0.0
  9
$EXTMAX
 10
4371.960786055529752
 20
114.1684392204477945
 30
0.0
  9
$LIMMIN
 10
0.0
 20
0.0
  9
$LIMMAX
 10
11.6929133858000007
 20
8.2677165353999982
  9
$ORTHOMODE
 70
     0
  9
$REGENMODE
 70
     1
  9
$FILLMODE
 70
     1
  9
$QTEXTMODE
 70
     0
  9
$MIRRTEXT
 70
     0
  9
$DRAGMODE
 70
     2
  9
$LTSCALE
 40
0.6431102362
  9
$OSMODE
 70
  4095
  9
$ATTMODE
 70
     1
  9
$TEXTSIZE
 40
0.2
  9
$TRACEWID
 40
0.05
  9
$TEXTSTYLE
  7
STANDARD
  9
$CLAYER
  8
0
  9
$CELTYPE
  6
BYLAYER
  9
$CECOLOR
 62
   256
  9
$DIMSCALE
 40
1.0
  9
$DIMASZ
 40
0.1875
  9
$DIMEXO
 40
0.0625
  9
$DIMDLI
 40
0.4443307087
  9
$DIMRND
 40
0.0
  9
$DIMDLE
 40
0.0
  9
$DIMEXE
 40
0.125
  9
$DIMTP
 40
0.01
  9
$DIMTM
 40
0.01
  9
$DIMTXT
 40
2.0
  9
$DIMCEN
 40
0.1052362205
  9
$DIMTSZ
 40
0.0
  9
$DIMTOL
 70
     1
  9
$DIMLIM
 70
     0
  9
$DIMTIH
 70
     1
  9
$DIMTOH
 70
     1
  9
$DIMSE1
 70
     0
  9
$DIMSE2
 70
     0
  9
$DIMTAD
 70
     0
  9
$DIMZIN
 70
     0
  9
$DIMBLK
  1

  9
$DIMASO
 70
     1
  9
$DIMSHO
 70
     1
  9
$DIMPOST
  1
\X
  9
$DIMAPOST
  1

  9
$DIMALT
 70
     1
  9
$DIMALTD
 70
     2
  9
$DIMALTF
 40
25.3999999999999986
  9
$DIMLFAC
 40
1.0
  9
$DIMTOFL
 70
     0
  9
$DIMTVP
 40
0.0
  9
$DIMTIX
 70
     0
  9
$DIMSOXD
 70
     0
  9
$DIMSAH
 70
     0
  9
$DIMBLK1
  1

  9
$DIMBLK2
  1

  9
$DIMSTYLE
  2
STANDARD
  9
$DIMCLRD
 70
     0
  9
$DIMCLRE
 70
     0
  9
$DIMCLRT
 70
     0
  9
$DIMTFAC
 40
1.0
  9
$DIMGAP
 40
0.09
  9
$LUNITS
 70
     2
  9
$LUPREC
 70
     4
  9
$SKETCHINC
 40
0.1
  9
$FILLETRAD
 40
0.0
  9
$AUNITS
 70
     0
  9
$AUPREC
 70
     0
  9
$MENU
  1
.
  9
$ELEVATION
 40
0.0
  9
$PELEVATION
 40
0.0
  9
$THICKNESS
 40
0.0
  9
$LIMCHECK
 70
     0
  9
$BLIPMODE
 70
     0
  9
$CHAMFERA
 40
0.0
  9
$CHAMFERB
 40
0.0
  9
$SKPOLY
 70
     0
  9
$TDCREATE
 40
2458060.468368056230247
  9
$TDUPDATE
 40
2459506.5776273151859641
  9
$TDINDWG
 40
0.4538728009
  9
$TDUSRTIMER
 40
0.4538728009
  9
$USRTIMER
 70
     1
  9
$ANGBASE
 50
0.0
  9
$ANGDIR
 70
     0
  9
$PDMODE
 70
     0
  9
$PDSIZE
 40
0.3125
  9
$PLINEWID
 40
0.0
  9
$COORDS
 70
     1
  9
$SPLFRAME
 70
     0
  9
$SPLINETYPE
 70
     6
  9
$SPLINESEGS
 70
     8
  9
$ATTDIA
 70
     1
  9
$ATTREQ
 70
     1
  9
$HANDLING
 70
     1
  9
$HANDSEED
  5
B378
  9
$SURFTAB1
 70
     6
  9
$SURFTAB2
 70
     6
  9
$SURFTYPE
 70
     6
  9
$SURFU
 70
     6
  9
$SURFV
 70
     6
  9
$UCSNAME
  2

  9
$UCSORG
 10
0.0
 20
0.0
 30
0.0
  9
$UCSXDIR
 10
1.0
 20
0.0
 30
0.0
  9
$UCSYDIR
 10
0.0
 20
1.0
 30
0.0
  9
$PUCSNAME
  2

  9
$PUCSORG
 10
0.0
 20
0.0
 30
0.0
  9
$PUCSXDIR
 10
1.0
 20
0.0
 30
0.0
  9
$PUCSYDIR
 10
0.0
 20
1.0
 30
0.0
  9
$USERI1
 70
     0
  9
$USERI2
 70
     0
  9
$USERI3
 70
     0
  9
$USERI4
 70
     0
  9
$USERI5
 70
     0
  9
$USERR1
 40
0.0
  9
$USERR2
 40
0.0
  9
$USERR3
 40
0.0
  9
$USERR4
 40
0.0
  9
$USERR5
 40
0.0
  9
$WORLDVIEW
 70
     1
  9
$SHADEDGE
 70
     3
  9
$SHADEDIF
 70
    70
  9
$TILEMODE
 70
     1
  9
$MAXACTVP
 70
    64
  9
$PLIMCHECK
 70
     0
  9
$PEXTMIN
 10
1.0000000000000000E+20
 20
1.0000000000000000E+20
 30
1.0000000000000000E+20
  9
$PEXTMAX
 10
-1.0000000000000000E+20
 20
-1.0000000000000000E+20
 30
-1.0000000000000000E+20
  9
$PLIMMIN
 10
0.0
 20
0.0
  9
$PLIMMAX
 10
12.0
 20
9.0
  9
$UNITMODE
 70
     0
  9
$VISRETAIN
 70
     1
  9
$PLINEGEN
 70
     0
  9
$PSLTSCALE
 70
     1
  0
ENDSEC
  0
SECTION
  2
TABLES
  0
TABLE
  2
VPORT
 70
     1
  0
VPORT
  2
*ACTIVE
 70
     0
 10
0.0
 20
0.0
 11
1.0
 21
1.0
 12
104.9837380974294945
 22
6.188451440194882
 13
0.0
 23
0.0
 14
1.0
 24
1.0
 15
0.0
 25
0.0
 16
0.0
 26
0.0
 36
122.0237731519760018
 17
4265.00634765625
 27
104.3040122985839986
 37
0.0
 40
6.8711343756450036
 41
1.67063492063492
 42
50.0
 43
0.0
 44
0.0
 50
0.0
 51
0.0
 71
     0
 72
   100
 73
     1
 74
     1
 75
     0
 76
     0
 77
     0
 78
     0
  0
ENDTAB
  0
TABLE
  2
LTYPE
 70
     2
  0
LTYPE
  2
CONTINUOUS
 70
     0
  3
Solid line
 72
    65
 73
     0
 40
0.0
  0
LTYPE
  2
PHANTOM2
 70
     0
  3
___ _ _ ___ _ _ ___ _ _ ___ _ _
 72
    65
 73
     6
 40
1.25
 49
0.625
 49
-0.125
 49
0.125
 49
-0.125
 49
0.125
 49
-0.125
  0
ENDTAB
  0
TABLE
  2
LAYER
 70
     2
  0
LAYER
  2
0
 70
     0
 62
   255
  6
CONTINUOUS
  0
LAYER
  2
DEFPOINTS
 70
     0
 62
     7
  6
CONTINUOUS
  0
ENDTAB
  0
TABLE
  2
STYLE
 70
     1
  0
STYLE
  2
STANDARD
 70
     0
 40
0.0
 41
0.8
 50
0.0
 71
     0
 42
0.2
  3
txt
  4

  0
ENDTAB
  0
TABLE
  2
VIEW
 70
     0
  0
ENDTAB
  0
TABLE
  2
UCS
 70
     0
  0
ENDTAB
  0
TABLE
  2
APPID
 70
    10
  0
APPID
  2
ACAD
 70
     0
  0
APPID
  2
ACAD_MLEADERVER
 70
     0
  0
APPID
  2
ACAD_EXEMPT_FROM_CAD_STANDARDS
 70
     0
  0
APPID
  2
ACAD_NAV_VCDISPLAY
 70
     0
  0
APPID
  2
ACAECLAYERSTANDARD
 70
     0
  0
APPID
  2
ACCMTRANSPARENCY
 70
     0
  0
APPID
  2
ACAD_DSTYLE_DIMJAG
 70
     0
  0
APPID
  2
ACAD_DSTYLE_DIMTALN
 70
     0
  0
APPID
  2
ACDBATTR
 70
     0
  0
APPID
  2
DCO15
 70
     0
  0
ENDTAB
  0
TABLE
  2
DIMSTYLE
 70
     1
  0
DIMSTYLE
  2
STANDARD
 70
     0
  3

  4

  5

  6

  7

 40
1.0
 41
0.1875
 42
0.0625
 43
0.38
 44
0.125
 45
0.0
 46
0.0
 47
0.01
 48
0.01
140
0.15625
141
0.09
142
0.0
143
25.3999999999999986
144
1.0
145
0.0
146
1.0
147
0.09
 71
     1
 72
     0
 73
     1
 74
     1
 75
     0
 76
     0
 77
     0
 78
     4
170
     0
171
     2
172
     0
173
     0
174
     0
175
     0
176
     0
177
     0
178
     0
  0
ENDTAB
  0
ENDSEC
  0
SECTION
  2
BLOCKS
  0
BLOCK
  8
0
  2
$MODEL_SPACE
 70
     0
 10
0.0
 20
0.0
 30
0.0
  3
$MODEL_SPACE
  1

  0
ENDBLK
  5
21
  8
0
  0
BLOCK
 67
     1
  8
0
  2
$PAPER_SPACE
 70
     0
 10
0.0
 20
0.0
 30
0.0
  3
$PAPER_SPACE
  1

  0
ENDBLK
  5
1D
 67
     1
  8
0
  0
ENDSEC
  0
SECTION
  2
ENTITIES
  0
ATTDEF
  5
9852
  8
DEFPOINTS
 10
4368.67023476279428
 20
113.1475933273321033
 30
0.0
 40
0.001
  1
P31422-00
  3

  2
MODELNUMBER
 70
     0
1001
ACDBATTR
1070
     0
1070
     1
  0
ATTDEF
  5
9853
  8
DEFPOINTS
 10
4368.67023476279428
 20
113.1459266606653955
 30
0.0
 40
0.001
  1
CENTRAL PARK WEST
  3

  2
TRADENAME
 70
     0
1001
ACDBATTR
1070
     0
1070
     1
  0
ATTDEF
  5
9854
  8
DEFPOINTS
 10
4368.67023476279428
 20
113.1442599939988014
 30
0.0
 40
0.001
  1
TOWEL RING
  3

  2
PRODUCT
 70
     0
1001
ACDBATTR
1070
     0
1070
     1
  0
ARC
  5
B236
  8
0
 10
4368.6742937973658627
 20
113.142667566947793
 30
0.0
 40
1.025771653499999
 50
202.3967206056354939
 51
337.6032793943643924
  0
ARC
  5
B237
  8
0
 10
4368.6742937973658627
 20
113.142667566947793
 30
0.0
 40
1.025771653499999
 50
4.6363067529668696
 51
175.3636932470330976
  0
ARC
  5
B238
  8
0
 10
4368.6742937973658627
 20
113.142667566947793
 30
0.0
 40
0.8607716534999985
 50
203.2401227331394011
 51
336.7598772668605989
  0
ARC
  5
B239
  8
0
 10
4368.6742937973658627
 20
113.142667566947793
 30
0.0
 40
0.8607716534999985
 50
8.9628180105753277
 51
171.0371819894247096
  0
ARC
  5
B23A
  8
0
 10
4368.6742937973658627
 20
113.142667566947793
 30
0.0
 40
0.7370172603517098
 50
13.0659441113198191
 51
166.934055888680092
  0
ARC
  5
B23B
  8
0
 10
4368.6742937973658627
 20
113.142667566947793
 30
0.0
 40
0.461999999999998
 50
28.5562177483378292
 51
33.5200416926563776
  0
ARC
  5
B23C
  8
0
 10
4368.6742937973658627
 20
113.142667566947793
 30
0.0
 40
0.461999999999998
 50
38.4805304962870593
 51
45.5194695047444
  0
ARC
  5
B23D
  8
0
 10
4368.6742937973658627
 20
113.142667566947793
 30
0.0
 40
0.461999999999998
 50
50.4805304886815804
 51
57.5194695111712591
  0
ARC
  5
B23E
  8
0
 10
4368.6742937973658627
 20
113.142667566947793
 30
0.0
 40
0.461999999999998
 50
62.4805304952275833
 51
69.5194695068427535
  0
ARC
  5
B23F
  8
0
 10
4368.6742937973658627
 20
113.142667566947793
 30
0.0
 40
0.461999999999998
 50
74.4805304912648438
 51
81.5194694998145337
  0
ARC
  5
B240
  8
0
 10
4368.6742937973658627
 20
113.142667566947793
 30
0.0
 40
0.461999999999998
 50
86.4805304838429123
 51
93.5194695037836681
  0
ARC
  5
B241
  8
0
 10
4368.6742937973658627
 20
113.142667566947793
 30
0.0
 40
0.461999999999998
 50
98.4805304878574788
 51
105.5194695087350993
  0
ARC
  5
B242
  8
0
 10
4368.6742937973658627
 20
113.142667566947793
 30
0.0
 40
0.461999999999998
 50
110.4805304931572039
 51
117.5194695047724025
  0
ARC
  5
B243
  8
0
 10
4368.6742937973658627
 20
113.142667566947793
 30
0.0
 40
0.461999999999998
 50
122.4805304888287054
 51
129.5194695019256983
  0
ARC
  5
B244
  8
0
 10
4368.6742937973658627
 20
113.142667566947793
 30
0.0
 40
0.461999999999998
 50
134.4805304862090907
 51
141.5194695037129122
  0
ARC
  5
B245
  8
0
 10
4368.6742937973658627
 20
113.142667566947793
 30
0.0
 40
0.461999999999998
 50
146.479958307343594
 51
151.4437822516620997
  0
CIRCLE
  5
B246
  8
0
 10
4368.6742937973658627
 20
113.142667566947793
 30
0.0
 40
0.3884999999999987
  0
ARC
  5
B247
  8
0
 10
4368.6742937973658627
 20
113.142667566947793
 30
0.0
 40
0.7683780264389207
 50
204.1933863698336893
 51
335.8066136301654865
  0
ARC
  5
B248
  8
0
 10
4368.6742937973658627
 20
113.142667566947793
 30
0.0
 40
0.7683780264389207
 50
11.9314644417361801
 51
168.0685355582637897
  0
ARC
  5
B249
  8
0
 10
4368.6742937973658627
 20
113.142667566947793
 30
0.0
 40
0.4419858000305528
 50
214.434934814411605
 51
325.5650651855884234
  0
ARC
  5
B24A
  8
0
 10
4368.6742937973658627
 20
113.142667566947793
 30
0.0
 40
0.4419858000305528
 50
30.4609383203349715
 51
149.5757784046001007
  0
ARC
  5
B24B
  8
0
 10
4368.6742937973658627
 20
110.1021698779478015
 30
0.0
 40
3.2864922581646221
 50
95.4522721466500172
 51
84.5477278533499828
  0
ARC
  5
B24C
  8
0
 10
4368.6742937973658627
 20
110.1021698779478015
 30
0.0
 40
2.8142772162999989
 50
96.1894028269669974
 51
83.8105971730330168
  0
ARC
  5
B24D
  8
0
 10
4368.6742937973658627
 20
113.142667566947793
 30
0.0
 40
0.634999999999998
 50
17.3759692362989604
 51
162.6240307637010005
  0
ARC
  5
B24E
  8
0
 10
4368.6742937973658627
 20
113.142667566947793
 30
0.0
 40
0.634999999999998
 50
206.578489816577104
 51
333.4215101834228108
  0
ARC
  5
B24F
  8
0
 10
4368.3005306578870659
 20
113.4142280861093042
 30
0.0
 40
0.019999999999998
 50
235.2396930612769097
 51
52.7591625691285131
  0
ARC
  5
B250
  8
0
 10
4368.3651554572661553
 20
113.4860004763477974
 30
0.0
 40
0.0200141999660381
 50
223.2411459543158969
 51
40.7588540338160428
  0
ARC
  5
B251
  8
0
 10
4368.4432937973660955
 20
113.542771303547795
 30
0.0
 40
0.0200142000141252
 50
211.2411460975918089
 51
28.7588538959986302
  0
ARC
  5
B252
  8
0
 10
4368.5315279459646263
 20
113.5820556774477978
 30
0.0
 40
0.0200141999420942
 50
199.2411458912208957
 51
16.7588541106703204
  0
ARC
  5
B253
  8
0
 10
4368.6260016473661381
 20
113.6021366826477959
 30
0.0
 40
0.0200000000000003
 50
187.2402653465017011
 51
4.7597346451522142
  0
ARC
  5
B255
  8
0
 10
4368.6742937546678149
 20
113.1332576638740051
 30
0.0
 40
0.4526082100245549
 50
266.407410719201323
 51
273.5920730894503095
  0
ARC
  5
B256
  8
0
 10
4368.6742937993003579
 20
113.1426675746716057
 30
0.0
 40
0.4620000079597812
 50
254.4805305172251906
 51
261.5194694162013889
  0
ARC
  5
B257
  8
0
 10
4368.6260031639476438
 20
112.6832128805559989
 30
0.0
 40
0.0199996912171675
 50
355.1987098291486973
 51
172.8012901792031073
  0
ARC
  5
B258
  8
0
 10
4368.5315324294078891
 20
112.703293255064807
 30
0.0
 40
0.0199996912179135
 50
343.1987099329156194
 51
160.8012900947157959
  0
ARC
  5
B259
  8
0
 10
4368.6680954727053177
 20
113.1274055496891009
 30
0.0
 40
0.4455341956610596
 50
242.2807593665527861
 51
249.5794644031406051
  0
ARC
  5
B25A
  8
0
 10
4368.4433010588027173
 20
112.7425764581550993
 30
0.0
 40
0.0199996647227842
 50
331.3973938646803958
 51
148.8014545645771136
  0
ARC
  5
B25B
  8
0
 10
4368.3651651674381355
 20
112.7993454417879065
 30
0.0
 40
0.0199996911578267
 50
319.1987015929929044
 51
136.8012984071114033
  0
ARC
  5
B25C
  8
0
 10
4368.3005396838107117
 20
112.8711193083920961
 30
0.0
 40
0.0199996912170344
 50
307.198709828782512
 51
124.8012901795873972
  0
LINE
  5
B25D
  8
0
 10
4368.289125218882873
 20
112.8875417819923967
 30
0.0
 11
4368.2876623300317078
 21
112.8897624519536009
 31
0.0
  0
ARC
  5
B25E
  8
0
 10
4368.6742937973685912
 20
113.1426675669511042
 30
0.0
 40
0.4620000000046809
 50
218.4805304962889068
 51
225.5194695078880898
  0
ARC
  5
B25F
  8
0
 10
4368.6613553645247521
 20
113.1248595229665028
 30
0.0
 40
0.4400315524566047
 50
230.3045976708891089
 51
237.6948482362803929
  0
ARC
  5
B260
  8
0
 10
4368.6742937954313675
 20
113.1426675746716057
 30
0.0
 40
0.4620000079597812
 50
278.4805305837986111
 51
285.5194694827748094
  0
ARC
  5
B261
  8
0
 10
4368.7225844307831721
 20
112.6832128805559989
 30
0.0
 40
0.0199996912171675
 50
7.1987098207969158
 51
184.801290170851189
  0
ARC
  5
B262
  8
0
 10
4368.8170551653229268
 20
112.703293255064807
 30
0.0
 40
0.0199996912179135
 50
19.1987099052842112
 51
196.801290067084409
  0
ARC
  5
B263
  8
0
 10
4368.6804921220273172
 20
113.1274055496891009
 30
0.0
 40
0.4455341956610596
 50
290.4205355968591107
 51
297.7192406334471002
  0
ARC
  5
B264
  8
0
 10
4368.9052865359290081
 20
112.7425764581550993
 30
0.0
 40
0.0199996647227842
 50
31.198545435422929
 51
208.6026061353196894
  0
ARC
  5
B265
  8
0
 10
4368.9834224272926804
 20
112.7993454417879065
 30
0.0
 40
0.0199996911578267
 50
43.1987015928885612
 51
220.8012984070070956
  0
ARC
  5
B266
  8
0
 10
4369.0480479109201042
 20
112.8711193083920961
 30
0.0
 40
0.0199996912170344
 50
55.1987098204125317
 51
232.801290171217488
  0
LINE
  5
B267
  8
0
 10
4369.0594623758488524
 20
112.8875417819923967
 30
0.0
 11
4369.0609252647000176
 21
112.8897624519536009
 31
0.0
  0
ARC
  5
B268
  8
0
 10
4368.6742937973622247
 20
113.1426675669511042
 30
0.0
 40
0.4620000000046809
 50
314.4805304921118818
 51
321.5194695037109796
  0
ARC
  5
B269
  8
0
 10
4368.6872322302069733
 20
113.1248595229665028
 30
0.0
 40
0.4400315524566047
 50
302.3051517637196071
 51
309.6954023291107774
  0
ARC
  5
B26A
  8
0
 10
4369.04805693684375
 20
113.4142280861093042
 30
0.0
 40
0.019999999999998
 50
127.240837430871494
 51
304.760306938723204
  0
ARC
  5
B26B
  8
0
 10
4368.9834321374646606
 20
113.4860004763477974
 30
0.0
 40
0.0200141999660381
 50
139.2411459661838933
 51
316.7588540456840747
  0
ARC
  5
B26C
  8
0
 10
4368.9052937973647204
 20
113.542771303547795
 30
0.0
 40
0.0200142000141252
 50
151.2411461040013876
 51
328.7588539024083047
  0
ARC
  5
B26D
  8
0
 10
4368.8170596487661896
 20
113.5820556774477978
 30
0.0
 40
0.0200141999420942
 50
163.2411458893296867
 51
340.7588541087790759
  0
ARC
  5
B26E
  8
0
 10
4368.7225859473655873
 20
113.6021366826477959
 30
0.0
 40
0.0200000000000003
 50
175.2402653548477929
 51
352.7597346534982989
  0
ENDSEC
  0
EOF
