  0
SECTION
  2
HEADER
  9
$ACADVER
  1
AC1009
  9
$INSBASE
 10
5170.8796043209804338
 20
460.720485058233578
 30
0.0
  9
$EXTMIN
 10
5170.5631946918792892
 20
459.5954850581334767
 30
0.0
  9
$EXTMAX
 10
5170.8910303207603647
 20
461.8454850583336224
 30
0.0
  9
$LIMMIN
 10
0.0
 20
0.0
  9
$LIMMAX
 10
11.6929133858000007
 20
8.2677165353999982
  9
$ORTHOMODE
 70
     0
  9
$REGENMODE
 70
     1
  9
$FILLMODE
 70
     1
  9
$QTEXTMODE
 70
     0
  9
$MIRRTEXT
 70
     0
  9
$DRAGMODE
 70
     2
  9
$LTSCALE
 40
0.6431102362
  9
$OSMODE
 70
  4095
  9
$ATTMODE
 70
     1
  9
$TEXTSIZE
 40
0.2
  9
$TRACEWID
 40
0.05
  9
$TEXTSTYLE
  7
STANDARD
  9
$CLAYER
  8
0
  9
$CELTYPE
  6
BYLAYER
  9
$CECOLOR
 62
   256
  9
$DIMSCALE
 40
1.0
  9
$DIMASZ
 40
0.1875
  9
$DIMEXO
 40
0.0625
  9
$DIMDLI
 40
0.4443307087
  9
$DIMRND
 40
0.0
  9
$DIMDLE
 40
0.0
  9
$DIMEXE
 40
0.125
  9
$DIMTP
 40
0.01
  9
$DIMTM
 40
0.01
  9
$DIMTXT
 40
2.0
  9
$DIMCEN
 40
0.1052362205
  9
$DIMTSZ
 40
0.0
  9
$DIMTOL
 70
     1
  9
$DIMLIM
 70
     0
  9
$DIMTIH
 70
     1
  9
$DIMTOH
 70
     1
  9
$DIMSE1
 70
     0
  9
$DIMSE2
 70
     0
  9
$DIMTAD
 70
     0
  9
$DIMZIN
 70
     0
  9
$DIMBLK
  1

  9
$DIMASO
 70
     1
  9
$DIMSHO
 70
     1
  9
$DIMPOST
  1
\X
  9
$DIMAPOST
  1

  9
$DIMALT
 70
     1
  9
$DIMALTD
 70
     2
  9
$DIMALTF
 40
25.3999999999999986
  9
$DIMLFAC
 40
1.0
  9
$DIMTOFL
 70
     0
  9
$DIMTVP
 40
0.0
  9
$DIMTIX
 70
     0
  9
$DIMSOXD
 70
     0
  9
$DIMSAH
 70
     0
  9
$DIMBLK1
  1

  9
$DIMBLK2
  1

  9
$DIMSTYLE
  2
STANDARD
  9
$DIMCLRD
 70
     0
  9
$DIMCLRE
 70
     0
  9
$DIMCLRT
 70
     0
  9
$DIMTFAC
 40
1.0
  9
$DIMGAP
 40
0.09
  9
$LUNITS
 70
     2
  9
$LUPREC
 70
     4
  9
$SKETCHINC
 40
0.1
  9
$FILLETRAD
 40
0.0
  9
$AUNITS
 70
     0
  9
$AUPREC
 70
     0
  9
$MENU
  1
.
  9
$ELEVATION
 40
0.0
  9
$PELEVATION
 40
0.0
  9
$THICKNESS
 40
0.0
  9
$LIMCHECK
 70
     0
  9
$BLIPMODE
 70
     0
  9
$CHAMFERA
 40
0.0
  9
$CHAMFERB
 40
0.0
  9
$SKPOLY
 70
     0
  9
$TDCREATE
 40
2458060.468368056230247
  9
$TDUPDATE
 40
2460090.4329745369032025
  9
$TDINDWG
 40
0.6464190972
  9
$TDUSRTIMER
 40
0.6464190972
  9
$USRTIMER
 70
     1
  9
$ANGBASE
 50
0.0
  9
$ANGDIR
 70
     0
  9
$PDMODE
 70
     0
  9
$PDSIZE
 40
0.3125
  9
$PLINEWID
 40
0.0
  9
$COORDS
 70
     1
  9
$SPLFRAME
 70
     0
  9
$SPLINETYPE
 70
     6
  9
$SPLINESEGS
 70
     8
  9
$ATTDIA
 70
     1
  9
$ATTREQ
 70
     1
  9
$HANDLING
 70
     1
  9
$HANDSEED
  5
183B1
  9
$SURFTAB1
 70
     6
  9
$SURFTAB2
 70
     6
  9
$SURFTYPE
 70
     6
  9
$SURFU
 70
     6
  9
$SURFV
 70
     6
  9
$UCSNAME
  2

  9
$UCSORG
 10
0.0
 20
0.0
 30
0.0
  9
$UCSXDIR
 10
1.0
 20
0.0
 30
0.0
  9
$UCSYDIR
 10
0.0
 20
1.0
 30
0.0
  9
$PUCSNAME
  2

  9
$PUCSORG
 10
0.0
 20
0.0
 30
0.0
  9
$PUCSXDIR
 10
1.0
 20
0.0
 30
0.0
  9
$PUCSYDIR
 10
0.0
 20
1.0
 30
0.0
  9
$USERI1
 70
     0
  9
$USERI2
 70
     0
  9
$USERI3
 70
     0
  9
$USERI4
 70
     0
  9
$USERI5
 70
     0
  9
$USERR1
 40
0.0
  9
$USERR2
 40
0.0
  9
$USERR3
 40
0.0
  9
$USERR4
 40
0.0
  9
$USERR5
 40
0.0
  9
$WORLDVIEW
 70
     1
  9
$SHADEDGE
 70
     3
  9
$SHADEDIF
 70
    70
  9
$TILEMODE
 70
     1
  9
$MAXACTVP
 70
    64
  9
$PLIMCHECK
 70
     0
  9
$PEXTMIN
 10
1.0000000000000000E+20
 20
1.0000000000000000E+20
 30
1.0000000000000000E+20
  9
$PEXTMAX
 10
-1.0000000000000000E+20
 20
-1.0000000000000000E+20
 30
-1.0000000000000000E+20
  9
$PLIMMIN
 10
0.0
 20
0.0
  9
$PLIMMAX
 10
12.0
 20
9.0
  9
$UNITMODE
 70
     0
  9
$VISRETAIN
 70
     1
  9
$PLINEGEN
 70
     0
  9
$PSLTSCALE
 70
     1
  0
ENDSEC
  0
SECTION
  2
TABLES
  0
TABLE
  2
VPORT
 70
     1
  0
VPORT
  2
*ACTIVE
 70
     0
 10
0.0
 20
0.0
 11
1.0
 21
1.0
 12
1367.1830451235070996
 22
334.7252228614835872
 13
0.0
 23
0.0
 14
1.0
 24
1.0
 15
0.0
 25
0.0
 16
0.0
 26
0.0
 36
17.1152628219792007
 17
3803.5440673828129547
 27
125.9952621967499056
 37
0.0
 40
2.26886358114163
 41
2.5251322751322749
 42
50.0
 43
0.0
 44
0.0
 50
0.0
 51
0.0
 71
     0
 72
   100
 73
     1
 74
     1
 75
     0
 76
     0
 77
     0
 78
     0
  0
ENDTAB
  0
TABLE
  2
LTYPE
 70
     2
  0
LTYPE
  2
CONTINUOUS
 70
     0
  3
Solid line
 72
    65
 73
     0
 40
0.0
  0
LTYPE
  2
PHANTOM2
 70
     0
  3
___ _ _ ___ _ _ ___ _ _ ___ _ _
 72
    65
 73
     6
 40
1.25
 49
0.625
 49
-0.125
 49
0.125
 49
-0.125
 49
0.125
 49
-0.125
  0
ENDTAB
  0
TABLE
  2
LAYER
 70
     2
  0
LAYER
  2
0
 70
     0
 62
   255
  6
CONTINUOUS
  0
LAYER
  2
DEFPOINTS
 70
     0
 62
     7
  6
CONTINUOUS
  0
ENDTAB
  0
TABLE
  2
STYLE
 70
     1
  0
STYLE
  2
STANDARD
 70
     0
 40
0.0
 41
0.8
 50
0.0
 71
     0
 42
0.2
  3
txt
  4

  0
ENDTAB
  0
TABLE
  2
VIEW
 70
     0
  0
ENDTAB
  0
TABLE
  2
UCS
 70
     0
  0
ENDTAB
  0
TABLE
  2
APPID
 70
    10
  0
APPID
  2
ACAD
 70
     0
  0
APPID
  2
ACAD_MLEADERVER
 70
     0
  0
APPID
  2
ACAD_EXEMPT_FROM_CAD_STANDARDS
 70
     0
  0
APPID
  2
ACAD_NAV_VCDISPLAY
 70
     0
  0
APPID
  2
ACAECLAYERSTANDARD
 70
     0
  0
APPID
  2
ACCMTRANSPARENCY
 70
     0
  0
APPID
  2
ACAD_DSTYLE_DIMJAG
 70
     0
  0
APPID
  2
ACAD_DSTYLE_DIMTALN
 70
     0
  0
APPID
  2
ACDBATTR
 70
     0
  0
APPID
  2
ACADANNOTATIVE
 70
     0
  0
ENDTAB
  0
TABLE
  2
DIMSTYLE
 70
     2
  0
DIMSTYLE
  2
STANDARD
 70
     0
  3

  4

  5

  6

  7

 40
1.0
 41
0.1875
 42
0.0625
 43
0.38
 44
0.125
 45
0.0
 46
0.0
 47
0.01
 48
0.01
140
0.15625
141
0.09
142
0.0
143
25.3999999999999986
144
1.0
145
0.0
146
1.0
147
0.09
 71
     1
 72
     0
 73
     1
 74
     1
 75
     0
 76
     0
 77
     0
 78
     4
170
     0
171
     2
172
     0
173
     0
174
     0
175
     0
176
     0
177
     0
178
     0
  0
DIMSTYLE
  2
ANNOTATIVE
 70
     0
  3

  4

  5

  6

  7

 40
0.0
 41
0.18
 42
0.0625
 43
0.38
 44
0.18
 45
0.0
 46
0.0
 47
0.0
 48
0.0
140
0.18
141
0.09
142
0.0
143
25.3999999999999986
144
1.0
145
0.0
146
1.0
147
0.09
 71
     0
 72
     0
 73
     1
 74
     1
 75
     0
 76
     0
 77
     0
 78
     0
170
     0
171
     2
172
     0
173
     0
174
     0
175
     0
176
     0
177
     0
178
     0
  0
ENDTAB
  0
ENDSEC
  0
SECTION
  2
BLOCKS
  0
BLOCK
  8
0
  2
$MODEL_SPACE
 70
     0
 10
0.0
 20
0.0
 30
0.0
  3
$MODEL_SPACE
  1

  0
ENDBLK
  5
21
  8
0
  0
BLOCK
 67
     1
  8
0
  2
$PAPER_SPACE
 70
     0
 10
0.0
 20
0.0
 30
0.0
  3
$PAPER_SPACE
  1

  0
ENDBLK
  5
1D
 67
     1
  8
0
  0
BLOCK
  8
0
  2
_FILLED
 70
     0
 10
0.0
 20
0.0
 30
0.0
  3
_FILLED
  1

  0
SOLID
  5
13053
  8
0
  6
BYBLOCK
 62
     0
 10
0.0
 20
0.0
 30
0.0
 11
-1.0
 21
0.1666666667
 31
0.0
 12
-1.0
 22
-0.1666666667
 32
0.0
 13
-1.0
 23
-0.1666666667
 33
0.0
  0
ENDBLK
  5
13054
  8
0
  6
BYBLOCK
 62
     0
  0
ENDSEC
  0
SECTION
  2
ENTITIES
  0
ATTDEF
  5
3930
  8
DEFPOINTS
 10
5170.8803636540924344
 20
460.7217032596643094
 30
0.0
 40
0.001
  1
P31003-00
  3

  2
MODELNUMBER
 70
     0
1001
ACDBATTR
1070
     0
1070
     1
  0
ATTDEF
  5
3931
  8
DEFPOINTS
 10
5170.8803636540924344
 20
460.7200365929975874
 30
0.0
 40
0.001
  1
FOR TOWN
  3

  2
TRADENAME
 70
     0
1001
ACDBATTR
1070
     0
1070
     1
  0
ATTDEF
  5
3932
  8
DEFPOINTS
 10
5170.8803636540924344
 20
460.7183699263309222
 30
0.0
 40
0.001
  1
SHOWER DOOR HANDLE ESCUTCHEON
  3

  2
PRODUCT
 70
     0
1001
ACDBATTR
1070
     0
1070
     1
  0
LINE
  5
18209
  8
0
 10
5170.6762325805793807
 20
461.8454850583336224
 30
0.0
 11
5170.8596043209799973
 21
461.8454850583336224
 31
0.0
  0
LINE
  5
1820A
  8
0
 10
5170.6762325805793807
 20
461.2040489091335758
 30
0.0
 11
5170.8596043209799973
 21
461.2040489091335758
 31
0.0
  0
LINE
  5
1820B
  8
0
 10
5170.656324657679761
 20
461.8274019870336247
 30
0.0
 11
5170.6513215593067798
 21
461.7754428235948012
 31
0.0
  0
LINE
  5
1820C
  8
0
 10
5170.656324657679761
 20
459.6135681294335882
 30
0.0
 11
5170.656324657679761
 21
461.8274019870336247
 31
0.0
  0
LINE
  5
1820D
  8
0
 10
5170.8796043209804338
 20
461.8254850583335838
 30
0.0
 11
5170.8796043209804338
 21
459.6154850581335722
 31
0.0
  0
ARC
  5
1820E
  8
0
 10
5170.6648384618383716
 20
461.6597109953663107
 30
0.0
 40
0.1024337509426183
 50
107.0212742583988046
 51
172.879607777312998
  0
ARC
  5
1820F
  8
0
 10
5170.8577184148016386
 20
461.8235991521559072
 30
0.0
 40
0.0219670100681065
 50
4.925005392508079
 51
85.0749946075068664
  0
ARC
  5
18210
  8
0
 10
5170.6303565782891383
 20
461.778338527125527
 30
0.0
 40
0.0211640149719451
 50
282.2673190184513032
 51
352.1360076034243889
  0
ARC
  5
18211
  8
0
 10
5170.6783744013346222
 20
461.8231270956471803
 30
0.0
 40
0.0224603181552256
 50
95.4720527048558409
 51
169.0279073035482043
  0
ARC
  5
18212
  8
0
 10
5170.8575421546447615
 20
461.1799193621537825
 30
0.0
 40
0.0242175053925423
 50
24.3559794857764587
 51
85.1152408573575485
  0
ARC
  5
18213
  8
0
 10
5170.6767316536688668
 20
461.1813795154528179
 30
0.0
 40
0.0226748866325847
 50
91.2611790030701968
 51
154.1557370700631964
  0
ARC
  5
18214
  8
0
 10
5170.6289116398156693
 20
461.1943461441849763
 30
0.0
 40
0.0275857308910892
 50
282.4407882857710774
 51
353.5851754207616864
  0
ARC
  5
18215
  8
0
 10
5170.6335516284998448
 20
461.0940794268910281
 30
0.0
 40
0.0733402950531656
 50
88.982141380509205
 51
163.6015680600752944
  0
LINE
  5
18216
  8
0
 10
5170.5631946918792892
 20
461.6724081352335816
 30
0.0
 11
5170.5631946918792892
 21
459.7685619812335744
 31
0.0
  0
LINE
  5
18217
  8
0
 10
5170.6762325805793807
 20
459.5954850581335904
 30
0.0
 11
5170.8596043209799973
 21
459.5954850581335904
 31
0.0
  0
LINE
  5
18218
  8
0
 10
5170.6762325805793807
 20
460.2369212073335802
 30
0.0
 11
5170.8596043209799973
 21
460.2369212073335802
 31
0.0
  0
LINE
  5
18219
  8
0
 10
5170.656324657679761
 20
459.6135681294335882
 30
0.0
 11
5170.6513215593067798
 21
459.6655272928724116
 31
0.0
  0
ARC
  5
1821A
  8
0
 10
5170.6648384618383716
 20
459.7812591211009021
 30
0.0
 40
0.1024337509426183
 50
187.120392222687002
 51
252.9787257416012096
  0
ARC
  5
1821B
  8
0
 10
5170.8577184148016386
 20
459.6173709643113057
 30
0.0
 40
0.0219670100681065
 50
274.9250053924931194
 51
355.0749946074918739
  0
ARC
  5
1821C
  8
0
 10
5170.6303565782891383
 20
459.6626315893415722
 30
0.0
 40
0.0211640149719451
 50
7.8639923965755889
 51
77.7326809815486683
  0
ARC
  5
1821D
  8
0
 10
5170.6783744013346222
 20
459.6178430208199757
 30
0.0
 40
0.0224603181552256
 50
190.9720926964517105
 51
264.527947295144088
  0
ARC
  5
1821E
  8
0
 10
5170.8575421546447615
 20
460.2610507543133735
 30
0.0
 40
0.0242175053925423
 50
274.8847591426425083
 51
335.6440205142234845
  0
ARC
  5
1821F
  8
0
 10
5170.6767316536688668
 20
460.2595906010143949
 30
0.0
 40
0.0226748866325847
 50
205.8442629299339046
 51
268.7388209969298032
  0
ARC
  5
18220
  8
0
 10
5170.6289116398156693
 20
460.2466239722821797
 30
0.0
 40
0.0275857308910892
 50
6.4148245792382559
 51
77.5592117142289368
  0
ARC
  5
18221
  8
0
 10
5170.6335516284998448
 20
460.3468906895761847
 30
0.0
 40
0.0733402950531656
 50
196.3984319399245919
 51
271.0178586194908235
  0
ENDSEC
  0
EOF
