  0
SECTION
  2
HEADER
  9
$ACADVER
  1
AC1009
  9
$INSBASE
 10
4324.9912133097514015
 20
594.5123269671563548
 30
0.0
  9
$EXTMIN
 10
4321.5995639145239693
 20
593.2662936778640415
 30
0.0
  9
$EXTMAX
 10
4325.0020052339887116
 20
595.5446314705380928
 30
0.0
  9
$LIMMIN
 10
0.0
 20
0.0
  9
$LIMMAX
 10
11.6929133858000007
 20
8.2677165353999982
  9
$ORTHOMODE
 70
     0
  9
$REGENMODE
 70
     1
  9
$FILLMODE
 70
     1
  9
$QTEXTMODE
 70
     0
  9
$MIRRTEXT
 70
     0
  9
$DRAGMODE
 70
     2
  9
$LTSCALE
 40
0.6431102362
  9
$OSMODE
 70
    19
  9
$ATTMODE
 70
     1
  9
$TEXTSIZE
 40
0.2
  9
$TRACEWID
 40
0.05
  9
$TEXTSTYLE
  7
STANDARD
  9
$CLAYER
  8
0
  9
$CELTYPE
  6
BYLAYER
  9
$CECOLOR
 62
   256
  9
$DIMSCALE
 40
1.0
  9
$DIMASZ
 40
0.1875
  9
$DIMEXO
 40
0.0625
  9
$DIMDLI
 40
0.4443307087
  9
$DIMRND
 40
0.0
  9
$DIMDLE
 40
0.0
  9
$DIMEXE
 40
0.125
  9
$DIMTP
 40
0.01
  9
$DIMTM
 40
0.01
  9
$DIMTXT
 40
2.0
  9
$DIMCEN
 40
0.1052362205
  9
$DIMTSZ
 40
0.0
  9
$DIMTOL
 70
     1
  9
$DIMLIM
 70
     0
  9
$DIMTIH
 70
     1
  9
$DIMTOH
 70
     1
  9
$DIMSE1
 70
     0
  9
$DIMSE2
 70
     0
  9
$DIMTAD
 70
     0
  9
$DIMZIN
 70
     0
  9
$DIMBLK
  1

  9
$DIMASO
 70
     1
  9
$DIMSHO
 70
     1
  9
$DIMPOST
  1
\X
  9
$DIMAPOST
  1

  9
$DIMALT
 70
     1
  9
$DIMALTD
 70
     2
  9
$DIMALTF
 40
25.3999999999999986
  9
$DIMLFAC
 40
1.0
  9
$DIMTOFL
 70
     0
  9
$DIMTVP
 40
0.0
  9
$DIMTIX
 70
     0
  9
$DIMSOXD
 70
     0
  9
$DIMSAH
 70
     0
  9
$DIMBLK1
  1

  9
$DIMBLK2
  1

  9
$DIMSTYLE
  2
STANDARD
  9
$DIMCLRD
 70
     0
  9
$DIMCLRE
 70
     0
  9
$DIMCLRT
 70
     0
  9
$DIMTFAC
 40
1.0
  9
$DIMGAP
 40
0.09
  9
$LUNITS
 70
     2
  9
$LUPREC
 70
     4
  9
$SKETCHINC
 40
0.1
  9
$FILLETRAD
 40
0.0
  9
$AUNITS
 70
     0
  9
$AUPREC
 70
     0
  9
$MENU
  1
.
  9
$ELEVATION
 40
0.0
  9
$PELEVATION
 40
0.0
  9
$THICKNESS
 40
0.0
  9
$LIMCHECK
 70
     0
  9
$BLIPMODE
 70
     0
  9
$CHAMFERA
 40
0.0
  9
$CHAMFERB
 40
0.0
  9
$SKPOLY
 70
     0
  9
$TDCREATE
 40
2458060.468368056230247
  9
$TDUPDATE
 40
2459697.5270833331160247
  9
$TDINDWG
 40
4.6925765045999999
  9
$TDUSRTIMER
 40
4.6925765045999999
  9
$USRTIMER
 70
     1
  9
$ANGBASE
 50
0.0
  9
$ANGDIR
 70
     0
  9
$PDMODE
 70
     0
  9
$PDSIZE
 40
0.3125
  9
$PLINEWID
 40
0.0
  9
$COORDS
 70
     1
  9
$SPLFRAME
 70
     0
  9
$SPLINETYPE
 70
     6
  9
$SPLINESEGS
 70
     8
  9
$ATTDIA
 70
     1
  9
$ATTREQ
 70
     1
  9
$HANDLING
 70
     1
  9
$HANDSEED
  5
24486
  9
$SURFTAB1
 70
     6
  9
$SURFTAB2
 70
     6
  9
$SURFTYPE
 70
     6
  9
$SURFU
 70
     6
  9
$SURFV
 70
     6
  9
$UCSNAME
  2

  9
$UCSORG
 10
0.0
 20
0.0
 30
0.0
  9
$UCSXDIR
 10
1.0
 20
0.0
 30
0.0
  9
$UCSYDIR
 10
0.0
 20
1.0
 30
0.0
  9
$PUCSNAME
  2

  9
$PUCSORG
 10
0.0
 20
0.0
 30
0.0
  9
$PUCSXDIR
 10
1.0
 20
0.0
 30
0.0
  9
$PUCSYDIR
 10
0.0
 20
1.0
 30
0.0
  9
$USERI1
 70
     0
  9
$USERI2
 70
     0
  9
$USERI3
 70
     0
  9
$USERI4
 70
     0
  9
$USERI5
 70
     0
  9
$USERR1
 40
0.0
  9
$USERR2
 40
0.0
  9
$USERR3
 40
0.0
  9
$USERR4
 40
0.0
  9
$USERR5
 40
0.0
  9
$WORLDVIEW
 70
     1
  9
$SHADEDGE
 70
     3
  9
$SHADEDIF
 70
    70
  9
$TILEMODE
 70
     1
  9
$MAXACTVP
 70
    64
  9
$PLIMCHECK
 70
     0
  9
$PEXTMIN
 10
1.0000000000000000E+20
 20
1.0000000000000000E+20
 30
1.0000000000000000E+20
  9
$PEXTMAX
 10
-1.0000000000000000E+20
 20
-1.0000000000000000E+20
 30
-1.0000000000000000E+20
  9
$PLIMMIN
 10
0.0
 20
0.0
  9
$PLIMMAX
 10
12.0
 20
9.0
  9
$UNITMODE
 70
     0
  9
$VISRETAIN
 70
     1
  9
$PLINEGEN
 70
     0
  9
$PSLTSCALE
 70
     1
  0
ENDSEC
  0
SECTION
  2
TABLES
  0
TABLE
  2
VPORT
 70
     1
  0
VPORT
  2
*ACTIVE
 70
     0
 10
0.0
 20
0.0
 11
1.0
 21
1.0
 12
86.8693880898822499
 22
-4.1641260152938058
 13
0.0
 23
0.0
 14
1.0
 24
1.0
 15
0.0
 25
0.0
 16
0.0
 26
0.0
 36
98.7941898181710343
 17
4236.431396484375
 27
598.728610913283319
 37
0.0
 40
2.612695121344073
 41
2.005224660397074
 42
50.0
 43
0.0
 44
0.0
 50
0.0
 51
0.0
 71
     0
 72
   100
 73
     1
 74
     1
 75
     0
 76
     0
 77
     0
 78
     0
  0
ENDTAB
  0
TABLE
  2
LTYPE
 70
     2
  0
LTYPE
  2
CONTINUOUS
 70
     0
  3
Solid line
 72
    65
 73
     0
 40
0.0
  0
LTYPE
  2
PHANTOM2
 70
     0
  3
___ _ _ ___ _ _ ___ _ _ ___ _ _
 72
    65
 73
     6
 40
1.25
 49
0.625
 49
-0.125
 49
0.125
 49
-0.125
 49
0.125
 49
-0.125
  0
ENDTAB
  0
TABLE
  2
LAYER
 70
     2
  0
LAYER
  2
0
 70
     0
 62
   255
  6
CONTINUOUS
  0
LAYER
  2
DEFPOINTS
 70
     0
 62
     7
  6
CONTINUOUS
  0
ENDTAB
  0
TABLE
  2
STYLE
 70
     1
  0
STYLE
  2
STANDARD
 70
     0
 40
0.0
 41
0.8
 50
0.0
 71
     0
 42
0.2
  3
txt
  4

  0
ENDTAB
  0
TABLE
  2
VIEW
 70
     0
  0
ENDTAB
  0
TABLE
  2
UCS
 70
     0
  0
ENDTAB
  0
TABLE
  2
APPID
 70
    10
  0
APPID
  2
ACAD
 70
     0
  0
APPID
  2
ACAD_MLEADERVER
 70
     0
  0
APPID
  2
ACAD_EXEMPT_FROM_CAD_STANDARDS
 70
     0
  0
APPID
  2
ACAD_NAV_VCDISPLAY
 70
     0
  0
APPID
  2
ACAECLAYERSTANDARD
 70
     0
  0
APPID
  2
ACCMTRANSPARENCY
 70
     0
  0
APPID
  2
ACAD_DSTYLE_DIMJAG
 70
     0
  0
APPID
  2
ACAD_DSTYLE_DIMTALN
 70
     0
  0
APPID
  2
ACDBATTR
 70
     0
  0
APPID
  2
DCO15
 70
     0
  0
ENDTAB
  0
TABLE
  2
DIMSTYLE
 70
     1
  0
DIMSTYLE
  2
STANDARD
 70
     0
  3

  4

  5

  6

  7

 40
1.0
 41
0.1875
 42
0.0625
 43
0.38
 44
0.125
 45
0.0
 46
0.0
 47
0.01
 48
0.01
140
0.15625
141
0.09
142
0.0
143
25.3999999999999986
144
1.0
145
0.0
146
1.0
147
0.09
 71
     1
 72
     0
 73
     1
 74
     1
 75
     0
 76
     0
 77
     0
 78
     4
170
     0
171
     2
172
     0
173
     0
174
     0
175
     0
176
     0
177
     0
178
     0
  0
ENDTAB
  0
ENDSEC
  0
SECTION
  2
BLOCKS
  0
BLOCK
  8
0
  2
$MODEL_SPACE
 70
     0
 10
0.0
 20
0.0
 30
0.0
  3
$MODEL_SPACE
  1

  0
ENDBLK
  5
21
  8
0
  0
BLOCK
 67
     1
  8
0
  2
$PAPER_SPACE
 70
     0
 10
0.0
 20
0.0
 30
0.0
  3
$PAPER_SPACE
  1

  0
ENDBLK
  5
1D
 67
     1
  8
0
  0
ENDSEC
  0
SECTION
  2
ENTITIES
  0
ATTDEF
  5
3930
  8
DEFPOINTS
 10
4324.9913385673207813
 20
594.5157721497406555
 30
0.0
 40
0.001
  1
P30682-00
  3

  2
MODELNUMBER
 70
     0
1001
ACDBATTR
1070
     0
1070
     1
  0
ATTDEF
  5
3931
  8
DEFPOINTS
 10
4324.9913385673207813
 20
594.5141054830739904
 30
0.0
 40
0.001
  1
KLYNE
  3

  2
TRADENAME
 70
     0
1001
ACDBATTR
1070
     0
1070
     1
  0
ATTDEF
  5
3932
  8
DEFPOINTS
 10
4324.9913385673207813
 20
594.5124388164073252
 30
0.0
 40
0.001
  1
TOILET TISSUE HOLDER
  3

  2
PRODUCT
 70
     0
1001
ACDBATTR
1070
     0
1070
     1
  0
LINE
  5
2435B
  8
0
 10
4324.9912133097514015
 20
595.4118574009188478
 30
0.0
 11
4324.9912133097514015
 21
593.6127965333939756
 31
0.0
  0
LINE
  5
2435C
  8
0
 10
4324.5912133097508558
 20
595.5026775420684544
 30
0.0
 11
4324.5912133097508558
 21
593.5219763922442553
 31
0.0
  0
LINE
  5
2435D
  8
0
 10
4324.8747144334520272
 20
595.5280819929470226
 30
0.0
 11
4324.8747144334520272
 21
593.4965719413659144
 31
0.0
  0
LINE
  5
2435E
  8
0
 10
4324.6308643332276915
 20
595.5426761046386446
 30
0.0
 11
4324.8548398039247331
 21
595.5446307089995344
 31
0.0
  0
ARC
  5
2435F
  8
0
 10
4324.6312133954015735
 20
595.5026775420685681
 30
0.0
 40
0.0400000856507794
 50
90.5000000098146842
 51
180.0000000003061018
  0
ARC
  5
24360
  8
0
 10
4324.8550143346119512
 20
595.5246314705634632
 30
0.0
 40
0.0199999999744635
 50
9.934725573839966
 51
90.5000004337995136
  0
ARC
  5
24361
  8
0
 10
4324.9909450157556421
 20
595.5484400744343247
 30
0.0
 40
0.1179999989181992
 50
189.9347253697679889
 51
261.7792273770153884
  0
ARC
  5
24362
  8
0
 10
4324.9712126027907289
 20
595.4118574009294207
 30
0.0
 40
0.020000706961147
 50
359.9999999696457849
 51
81.779227375277074
  0
LINE
  5
24364
  8
0
 10
4324.6308643332276915
 20
593.4819778296740651
 30
0.0
 11
4324.9510388268063252
 21
593.4791837091420348
 31
0.0
  0
ARC
  5
24365
  8
0
 10
4324.6312133954015735
 20
593.5219763922442553
 30
0.0
 40
0.0400000856507794
 50
179.9999999996938129
 51
269.4999999901853016
  0
ARC
  5
24366
  8
0
 10
4324.8550143346119512
 20
593.5000224637492465
 30
0.0
 40
0.0199999999744635
 50
269.4999995662004721
 51
350.0652744261599878
  0
ARC
  5
24367
  8
0
 10
4324.9909450157556421
 20
593.4762138598784986
 30
0.0
 40
0.1179999989181992
 50
98.2207726229846259
 51
170.0652746302320111
  0
ARC
  5
24368
  8
0
 10
4324.9712126027907289
 20
593.6127965333835164
 30
0.0
 40
0.0200007069611442
 50
278.2207726247229971
 51
0.0000000303541961
  0
ARC
  5
24369
  8
0
 10
4324.9916015617618541
 20
593.5780092154666363
 30
0.0
 40
0.0203888169017401
 50
123.6554814476407955
 51
179.5734942076915104
  0
LINE
  5
2436A
  8
0
 10
4324.971213309750965
 20
593.5781609869978865
 30
0.0
 11
4324.971213309750965
 21
593.4991894214980448
 31
0.0
  0
ARC
  5
2436B
  8
0
 10
4324.9512018313098451
 20
593.4991945243418741
 30
0.0
 40
0.0200114790916135
 50
269.5332891958271944
 51
359.9853898142008006
  0
LINE
  5
2436C
  8
0
 10
4324.5650326378518002
 20
595.1533240214639591
 30
0.0
 11
4321.6346797650512599
 21
594.2011381120639726
 31
0.0
  0
LINE
  5
2436D
  8
0
 10
4321.6070426318519822
 20
594.1634451285640353
 30
0.0
 11
4321.5995654306507276
 21
593.3066427392640207
 31
0.0
  0
LINE
  5
2436E
  8
0
 10
4322.3449020397520144
 20
594.3765121685640906
 30
0.0
 11
4322.335559338251187
 21
593.305944616363945
 31
0.0
  0
LINE
  5
2436F
  8
0
 10
4324.2855129041508917
 20
594.6731233449639831
 30
0.0
 11
4322.3430433375597204
 21
594.1635259937663704
 31
0.0
  0
LINE
  5
24370
  8
0
 10
4324.3356616988512542
 20
594.6347816963640298
 30
0.0
 11
4324.3420523807508289
 21
593.9024820811639529
 31
0.0
  0
LINE
  5
24371
  8
0
 10
4322.9102548275959634
 20
594.3123311425639486
 30
0.0
 11
4324.2988232337520458
 21
594.3123311425639486
 31
0.0
  0
ARC
  5
24372
  8
0
 10
4324.2988232337520458
 20
594.2723311425639849
 30
0.0
 40
0.0399999999999992
 50
0.4999999980371756
 51
90.0
  0
ARC
  5
24373
  8
0
 10
4324.2956632218410959
 20
594.6344326347355036
 30
0.0
 40
0.0400000000897997
 50
0.5000002976631132
 51
104.6999998271441967
  0
ARC
  5
24374
  8
0
 10
4322.3049035627091143
 20
594.3768612298484868
 30
0.0
 40
0.0400000001178065
 50
359.5000001956311166
 51
108.0010000007264068
  0
ARC
  5
24375
  8
0
 10
4324.5712133096858452
 20
595.1343029989144497
 30
0.0
 40
0.0200000000788803
 50
0.0
 51
108.0009998247926006
  0
LINE
  5
24376
  8
0
 10
4324.5712133097513288
 20
593.8628311425641186
 30
0.0
 11
4324.3820508576345674
 21
593.8628311425641186
 31
0.0
  0
ARC
  5
24377
  8
0
 10
4324.3820508576345674
 20
593.9028311425247466
 30
0.0
 40
0.0399999999607633
 50
180.4999999157327863
 51
270.0000000231369199
  0
ARC
  5
24378
  8
0
 10
4324.5712133097513288
 20
593.8828311425639868
 30
0.0
 40
0.0200000000000031
 50
270.0
 51
0.0
  0
ARC
  5
24379
  8
0
 10
4321.6470411086565946
 20
594.1630960672347328
 30
0.0
 40
0.0399999998813816
 50
108.000999857775696
 51
179.5000001283152926
  0
LINE
  5
2437A
  8
0
 10
4321.6395647084827942
 20
593.2662936778640415
 30
0.0
 11
4322.295560861197373
 21
593.2662936778640415
 31
0.0
  0
ARC
  5
2437B
  8
0
 10
4321.6395647084700613
 20
593.3062944718088829
 30
0.0
 40
0.0400007939448219
 50
179.5011472157374897
 51
270.0000000194892209
  0
ARC
  5
2437C
  8
0
 10
4322.295560861197373
 20
593.3062936779988377
 30
0.0
 40
0.0400000001347939
 50
270.0000000794680091
 51
359.4999996939145035
  0
VIEWPORT
  5
7BC8
 67
     1
  8
0
 10
8.4975296442687753
 20
4.5
 30
0.0
 40
16.9950592885375507
 41
9.0
 68
     1
 69
     1
1001
ACAD
1000
MVIEW
1002
{
1070
    16
1010
0.0
1020
0.0
1030
0.0
1010
0.0
1020
0.0
1030
1.0
1040
0.0
1040
9.0
1040
8.4975296442687753
1040
4.5
1040
50.0
1040
0.0
1040
0.0
1070
     0
1070
   100
1070
     1
1070
     1
1070
     0
1070
     0
1070
     0
1070
     0
1040
0.0
1040
0.0
1040
0.0
1040
1.0
1040
1.0
1040
0.0
1040
0.0
1070
     0
1002
{
1002
}
1002
}
  0
ENDSEC
  0
EOF
