  0
SECTION
  2
HEADER
  9
$ACADVER
  1
AC1009
  9
$INSBASE
 10
4317.2851582861785573
 20
592.0803580164799769
 30
0.0
  9
$EXTMIN
 10
4316.252853782798411
 20
588.6887086212534541
 30
0.0
  9
$EXTMAX
 10
4322.8487506178080366
 20
592.0848031990644813
 30
0.0
  9
$LIMMIN
 10
0.0
 20
0.0
  9
$LIMMAX
 10
11.6929133858000007
 20
8.2677165353999982
  9
$ORTHOMODE
 70
     0
  9
$REGENMODE
 70
     1
  9
$FILLMODE
 70
     1
  9
$QTEXTMODE
 70
     0
  9
$MIRRTEXT
 70
     0
  9
$DRAGMODE
 70
     2
  9
$LTSCALE
 40
0.6431102362
  9
$OSMODE
 70
    19
  9
$ATTMODE
 70
     1
  9
$TEXTSIZE
 40
0.2
  9
$TRACEWID
 40
0.05
  9
$TEXTSTYLE
  7
STANDARD
  9
$CLAYER
  8
0
  9
$CELTYPE
  6
BYLAYER
  9
$CECOLOR
 62
   256
  9
$DIMSCALE
 40
1.0
  9
$DIMASZ
 40
0.1875
  9
$DIMEXO
 40
0.0625
  9
$DIMDLI
 40
0.4443307087
  9
$DIMRND
 40
0.0
  9
$DIMDLE
 40
0.0
  9
$DIMEXE
 40
0.125
  9
$DIMTP
 40
0.01
  9
$DIMTM
 40
0.01
  9
$DIMTXT
 40
2.0
  9
$DIMCEN
 40
0.1052362205
  9
$DIMTSZ
 40
0.0
  9
$DIMTOL
 70
     1
  9
$DIMLIM
 70
     0
  9
$DIMTIH
 70
     1
  9
$DIMTOH
 70
     1
  9
$DIMSE1
 70
     0
  9
$DIMSE2
 70
     0
  9
$DIMTAD
 70
     0
  9
$DIMZIN
 70
     0
  9
$DIMBLK
  1

  9
$DIMASO
 70
     1
  9
$DIMSHO
 70
     1
  9
$DIMPOST
  1
\X
  9
$DIMAPOST
  1

  9
$DIMALT
 70
     1
  9
$DIMALTD
 70
     2
  9
$DIMALTF
 40
25.3999999999999986
  9
$DIMLFAC
 40
1.0
  9
$DIMTOFL
 70
     0
  9
$DIMTVP
 40
0.0
  9
$DIMTIX
 70
     0
  9
$DIMSOXD
 70
     0
  9
$DIMSAH
 70
     0
  9
$DIMBLK1
  1

  9
$DIMBLK2
  1

  9
$DIMSTYLE
  2
STANDARD
  9
$DIMCLRD
 70
     0
  9
$DIMCLRE
 70
     0
  9
$DIMCLRT
 70
     0
  9
$DIMTFAC
 40
1.0
  9
$DIMGAP
 40
0.09
  9
$LUNITS
 70
     2
  9
$LUPREC
 70
     4
  9
$SKETCHINC
 40
0.1
  9
$FILLETRAD
 40
0.0
  9
$AUNITS
 70
     0
  9
$AUPREC
 70
     0
  9
$MENU
  1
.
  9
$ELEVATION
 40
0.0
  9
$PELEVATION
 40
0.0
  9
$THICKNESS
 40
0.0
  9
$LIMCHECK
 70
     0
  9
$BLIPMODE
 70
     0
  9
$CHAMFERA
 40
0.0
  9
$CHAMFERB
 40
0.0
  9
$SKPOLY
 70
     0
  9
$TDCREATE
 40
2458060.468368056230247
  9
$TDUPDATE
 40
2459697.5269675920717418
  9
$TDINDWG
 40
4.6914885417000001
  9
$TDUSRTIMER
 40
4.6914885417000001
  9
$USRTIMER
 70
     1
  9
$ANGBASE
 50
0.0
  9
$ANGDIR
 70
     0
  9
$PDMODE
 70
     0
  9
$PDSIZE
 40
0.3125
  9
$PLINEWID
 40
0.0
  9
$COORDS
 70
     1
  9
$SPLFRAME
 70
     0
  9
$SPLINETYPE
 70
     6
  9
$SPLINESEGS
 70
     8
  9
$ATTDIA
 70
     1
  9
$ATTREQ
 70
     1
  9
$HANDLING
 70
     1
  9
$HANDSEED
  5
243B9
  9
$SURFTAB1
 70
     6
  9
$SURFTAB2
 70
     6
  9
$SURFTYPE
 70
     6
  9
$SURFU
 70
     6
  9
$SURFV
 70
     6
  9
$UCSNAME
  2

  9
$UCSORG
 10
0.0
 20
0.0
 30
0.0
  9
$UCSXDIR
 10
1.0
 20
0.0
 30
0.0
  9
$UCSYDIR
 10
0.0
 20
1.0
 30
0.0
  9
$PUCSNAME
  2

  9
$PUCSORG
 10
0.0
 20
0.0
 30
0.0
  9
$PUCSXDIR
 10
1.0
 20
0.0
 30
0.0
  9
$PUCSYDIR
 10
0.0
 20
1.0
 30
0.0
  9
$USERI1
 70
     0
  9
$USERI2
 70
     0
  9
$USERI3
 70
     0
  9
$USERI4
 70
     0
  9
$USERI5
 70
     0
  9
$USERR1
 40
0.0
  9
$USERR2
 40
0.0
  9
$USERR3
 40
0.0
  9
$USERR4
 40
0.0
  9
$USERR5
 40
0.0
  9
$WORLDVIEW
 70
     1
  9
$SHADEDGE
 70
     3
  9
$SHADEDIF
 70
    70
  9
$TILEMODE
 70
     1
  9
$MAXACTVP
 70
    64
  9
$PLIMCHECK
 70
     0
  9
$PEXTMIN
 10
1.0000000000000000E+20
 20
1.0000000000000000E+20
 30
1.0000000000000000E+20
  9
$PEXTMAX
 10
-1.0000000000000000E+20
 20
-1.0000000000000000E+20
 30
-1.0000000000000000E+20
  9
$PLIMMIN
 10
0.0
 20
0.0
  9
$PLIMMAX
 10
12.0
 20
9.0
  9
$UNITMODE
 70
     0
  9
$VISRETAIN
 70
     1
  9
$PLINEGEN
 70
     0
  9
$PSLTSCALE
 70
     1
  0
ENDSEC
  0
SECTION
  2
TABLES
  0
TABLE
  2
VPORT
 70
     1
  0
VPORT
  2
*ACTIVE
 70
     0
 10
0.0
 20
0.0
 11
1.0
 21
1.0
 12
83.1672683705401141
 22
-8.1155785265294327
 13
0.0
 23
0.0
 14
1.0
 24
1.0
 15
0.0
 25
0.0
 16
0.0
 26
0.0
 36
98.7941898181710343
 17
4236.431396484375
 27
598.728610913283319
 37
0.0
 40
3.9525674584782848
 41
2.005224660397074
 42
50.0
 43
0.0
 44
0.0
 50
0.0
 51
0.0
 71
     0
 72
   100
 73
     1
 74
     1
 75
     0
 76
     0
 77
     0
 78
     0
  0
ENDTAB
  0
TABLE
  2
LTYPE
 70
     2
  0
LTYPE
  2
CONTINUOUS
 70
     0
  3
Solid line
 72
    65
 73
     0
 40
0.0
  0
LTYPE
  2
PHANTOM2
 70
     0
  3
___ _ _ ___ _ _ ___ _ _ ___ _ _
 72
    65
 73
     6
 40
1.25
 49
0.625
 49
-0.125
 49
0.125
 49
-0.125
 49
0.125
 49
-0.125
  0
ENDTAB
  0
TABLE
  2
LAYER
 70
     2
  0
LAYER
  2
0
 70
     0
 62
   255
  6
CONTINUOUS
  0
LAYER
  2
DEFPOINTS
 70
     0
 62
     7
  6
CONTINUOUS
  0
ENDTAB
  0
TABLE
  2
STYLE
 70
     1
  0
STYLE
  2
STANDARD
 70
     0
 40
0.0
 41
0.8
 50
0.0
 71
     0
 42
0.2
  3
txt
  4

  0
ENDTAB
  0
TABLE
  2
VIEW
 70
     0
  0
ENDTAB
  0
TABLE
  2
UCS
 70
     0
  0
ENDTAB
  0
TABLE
  2
APPID
 70
    10
  0
APPID
  2
ACAD
 70
     0
  0
APPID
  2
ACAD_MLEADERVER
 70
     0
  0
APPID
  2
ACAD_EXEMPT_FROM_CAD_STANDARDS
 70
     0
  0
APPID
  2
ACAD_NAV_VCDISPLAY
 70
     0
  0
APPID
  2
ACAECLAYERSTANDARD
 70
     0
  0
APPID
  2
ACCMTRANSPARENCY
 70
     0
  0
APPID
  2
ACAD_DSTYLE_DIMJAG
 70
     0
  0
APPID
  2
ACAD_DSTYLE_DIMTALN
 70
     0
  0
APPID
  2
ACDBATTR
 70
     0
  0
APPID
  2
DCO15
 70
     0
  0
ENDTAB
  0
TABLE
  2
DIMSTYLE
 70
     1
  0
DIMSTYLE
  2
STANDARD
 70
     0
  3

  4

  5

  6

  7

 40
1.0
 41
0.1875
 42
0.0625
 43
0.38
 44
0.125
 45
0.0
 46
0.0
 47
0.01
 48
0.01
140
0.15625
141
0.09
142
0.0
143
25.3999999999999986
144
1.0
145
0.0
146
1.0
147
0.09
 71
     1
 72
     0
 73
     1
 74
     1
 75
     0
 76
     0
 77
     0
 78
     4
170
     0
171
     2
172
     0
173
     0
174
     0
175
     0
176
     0
177
     0
178
     0
  0
ENDTAB
  0
ENDSEC
  0
SECTION
  2
BLOCKS
  0
BLOCK
  8
0
  2
$MODEL_SPACE
 70
     0
 10
0.0
 20
0.0
 30
0.0
  3
$MODEL_SPACE
  1

  0
ENDBLK
  5
21
  8
0
  0
BLOCK
 67
     1
  8
0
  2
$PAPER_SPACE
 70
     0
 10
0.0
 20
0.0
 30
0.0
  3
$PAPER_SPACE
  1

  0
ENDBLK
  5
1D
 67
     1
  8
0
  0
ENDSEC
  0
SECTION
  2
ENTITIES
  0
ATTDEF
  5
3930
  8
DEFPOINTS
 10
4317.2852835437488466
 20
592.0838031990640502
 30
0.0
 40
0.001
  1
P30682-00
  3

  2
MODELNUMBER
 70
     0
1001
ACDBATTR
1070
     0
1070
     1
  0
ATTDEF
  5
3931
  8
DEFPOINTS
 10
4317.2852835437488466
 20
592.0821365323973851
 30
0.0
 40
0.001
  1
KLYNE
  3

  2
TRADENAME
 70
     0
1001
ACDBATTR
1070
     0
1070
     1
  0
ATTDEF
  5
3932
  8
DEFPOINTS
 10
4317.2852835437488466
 20
592.0804698657308336
 30
0.0
 40
0.001
  1
TOILET TISSUE HOLDER
  3

  2
PRODUCT
 70
     0
1001
ACDBATTR
1070
     0
1070
     1
  0
LINE
  5
24286
  8
0
 10
4316.3856278524172012
 20
592.0803580164799769
 30
0.0
 11
4318.1846887199408229
 21
592.0803580164799769
 31
0.0
  0
LINE
  5
24287
  8
0
 10
4316.294807711267822
 20
591.6803580164797722
 30
0.0
 11
4318.2755088610911116
 21
591.6803580164797722
 31
0.0
  0
LINE
  5
24288
  8
0
 10
4316.2694032603876622
 20
591.9638591401799204
 30
0.0
 11
4318.300913311970362
 21
591.9638591401799204
 31
0.0
  0
LINE
  5
24289
  8
0
 10
4316.2548091486969497
 20
591.7200090399564942
 30
0.0
 11
4316.2528545443374242
 21
591.9439845106536495
 31
0.0
  0
ARC
  5
2428A
  8
0
 10
4316.294807711266003
 20
591.7203581021307173
 30
0.0
 40
0.0400000856507794
 50
180.5000000098405906
 51
270.0000000003126956
  0
ARC
  5
2428B
  8
0
 10
4316.2728537827733817
 20
591.944159041341095
 30
0.0
 40
0.0199999999744635
 50
99.9347255738324236
 51
180.5000004337732946
  0
ARC
  5
2428C
  8
0
 10
4316.2490451789017243
 20
592.0800897224844448
 30
0.0
 40
0.1179999989181992
 50
279.9347253697831093
 51
351.7792273770310203
  0
ARC
  5
2428D
  8
0
 10
4316.3856278524062873
 20
592.0603573095187357
 30
0.0
 40
0.020000706961147
 50
89.9999999696197506
 51
171.779227375254095
  0
LINE
  5
2428E
  8
0
 10
4318.3155074236619839
 20
591.7200090399564942
 30
0.0
 11
4318.317462028022419
 21
591.9439845106278426
 31
0.0
  0
ARC
  5
2428F
  8
0
 10
4318.2755088610911116
 20
591.7203581021307173
 30
0.0
 40
0.0400000856507794
 50
269.999999999687418
 51
359.499999990159381
  0
ARC
  5
24290
  8
0
 10
4318.2974627895855519
 20
591.944159041341095
 30
0.0
 40
0.0199999999744635
 50
359.499999566226677
 51
80.0652744261675764
  0
ARC
  5
24291
  8
0
 10
4318.3212713934572093
 20
592.0800897224844448
 30
0.0
 40
0.1179999989181992
 50
188.2207726229690081
 51
260.0652746302170044
  0
ARC
  5
24292
  8
0
 10
4318.1846887199517369
 20
592.0603573095187357
 30
0.0
 40
0.0200007069611442
 50
8.2207726247459014
 51
90.0000000303802636
  0
ARC
  5
24293
  8
0
 10
4316.7184817030647537
 20
591.660358144100087
 30
0.0
 40
0.0200009139794066
 50
90.5847430262188738
 51
181.3205074705290087
  0
LINE
  5
24294
  8
0
 10
4316.6984861008286316
 20
591.659897219779964
 30
0.0
 11
4316.7028554766302477
 21
591.4702741120797782
 31
0.0
  0
ARC
  5
24295
  8
0
 10
4316.7428435813862961
 20
591.4711955348924448
 30
0.0
 40
0.0399987192553478
 50
181.3199999837146947
 51
230.2131531625300056
  0
ARC
  5
24296
  8
0
 10
4313.455981486006749
 20
591.3090566107847508
 30
0.0
 40
3.2639117431139151
 50
0.9604832065852695
 51
2.307309584541549
  0
LINE
  5
24297
  8
0
 10
4316.719434630728756
 20
591.3637689406798472
 30
0.0
 11
4316.7637510459289842
 21
588.96032952027997
 31
0.0
  0
ARC
  5
24298
  8
0
 10
4313.8969284424756552
 20
588.916040573792543
 30
0.0
 40
2.8671646884077302
 50
359.9458749528199064
 51
0.8850801797616535
  0
ARC
  5
24299
  8
0
 10
4316.7920597389756949
 20
588.8846916902459725
 30
0.0
 40
0.0400309194621384
 50
134.3193645876986011
 51
181.2991120052016925
  0
LINE
  5
2429A
  8
0
 10
4316.7520391090292833
 20
588.8837841156797595
 30
0.0
 11
4316.7547332944295704
 21
588.7668612809799242
 31
0.0
  0
ARC
  5
2429B
  8
0
 10
4316.8347086968733493
 20
588.7687052722666294
 30
0.0
 40
0.0799966580547669
 50
181.3208336359836892
 51
269.9759596266321182
  0
LINE
  5
2429C
  8
0
 10
4322.7687872308670194
 20
588.6887086212534541
 30
0.0
 11
4316.8346751315857546
 21
588.6887086212534541
 31
0.0
  0
LINE
  5
2429D
  8
0
 10
4322.7994085428554172
 20
589.434048269556115
 30
0.0
 11
4322.6434109763740707
 21
589.434048269556115
 31
0.0
  0
ARC
  5
2429E
  8
0
 10
4317.8522923623859242
 20
591.6603580338264692
 30
0.0
 40
0.0200015875431059
 50
359.9999503093210933
 51
89.2741766943240123
  0
LINE
  5
2429F
  8
0
 10
4317.8722939499293716
 20
591.6603580164799041
 30
0.0
 11
4317.8722939499293716
 21
591.4711955644798991
 31
0.0
  0
ARC
  5
242A0
  8
0
 10
4317.8322992048833839
 20
591.4711887106022914
 30
0.0
 40
0.0399947456329672
 50
311.0452208191280761
 51
0.0098187462290796
  0
ARC
  5
242A1
  8
0
 10
4320.9466109096401851
 20
591.3892979833312893
 30
0.0
 40
3.0884821777947771
 50
179.0403444790705123
 51
180.1017842186433882
  0
LINE
  5
242A2
  8
0
 10
4317.8581336052302504
 20
591.3838113910799166
 30
0.0
 11
4317.8689102160296898
 21
589.0211972603799495
 31
0.0
  0
ARC
  5
242A3
  8
0
 10
4317.9573787163326415
 20
589.021093703750239
 30
0.0
 40
0.0884685609135045
 50
179.9329325682022898
 51
269.6960508181330169
  0
LINE
  5
242A4
  8
0
 10
4317.9569094004291401
 20
588.9326263876798748
 30
0.0
 11
4322.5148377944296954
 21
588.9326263876798748
 31
0.0
  0
ARC
  5
242A5
  8
0
 10
4322.5147299351056063
 20
589.0223612042299237
 30
0.0
 40
0.0897348813722695
 50
270.0688682629187269
 51
0.3297753674798649
  0
LINE
  5
242A6
  8
0
 10
4322.604463330128965
 20
589.0228776853798536
 30
0.0
 11
4322.603411123429396
 21
589.3939348419798989
 31
0.0
  0
ARC
  5
242A7
  8
0
 10
4322.643410976334053
 20
589.3940482558741678
 30
0.0
 40
0.0400000136818939
 50
89.9999999420013381
 51
180.1624535992083054
  0
ARC
  5
242A8
  8
0
 10
4322.7994085429054394
 20
589.3940504190729825
 30
0.0
 40
0.0399978504830512
 50
44.9984604196025728
 51
90.0000000700882339
  0
LINE
  5
242A9
  8
0
 10
4322.82769205418208
 20
589.4223324103935511
 30
0.0
 11
4322.837034889129427
 21
589.4129898392799305
 31
0.0
  0
ARC
  5
242AA
  8
0
 10
4322.8087440482531747
 20
589.3847028470404439
 30
0.0
 40
0.0400065695533751
 50
359.9999995067573195
 51
44.9961025261815593
  0
LINE
  5
242AB
  8
0
 10
4322.8487506178071271
 20
588.7687065218957514
 30
0.0
 11
4322.8487506178071271
 21
589.3847028466958591
 31
0.0
  0
ARC
  5
242AC
  8
0
 10
4322.7687527097177735
 20
588.7687065218957514
 30
0.0
 40
0.0799979080906703
 50
270.0247245977600983
 51
0.0
  0
VIEWPORT
  5
7BC8
 67
     1
  8
0
 10
8.4975296442687753
 20
4.5
 30
0.0
 40
16.9950592885375507
 41
9.0
 68
     1
 69
     1
1001
ACAD
1000
MVIEW
1002
{
1070
    16
1010
0.0
1020
0.0
1030
0.0
1010
0.0
1020
0.0
1030
1.0
1040
0.0
1040
9.0
1040
8.4975296442687753
1040
4.5
1040
50.0
1040
0.0
1040
0.0
1070
     0
1070
   100
1070
     1
1070
     1
1070
     0
1070
     0
1070
     0
1070
     0
1040
0.0
1040
0.0
1040
0.0
1040
1.0
1040
1.0
1040
0.0
1040
0.0
1070
     0
1002
{
1002
}
1002
}
  0
ENDSEC
  0
EOF
