  0
SECTION
  2
HEADER
  9
$ACADVER
  1
AC1009
  9
$INSBASE
 10
4317.4184835918331373
 20
583.3583129009753065
 30
0.0
  9
$EXTMIN
 10
4316.2662247260759614
 20
582.1045872508717594
 30
-0.0000000000112498
  9
$EXTMAX
 10
4323.1930392891727024
 20
584.4352279838561799
 30
0.0000000000002956
  9
$LIMMIN
 10
0.0
 20
0.0
  9
$LIMMAX
 10
11.6929133858000007
 20
8.2677165353999982
  9
$ORTHOMODE
 70
     0
  9
$REGENMODE
 70
     1
  9
$FILLMODE
 70
     1
  9
$QTEXTMODE
 70
     0
  9
$MIRRTEXT
 70
     0
  9
$DRAGMODE
 70
     2
  9
$LTSCALE
 40
0.6431102362
  9
$OSMODE
 70
    19
  9
$ATTMODE
 70
     1
  9
$TEXTSIZE
 40
0.2
  9
$TRACEWID
 40
0.05
  9
$TEXTSTYLE
  7
STANDARD
  9
$CLAYER
  8
0
  9
$CELTYPE
  6
BYLAYER
  9
$CECOLOR
 62
   256
  9
$DIMSCALE
 40
1.0
  9
$DIMASZ
 40
0.1875
  9
$DIMEXO
 40
0.0625
  9
$DIMDLI
 40
0.4443307087
  9
$DIMRND
 40
0.0
  9
$DIMDLE
 40
0.0
  9
$DIMEXE
 40
0.125
  9
$DIMTP
 40
0.01
  9
$DIMTM
 40
0.01
  9
$DIMTXT
 40
2.0
  9
$DIMCEN
 40
0.1052362205
  9
$DIMTSZ
 40
0.0
  9
$DIMTOL
 70
     1
  9
$DIMLIM
 70
     0
  9
$DIMTIH
 70
     1
  9
$DIMTOH
 70
     1
  9
$DIMSE1
 70
     0
  9
$DIMSE2
 70
     0
  9
$DIMTAD
 70
     0
  9
$DIMZIN
 70
     0
  9
$DIMBLK
  1

  9
$DIMASO
 70
     1
  9
$DIMSHO
 70
     1
  9
$DIMPOST
  1
\X
  9
$DIMAPOST
  1

  9
$DIMALT
 70
     1
  9
$DIMALTD
 70
     2
  9
$DIMALTF
 40
25.3999999999999986
  9
$DIMLFAC
 40
1.0
  9
$DIMTOFL
 70
     0
  9
$DIMTVP
 40
0.0
  9
$DIMTIX
 70
     0
  9
$DIMSOXD
 70
     0
  9
$DIMSAH
 70
     0
  9
$DIMBLK1
  1

  9
$DIMBLK2
  1

  9
$DIMSTYLE
  2
STANDARD
  9
$DIMCLRD
 70
     0
  9
$DIMCLRE
 70
     0
  9
$DIMCLRT
 70
     0
  9
$DIMTFAC
 40
1.0
  9
$DIMGAP
 40
0.09
  9
$LUNITS
 70
     2
  9
$LUPREC
 70
     4
  9
$SKETCHINC
 40
0.1
  9
$FILLETRAD
 40
0.0
  9
$AUNITS
 70
     0
  9
$AUPREC
 70
     0
  9
$MENU
  1
.
  9
$ELEVATION
 40
0.0
  9
$PELEVATION
 40
0.0
  9
$THICKNESS
 40
0.0
  9
$LIMCHECK
 70
     0
  9
$BLIPMODE
 70
     0
  9
$CHAMFERA
 40
0.0
  9
$CHAMFERB
 40
0.0
  9
$SKPOLY
 70
     0
  9
$TDCREATE
 40
2458060.468368056230247
  9
$TDUPDATE
 40
2459697.5268518519587815
  9
$TDINDWG
 40
4.6908288194000001
  9
$TDUSRTIMER
 40
4.6908288194000001
  9
$USRTIMER
 70
     1
  9
$ANGBASE
 50
0.0
  9
$ANGDIR
 70
     0
  9
$PDMODE
 70
     0
  9
$PDSIZE
 40
0.3125
  9
$PLINEWID
 40
0.0
  9
$COORDS
 70
     1
  9
$SPLFRAME
 70
     0
  9
$SPLINETYPE
 70
     6
  9
$SPLINESEGS
 70
     8
  9
$ATTDIA
 70
     1
  9
$ATTREQ
 70
     1
  9
$HANDLING
 70
     1
  9
$HANDSEED
  5
24378
  9
$SURFTAB1
 70
     6
  9
$SURFTAB2
 70
     6
  9
$SURFTYPE
 70
     6
  9
$SURFU
 70
     6
  9
$SURFV
 70
     6
  9
$UCSNAME
  2

  9
$UCSORG
 10
0.0
 20
0.0
 30
0.0
  9
$UCSXDIR
 10
1.0
 20
0.0
 30
0.0
  9
$UCSYDIR
 10
0.0
 20
1.0
 30
0.0
  9
$PUCSNAME
  2

  9
$PUCSORG
 10
0.0
 20
0.0
 30
0.0
  9
$PUCSXDIR
 10
1.0
 20
0.0
 30
0.0
  9
$PUCSYDIR
 10
0.0
 20
1.0
 30
0.0
  9
$USERI1
 70
     0
  9
$USERI2
 70
     0
  9
$USERI3
 70
     0
  9
$USERI4
 70
     0
  9
$USERI5
 70
     0
  9
$USERR1
 40
0.0
  9
$USERR2
 40
0.0
  9
$USERR3
 40
0.0
  9
$USERR4
 40
0.0
  9
$USERR5
 40
0.0
  9
$WORLDVIEW
 70
     1
  9
$SHADEDGE
 70
     3
  9
$SHADEDIF
 70
    70
  9
$TILEMODE
 70
     1
  9
$MAXACTVP
 70
    64
  9
$PLIMCHECK
 70
     0
  9
$PEXTMIN
 10
1.0000000000000000E+20
 20
1.0000000000000000E+20
 30
1.0000000000000000E+20
  9
$PEXTMAX
 10
-1.0000000000000000E+20
 20
-1.0000000000000000E+20
 30
-1.0000000000000000E+20
  9
$PLIMMIN
 10
0.0
 20
0.0
  9
$PLIMMAX
 10
12.0
 20
9.0
  9
$UNITMODE
 70
     0
  9
$VISRETAIN
 70
     1
  9
$PLINEGEN
 70
     0
  9
$PSLTSCALE
 70
     1
  0
ENDSEC
  0
SECTION
  2
TABLES
  0
TABLE
  2
VPORT
 70
     1
  0
VPORT
  2
*ACTIVE
 70
     0
 10
0.0
 20
0.0
 11
1.0
 21
1.0
 12
83.2982355232497866
 22
-15.4587032959192303
 13
0.0
 23
0.0
 14
1.0
 24
1.0
 15
0.0
 25
0.0
 16
0.0
 26
0.0
 36
98.7941898181710343
 17
4236.431396484375
 27
598.728610913283319
 37
0.0
 40
3.4651725907590252
 41
2.005224660397074
 42
50.0
 43
0.0
 44
0.0
 50
0.0
 51
0.0
 71
     0
 72
   100
 73
     1
 74
     1
 75
     0
 76
     0
 77
     0
 78
     0
  0
ENDTAB
  0
TABLE
  2
LTYPE
 70
     2
  0
LTYPE
  2
CONTINUOUS
 70
     0
  3
Solid line
 72
    65
 73
     0
 40
0.0
  0
LTYPE
  2
PHANTOM2
 70
     0
  3
___ _ _ ___ _ _ ___ _ _ ___ _ _
 72
    65
 73
     6
 40
1.25
 49
0.625
 49
-0.125
 49
0.125
 49
-0.125
 49
0.125
 49
-0.125
  0
ENDTAB
  0
TABLE
  2
LAYER
 70
     2
  0
LAYER
  2
0
 70
     0
 62
   255
  6
CONTINUOUS
  0
LAYER
  2
DEFPOINTS
 70
     0
 62
     7
  6
CONTINUOUS
  0
ENDTAB
  0
TABLE
  2
STYLE
 70
     1
  0
STYLE
  2
STANDARD
 70
     0
 40
0.0
 41
0.8
 50
0.0
 71
     0
 42
0.2
  3
txt
  4

  0
ENDTAB
  0
TABLE
  2
VIEW
 70
     0
  0
ENDTAB
  0
TABLE
  2
UCS
 70
     0
  0
ENDTAB
  0
TABLE
  2
APPID
 70
    10
  0
APPID
  2
ACAD
 70
     0
  0
APPID
  2
ACAD_MLEADERVER
 70
     0
  0
APPID
  2
ACAD_EXEMPT_FROM_CAD_STANDARDS
 70
     0
  0
APPID
  2
ACAD_NAV_VCDISPLAY
 70
     0
  0
APPID
  2
ACAECLAYERSTANDARD
 70
     0
  0
APPID
  2
ACCMTRANSPARENCY
 70
     0
  0
APPID
  2
ACAD_DSTYLE_DIMJAG
 70
     0
  0
APPID
  2
ACAD_DSTYLE_DIMTALN
 70
     0
  0
APPID
  2
ACDBATTR
 70
     0
  0
APPID
  2
DCO15
 70
     0
  0
ENDTAB
  0
TABLE
  2
DIMSTYLE
 70
     1
  0
DIMSTYLE
  2
STANDARD
 70
     0
  3

  4

  5

  6

  7

 40
1.0
 41
0.1875
 42
0.0625
 43
0.38
 44
0.125
 45
0.0
 46
0.0
 47
0.01
 48
0.01
140
0.15625
141
0.09
142
0.0
143
25.3999999999999986
144
1.0
145
0.0
146
1.0
147
0.09
 71
     1
 72
     0
 73
     1
 74
     1
 75
     0
 76
     0
 77
     0
 78
     4
170
     0
171
     2
172
     0
173
     0
174
     0
175
     0
176
     0
177
     0
178
     0
  0
ENDTAB
  0
ENDSEC
  0
SECTION
  2
BLOCKS
  0
BLOCK
  8
0
  2
$MODEL_SPACE
 70
     0
 10
0.0
 20
0.0
 30
0.0
  3
$MODEL_SPACE
  1

  0
ENDBLK
  5
21
  8
0
  0
BLOCK
 67
     1
  8
0
  2
$PAPER_SPACE
 70
     0
 10
0.0
 20
0.0
 30
0.0
  3
$PAPER_SPACE
  1

  0
ENDBLK
  5
1D
 67
     1
  8
0
  0
ENDSEC
  0
SECTION
  2
ENTITIES
  0
ATTDEF
  5
3930
  8
DEFPOINTS
 10
4317.4186238034963026
 20
583.3618026079901711
 30
0.0
 40
0.001
  1
P30682-00
  3

  2
MODELNUMBER
 70
     0
1001
ACDBATTR
1070
     0
1070
     1
  0
ATTDEF
  5
3931
  8
DEFPOINTS
 10
4317.4186238034963026
 20
583.3601359413233922
 30
0.0
 40
0.001
  1
KLYNE
  3

  2
TRADENAME
 70
     0
1001
ACDBATTR
1070
     0
1070
     1
  0
ATTDEF
  5
3932
  8
DEFPOINTS
 10
4317.4186238034963026
 20
583.3584692746568408
 30
0.0
 40
0.001
  1
TOILET TISSUE HOLDER
  3

  2
PRODUCT
 70
     0
1001
ACDBATTR
1070
     0
1070
     1
  0
LINE
  5
242CD
  8
0
 10
4316.4858769709499029
 20
584.3906174043569308
 30
0.0
 11
4318.3510902127172812
 21
584.3906174043569308
 31
0.0
  0
LINE
  5
242CE
  8
0
 10
4316.4858769709499029
 20
582.3260083975936823
 30
0.0
 11
4316.8883437891563517
 21
582.3260083975936823
 31
0.0
  0
LINE
  5
242CF
  8
0
 10
4316.386179088451172
 20
584.2909164229613452
 30
0.0
 11
4316.386179088451172
 21
582.4257093789893815
 31
0.0
  0
LINE
  5
242D0
  8
0
 10
4318.4507880952151027
 20
584.2909164229613452
 30
0.0
 11
4318.4507880952151027
 21
583.0999156428829338
 31
0.0
  0
ARC
  5
242D1
  8
0
 10
4316.4860280607163077
 20
584.2907684367399952
 30
0.0
 40
0.099849081930094
 50
90.0866989369711462
 51
179.9150819532021899
  0
ARC
  5
242D2
  8
0
 10
4316.4860280607163077
 20
582.4258573652107316
 30
0.0
 40
0.099849081930094
 50
180.0849180467976964
 51
269.9133010630288823
  0
ARC
  5
242D3
  8
0
 10
4318.3509391229490575
 20
584.2907684367399952
 30
0.0
 40
0.099849081930094
 50
0.0849180467977145
 51
89.9133010630288538
  0
LINE
  5
242D4
  8
0
 10
4316.8949462105792918
 20
582.7088170763829567
 30
0.0
 11
4316.8714940008312624
 21
582.7088170763829567
 31
0.0
  0
LINE
  5
242D5
  8
0
 10
4316.924747527578802
 20
582.1122796116829932
 30
0.0
 11
4322.9420759234772049
 21
582.1122796116829932
 31
0.0
  0
LINE
  5
242D6
  8
0
 10
4316.8896773588312499
 20
584.0002889328120546
 30
0.0
 11
4317.944461939782741
 21
584.0002889328120546
 31
0.0
  0
LINE
  5
242D7
  8
0
 10
4316.9816985905872571
 20
583.047124045883038
 30
0.0
 11
4322.8956388793603764
 21
583.047124045883038
 31
0.0
  0
LINE
  5
242D8
  8
0
 10
4316.8853593682224528
 20
582.1529698532830253
 30
0.0
 11
4316.8968594031830435
 21
582.8197488878829517
 31
0.0
  0
ARC
  5
242D9
  8
0
 10
4311.965303100501842
 20
582.8902988223391048
 30
0.0
 40
4.9320609140358611
 50
359.1803930605005917
 51
0.2266497310767427
  0
ARC
  5
242DA
  8
0
 10
4316.3536207795486916
 20
582.9058336074639328
 30
0.0
 40
0.543719178788218
 50
0.4189143575278689
 51
2.6829462180987318
  0
LINE
  5
242DB
  8
0
 10
4316.8967439614843897
 20
582.9312846315830257
 30
0.0
 11
4316.8472622942026646
 21
583.634418893983252
 31
0.0
  0
LINE
  5
242DC
  8
0
 10
4316.8529487660825907
 20
583.9601074430828476
 30
0.0
 11
4316.8318120132080367
 21
582.7495152652828665
 31
0.0
  0
ARC
  5
242DD
  8
0
 10
4316.871817421842934
 20
582.7488270963201558
 30
0.0
 40
0.0400113271027854
 50
179.014501036338288
 51
269.5368596304596167
  0
ARC
  5
242DE
  8
0
 10
4316.9254017010061943
 20
582.1523218442332563
 30
0.0
 40
0.0400475758379367
 50
179.0728576395310938
 51
269.0640371429552147
  0
ARC
  5
242DF
  8
0
 10
4316.8938093688857407
 20
583.9596350459958103
 30
0.0
 40
0.0408633334465964
 50
95.8035415379353452
 51
179.337622264901114
  0
LINE
  5
242E0
  8
0
 10
4322.9727316989828978
 20
583.2231962252830044
 30
0.0
 11
4322.9820744003827713
 21
582.1526286730828588
 31
0.0
  0
ARC
  5
242E1
  8
0
 10
4322.9420759234772049
 20
582.1522796116663585
 30
0.0
 40
0.0399999999835383
 50
270.000000008806694
 51
0.4999999952298451
  0
ARC
  5
242E2
  8
0
 10
4316.9822615563361978
 20
583.1547567574182267
 30
0.0
 40
0.1076341838026355
 50
258.6102336480802251
 51
269.7003209639460124
  0
ARC
  5
242E3
  8
0
 10
4316.9706779027528682
 20
583.0972552327993981
 30
0.0
 40
0.0489775016275107
 50
241.8768847801524942
 51
258.6102336480802251
  0
ARC
  5
242E4
  8
0
 10
4316.9357540030532618
 20
583.0235783006927477
 30
0.0
 40
0.0326997038026362
 50
68.7765627111894275
 51
181.8670897569529075
  0
LINE
  5
242E5
  8
0
 10
4316.9030716596826096
 20
583.0225129084830087
 30
0.0
 11
4316.8973254255834036
 21
582.9098089393829696
 31
0.0
  0
ARC
  5
242E6
  8
0
 10
4317.9439136093333218
 20
583.9597146159228487
 30
0.0
 40
0.0405780218507216
 50
0.3431854284483682
 51
89.2257390736949105
  0
LINE
  5
242E7
  8
0
 10
4317.9844909032835858
 20
583.9599576652830137
 30
0.0
 11
4317.999235932216834
 21
583.1152155203673146
 31
0.0
  0
ARC
  5
242E8
  8
0
 10
4318.0879037243566927
 20
583.3643174378212279
 30
0.0
 40
0.26441206977435
 50
250.4068203197990101
 51
270.5051098654136013
  0
LINE
  5
242E9
  8
0
 10
4318.0902347060819011
 20
583.0999156428829338
 30
0.0
 11
4322.6509148350542091
 21
583.0999156428829338
 31
0.0
  0
ARC
  5
242EA
  8
0
 10
4322.6500794252679043
 20
583.4110712216897809
 30
0.0
 40
0.3111567002849185
 50
270.1538308908079102
 51
280.8945475604398894
  0
ARC
  5
242EB
  8
0
 10
4322.6828094120646711
 20
583.2409996930904299
 30
0.0
 40
0.1379643885508261
 50
280.8961148112084061
 51
293.4359009300201251
  0
LINE
  5
242EC
  8
0
 10
4322.7376810043597288
 20
583.1144165944266433
 30
0.0
 11
4322.7367377913833479
 21
583.2224981023829287
 31
0.0
  0
ARC
  5
242ED
  8
0
 10
4322.7767362683061947
 20
583.2228471637829443
 30
0.0
 40
0.0399999999999483
 50
90.0000000325167662
 51
180.4999999715186902
  0
LINE
  5
242EE
  8
0
 10
4322.7767362682825478
 20
583.2628471637830216
 30
0.0
 11
4322.932733221982744
 21
583.2628471637830216
 31
0.0
  0
ARC
  5
242EF
  8
0
 10
4322.932733221982744
 20
583.2228471637041594
 30
0.0
 40
0.0400000000788179
 50
0.5000002266080933
 51
90.0
  0
ARC
  5
242F0
  8
0
 10
4322.895119562371292
 20
583.1493849201916646
 30
0.0
 40
0.1022621929382724
 50
270.2909657880188092
 51
285.8939863000779269
  0
ARC
  5
242F1
  8
0
 10
4322.9172289026710132
 20
583.0700051334357568
 30
0.0
 40
0.0198679369922484
 50
287.2630997831423088
 51
330.2889749466453964
  0
ARC
  5
242F2
  8
0
 10
4322.9352579095402689
 20
583.0206112794369346
 30
0.0
 40
0.0395543454434722
 50
7.7256163098624651
 51
91.1197658837529048
  0
LINE
  5
242F3
  8
0
 10
4316.9168480649577759
 20
583.0502585580652521
 30
0.0
 11
4316.8529487660825907
 21
583.9601074430828476
 31
0.0
  0
VIEWPORT
  5
7BC8
 67
     1
  8
0
 10
8.4975296442687753
 20
4.5
 30
0.0
 40
16.9950592885375507
 41
9.0
 68
     1
 69
     1
1001
ACAD
1000
MVIEW
1002
{
1070
    16
1010
0.0
1020
0.0
1030
0.0
1010
0.0
1020
0.0
1030
1.0
1040
0.0
1040
9.0
1040
8.4975296442687753
1040
4.5
1040
50.0
1040
0.0
1040
0.0
1070
     0
1070
   100
1070
     1
1070
     1
1070
     0
1070
     0
1070
     0
1070
     0
1040
0.0
1040
0.0
1040
0.0
1040
1.0
1040
1.0
1040
0.0
1040
0.0
1070
     0
1002
{
1002
}
1002
}
  0
ENDSEC
  0
EOF
