  0
SECTION
  2
HEADER
  9
$ACADVER
  1
AC1009
  9
$INSBASE
 10
4314.6597204912131929
 20
586.5568160245198897
 30
0.0
  9
$EXTMIN
 10
4307.5069090459310246
 20
585.5168229289174633
 30
-0.0000000000000058
  9
$EXTMAX
 10
4322.0151791879989105
 20
587.6238686755965546
 30
0.0000000000000104
  9
$LIMMIN
 10
0.0
 20
0.0
  9
$LIMMAX
 10
11.6929133858000007
 20
8.2677165353999982
  9
$ORTHOMODE
 70
     0
  9
$REGENMODE
 70
     1
  9
$FILLMODE
 70
     1
  9
$QTEXTMODE
 70
     0
  9
$MIRRTEXT
 70
     0
  9
$DRAGMODE
 70
     2
  9
$LTSCALE
 40
0.6431102362
  9
$OSMODE
 70
    19
  9
$ATTMODE
 70
     1
  9
$TEXTSIZE
 40
0.2
  9
$TRACEWID
 40
0.05
  9
$TEXTSTYLE
  7
STANDARD
  9
$CLAYER
  8
0
  9
$CELTYPE
  6
BYLAYER
  9
$CECOLOR
 62
   256
  9
$DIMSCALE
 40
1.0
  9
$DIMASZ
 40
0.1875
  9
$DIMEXO
 40
0.0625
  9
$DIMDLI
 40
0.4443307087
  9
$DIMRND
 40
0.0
  9
$DIMDLE
 40
0.0
  9
$DIMEXE
 40
0.125
  9
$DIMTP
 40
0.01
  9
$DIMTM
 40
0.01
  9
$DIMTXT
 40
2.0
  9
$DIMCEN
 40
0.1052362205
  9
$DIMTSZ
 40
0.0
  9
$DIMTOL
 70
     1
  9
$DIMLIM
 70
     0
  9
$DIMTIH
 70
     1
  9
$DIMTOH
 70
     1
  9
$DIMSE1
 70
     0
  9
$DIMSE2
 70
     0
  9
$DIMTAD
 70
     0
  9
$DIMZIN
 70
     0
  9
$DIMBLK
  1

  9
$DIMASO
 70
     1
  9
$DIMSHO
 70
     1
  9
$DIMPOST
  1
\X
  9
$DIMAPOST
  1

  9
$DIMALT
 70
     1
  9
$DIMALTD
 70
     2
  9
$DIMALTF
 40
25.3999999999999986
  9
$DIMLFAC
 40
1.0
  9
$DIMTOFL
 70
     0
  9
$DIMTVP
 40
0.0
  9
$DIMTIX
 70
     0
  9
$DIMSOXD
 70
     0
  9
$DIMSAH
 70
     0
  9
$DIMBLK1
  1

  9
$DIMBLK2
  1

  9
$DIMSTYLE
  2
STANDARD
  9
$DIMCLRD
 70
     0
  9
$DIMCLRE
 70
     0
  9
$DIMCLRT
 70
     0
  9
$DIMTFAC
 40
1.0
  9
$DIMGAP
 40
0.09
  9
$LUNITS
 70
     2
  9
$LUPREC
 70
     4
  9
$SKETCHINC
 40
0.1
  9
$FILLETRAD
 40
0.0
  9
$AUNITS
 70
     0
  9
$AUPREC
 70
     0
  9
$MENU
  1
.
  9
$ELEVATION
 40
0.0
  9
$PELEVATION
 40
0.0
  9
$THICKNESS
 40
0.0
  9
$LIMCHECK
 70
     0
  9
$BLIPMODE
 70
     0
  9
$CHAMFERA
 40
0.0
  9
$CHAMFERB
 40
0.0
  9
$SKPOLY
 70
     0
  9
$TDCREATE
 40
2458060.468368056230247
  9
$TDUPDATE
 40
2459698.6094328709878027
  9
$TDINDWG
 40
4.6871482639000002
  9
$TDUSRTIMER
 40
4.6871482639000002
  9
$USRTIMER
 70
     1
  9
$ANGBASE
 50
0.0
  9
$ANGDIR
 70
     0
  9
$PDMODE
 70
     0
  9
$PDSIZE
 40
0.3125
  9
$PLINEWID
 40
0.0
  9
$COORDS
 70
     1
  9
$SPLFRAME
 70
     0
  9
$SPLINETYPE
 70
     6
  9
$SPLINESEGS
 70
     8
  9
$ATTDIA
 70
     1
  9
$ATTREQ
 70
     1
  9
$HANDLING
 70
     1
  9
$HANDSEED
  5
2422D
  9
$SURFTAB1
 70
     6
  9
$SURFTAB2
 70
     6
  9
$SURFTYPE
 70
     6
  9
$SURFU
 70
     6
  9
$SURFV
 70
     6
  9
$UCSNAME
  2

  9
$UCSORG
 10
0.0
 20
0.0
 30
0.0
  9
$UCSXDIR
 10
1.0
 20
0.0
 30
0.0
  9
$UCSYDIR
 10
0.0
 20
1.0
 30
0.0
  9
$PUCSNAME
  2

  9
$PUCSORG
 10
0.0
 20
0.0
 30
0.0
  9
$PUCSXDIR
 10
1.0
 20
0.0
 30
0.0
  9
$PUCSYDIR
 10
0.0
 20
1.0
 30
0.0
  9
$USERI1
 70
     0
  9
$USERI2
 70
     0
  9
$USERI3
 70
     0
  9
$USERI4
 70
     0
  9
$USERI5
 70
     0
  9
$USERR1
 40
0.0
  9
$USERR2
 40
0.0
  9
$USERR3
 40
0.0
  9
$USERR4
 40
0.0
  9
$USERR5
 40
0.0
  9
$WORLDVIEW
 70
     1
  9
$SHADEDGE
 70
     3
  9
$SHADEDIF
 70
    70
  9
$TILEMODE
 70
     1
  9
$MAXACTVP
 70
    64
  9
$PLIMCHECK
 70
     0
  9
$PEXTMIN
 10
1.0000000000000000E+20
 20
1.0000000000000000E+20
 30
1.0000000000000000E+20
  9
$PEXTMAX
 10
-1.0000000000000000E+20
 20
-1.0000000000000000E+20
 30
-1.0000000000000000E+20
  9
$PLIMMIN
 10
0.0
 20
0.0
  9
$PLIMMAX
 10
12.0
 20
9.0
  9
$UNITMODE
 70
     0
  9
$VISRETAIN
 70
     1
  9
$PLINEGEN
 70
     0
  9
$PSLTSCALE
 70
     1
  0
ENDSEC
  0
SECTION
  2
TABLES
  0
TABLE
  2
VPORT
 70
     1
  0
VPORT
  2
*ACTIVE
 70
     0
 10
0.0
 20
0.0
 11
1.0
 21
1.0
 12
78.3296476325904223
 22
-12.1582651110262496
 13
0.0
 23
0.0
 14
1.0
 24
1.0
 15
0.0
 25
0.0
 16
0.0
 26
0.0
 36
98.7941898181710343
 17
4236.431396484375
 27
598.728610913283319
 37
0.0
 40
7.2578325257118177
 41
2.005224660397074
 42
50.0
 43
0.0
 44
0.0
 50
0.0
 51
0.0
 71
     0
 72
   100
 73
     1
 74
     1
 75
     0
 76
     0
 77
     0
 78
     0
  0
ENDTAB
  0
TABLE
  2
LTYPE
 70
     2
  0
LTYPE
  2
CONTINUOUS
 70
     0
  3
Solid line
 72
    65
 73
     0
 40
0.0
  0
LTYPE
  2
PHANTOM2
 70
     0
  3
___ _ _ ___ _ _ ___ _ _ ___ _ _
 72
    65
 73
     6
 40
1.25
 49
0.625
 49
-0.125
 49
0.125
 49
-0.125
 49
0.125
 49
-0.125
  0
ENDTAB
  0
TABLE
  2
LAYER
 70
     2
  0
LAYER
  2
0
 70
     0
 62
   255
  6
CONTINUOUS
  0
LAYER
  2
DEFPOINTS
 70
     0
 62
     7
  6
CONTINUOUS
  0
ENDTAB
  0
TABLE
  2
STYLE
 70
     1
  0
STYLE
  2
STANDARD
 70
     0
 40
0.0
 41
0.8
 50
0.0
 71
     0
 42
0.2
  3
txt
  4

  0
ENDTAB
  0
TABLE
  2
VIEW
 70
     0
  0
ENDTAB
  0
TABLE
  2
UCS
 70
     0
  0
ENDTAB
  0
TABLE
  2
APPID
 70
    10
  0
APPID
  2
ACAD
 70
     0
  0
APPID
  2
ACAD_MLEADERVER
 70
     0
  0
APPID
  2
ACAD_EXEMPT_FROM_CAD_STANDARDS
 70
     0
  0
APPID
  2
ACAD_NAV_VCDISPLAY
 70
     0
  0
APPID
  2
ACAECLAYERSTANDARD
 70
     0
  0
APPID
  2
ACCMTRANSPARENCY
 70
     0
  0
APPID
  2
ACAD_DSTYLE_DIMJAG
 70
     0
  0
APPID
  2
ACAD_DSTYLE_DIMTALN
 70
     0
  0
APPID
  2
ACDBATTR
 70
     0
  0
APPID
  2
DCO15
 70
     0
  0
ENDTAB
  0
TABLE
  2
DIMSTYLE
 70
     1
  0
DIMSTYLE
  2
STANDARD
 70
     0
  3

  4

  5

  6

  7

 40
1.0
 41
0.1875
 42
0.0625
 43
0.38
 44
0.125
 45
0.0
 46
0.0
 47
0.01
 48
0.01
140
0.15625
141
0.09
142
0.0
143
25.3999999999999986
144
1.0
145
0.0
146
1.0
147
0.09
 71
     1
 72
     0
 73
     1
 74
     1
 75
     0
 76
     0
 77
     0
 78
     4
170
     0
171
     2
172
     0
173
     0
174
     0
175
     0
176
     0
177
     0
178
     0
  0
ENDTAB
  0
ENDSEC
  0
SECTION
  2
BLOCKS
  0
BLOCK
  8
0
  2
$MODEL_SPACE
 70
     0
 10
0.0
 20
0.0
 30
0.0
  3
$MODEL_SPACE
  1

  0
ENDBLK
  5
21
  8
0
  0
BLOCK
 67
     1
  8
0
  2
$PAPER_SPACE
 70
     0
 10
0.0
 20
0.0
 30
0.0
  3
$PAPER_SPACE
  1

  0
ENDBLK
  5
1D
 67
     1
  8
0
  0
ENDSEC
  0
SECTION
  2
ENTITIES
  0
ATTDEF
  5
3930
  8
DEFPOINTS
 10
4314.6601395587522347
 20
586.5606234265783314
 30
0.0
 40
0.001
  1
P30658-BL
  3

  2
MODELNUMBER
 70
     0
1001
ACDBATTR
1070
     0
1070
     1
  0
ATTDEF
  5
3931
  8
DEFPOINTS
 10
4314.6601395587522347
 20
586.5589567599115526
 30
0.0
 40
0.001
  1
KLYNE
  3

  2
TRADENAME
 70
     0
1001
ACDBATTR
1070
     0
1070
     1
  0
ATTDEF
  5
3932
  8
DEFPOINTS
 10
4314.6601395587522347
 20
586.5572900932448874
 30
0.0
 40
0.001
  1
TOWEL BAR
  3

  2
PRODUCT
 70
     0
1001
ACDBATTR
1070
     0
1070
     1
  0
LINE
  5
24104
  8
0
 10
4307.6274392983177677
 20
587.4894076523329431
 30
0.0
 11
4307.6274392983177677
 21
585.6242243967069498
 31
0.0
  0
LINE
  5
24105
  8
0
 10
4321.1474493376654209
 20
585.5483167286832895
 30
0.0
 11
4308.1719916447600554
 21
585.5483167286832895
 31
0.0
  0
LINE
  5
24106
  8
0
 10
4308.1382181928956925
 20
585.9073237900834101
 30
0.0
 11
4308.1162486574921786
 21
585.9073237900834101
 31
0.0
  0
LINE
  5
24107
  8
0
 10
4309.5933765996242073
 20
587.5891174196141264
 30
0.0
 11
4307.7261047872007111
 21
587.5891174196141264
 31
0.0
  0
LINE
  5
24108
  8
0
 10
4308.141705887263015
 20
586.2671753601833871
 30
0.0
 11
4308.13513015254739
 21
585.5887075206834425
 31
0.0
  0
ARC
  5
24109
  8
0
 10
4308.1753505751476041
 20
585.5883978449345477
 30
0.0
 40
0.0402216147524864
 50
179.558861849949011
 51
265.209617127319575
  0
ARC
  5
2410A
  8
0
 10
4305.6384876630927465
 20
586.2851456688839562
 30
0.0
 40
2.5032827267035538
 50
359.5886874152525934
 51
1.468689633106969
  0
ARC
  5
2410B
  8
0
 10
4307.7999345305988754
 20
586.3396541373612081
 30
0.0
 40
0.3411500586195835
 50
1.6213140895613649
 51
4.4067951301365911
  0
LINE
  5
2410C
  8
0
 10
4308.1400760290616745
 20
586.3658671783833825
 30
0.0
 11
4308.0855907399136413
 21
586.8778323504171794
 31
0.0
  0
LINE
  5
2410D
  8
0
 10
4308.088406077561558
 20
587.158366097883345
 30
0.0
 11
4308.0762565124523462
 21
585.9477251534833613
 31
0.0
  0
ARC
  5
2410E
  8
0
 10
4308.1162562439303656
 20
585.9473255171690198
 30
0.0
 40
0.0400017278049578
 50
179.4275783490120091
 51
269.9891336979882226
  0
ARC
  5
2410F
  8
0
 10
4307.7272957811110246
 20
587.4892679418580883
 30
0.0
 40
0.0998565805274603
 50
90.6833855321578994
 51
179.919836798683491
  0
LINE
  5
24110
  8
0
 10
4308.1282427249616376
 20
587.1987956464952276
 30
0.0
 11
4309.1912386618623714
 21
587.1987956464952276
 31
0.0
  0
LINE
  5
24111
  8
0
 10
4308.2265783969041877
 20
586.483161162883448
 30
0.0
 11
4310.2928204912632282
 21
586.483161162883448
 31
0.0
  0
LINE
  5
24112
  8
0
 10
4310.3728204912631554
 20
586.483161162883448
 30
0.0
 11
4318.9466204911632303
 21
586.483161162883448
 31
0.0
  0
LINE
  5
24113
  8
0
 10
4309.2634224307876138
 20
586.5359527598833438
 30
0.0
 11
4310.2928204912632282
 21
586.5359527598833438
 31
0.0
  0
LINE
  5
24114
  8
0
 10
4310.3728204912631554
 20
586.5359527598833438
 30
0.0
 11
4318.9466204911632303
 21
586.5359527598833438
 31
0.0
  0
ARC
  5
24115
  8
0
 10
4308.1287194449832896
 20
587.1584849227344876
 30
0.0
 40
0.0403135425394575
 50
90.6775559790114301
 51
180.1688805275873051
  0
ARC
  5
24116
  8
0
 10
4308.2268198089832367
 20
586.5942694656707772
 30
0.0
 40
0.1111085650528361
 50
258.8083793233753909
 51
269.8755100097907871
  0
ARC
  5
24117
  8
0
 10
4308.2145631868143028
 20
586.5323214531301801
 30
0.0
 40
0.0479596850567238
 50
241.2772530715583059
 51
258.8083793233753909
  0
ARC
  5
24118
  8
0
 10
4308.1957654051702775
 20
586.4980189399008168
 30
0.0
 40
0.0088442276447103
 50
194.5503072161650095
 51
241.2772530715583059
  0
ARC
  5
24119
  8
0
 10
4308.1866779579158901
 20
586.4563046385904954
 30
0.0
 40
0.0394958807285565
 50
89.2356491675330119
 51
177.3129557566304868
  0
LINE
  5
2411A
  8
0
 10
4308.1472255028629661
 20
586.4581562283833591
 30
0.0
 11
4308.141705887263015
 21
586.2671753601833871
 31
0.0
  0
LINE
  5
2411B
  8
0
 10
4308.1000036843515772
 20
587.1867795653988651
 30
0.0
 11
4308.1596038526577104
 21
586.4850608104322873
 31
0.0
  0
ARC
  5
2411C
  8
0
 10
4309.2653764891410901
 20
586.769821644321496
 30
0.0
 40
0.2338770477244933
 50
244.8763609633504075
 51
269.5212843659807049
  0
ARC
  5
2411D
  8
0
 10
4309.5921856057148034
 20
587.4892679418580883
 30
0.0
 40
0.0998565805274603
 50
0.0801632013165189
 51
89.3166144678421148
  0
LINE
  5
2411E
  8
0
 10
4309.6920420885062413
 20
587.4894076523329431
 30
0.0
 11
4309.6920420885062413
 21
586.5359527598833438
 31
0.0
  0
LINE
  5
2411F
  8
0
 10
4309.1985435403912561
 20
586.545697057509301
 30
0.0
 11
4309.2338906469121866
 21
586.8778323504171794
 31
0.0
  0
LINE
  5
24120
  8
0
 10
4309.2310753092633604
 20
587.158366097883345
 30
0.0
 11
4309.2373047433702595
 21
586.5376354032525796
 31
0.0
  0
ARC
  5
24121
  8
0
 10
4309.1907619418434479
 20
587.1584849227344876
 30
0.0
 40
0.0403135425394575
 50
359.8311194724125812
 51
89.3224440209885842
  0
LINE
  5
24122
  8
0
 10
4309.2194777024733412
 20
587.1867795653988651
 30
0.0
 11
4309.1660786081138212
 21
586.5580708372964409
 31
0.0
  0
LINE
  5
24123
  8
0
 10
4310.3028204912616275
 20
586.5259527598833529
 30
0.0
 11
4310.3028204912616275
 21
585.5583191388004707
 31
0.0
  0
LINE
  5
24124
  8
0
 10
4310.3628204912620276
 20
586.5259527598833529
 30
0.0
 11
4310.3628204912620276
 21
585.5583178709832737
 31
0.0
  0
ARC
  5
24125
  8
0
 10
4310.2928204912632282
 20
586.5259527598833529
 30
0.0
 40
0.0099999999999962
 50
359.9999971351891759
 51
90.0
  0
ARC
  5
24126
  8
0
 10
4310.3728204912631554
 20
586.5259527598833529
 30
0.0
 40
0.009999999999998
 50
90.0
 51
180.0000005729646944
  0
LINE
  5
24127
  8
0
 10
4310.3677600788096242
 20
586.5345778526833556
 30
0.0
 11
4310.2978809037158499
 21
586.5345778526833556
 31
0.0
  0
LINE
  5
24128
  8
0
 10
4310.3028204912616275
 20
586.5134766275834863
 30
0.0
 11
4310.3528204912627189
 21
586.5134766275834863
 31
0.0
  0
ARC
  5
24129
  8
0
 10
4310.3528204912627189
 20
586.5034766275832681
 30
0.0
 40
0.010000000000003
 50
0.0
 51
90.0
  0
LINE
  5
2412A
  8
0
 10
4310.3028204912616275
 20
585.568316728683385
 30
0.0
 11
4310.3554999831621899
 21
585.568316728683385
 31
0.0
  0
ARC
  5
2412B
  8
0
 10
4310.3528204912627189
 20
585.5783167286833759
 30
0.0
 40
0.0099999999999962
 50
270.0
 51
0.0
  0
ARC
  5
2412C
  8
0
 10
4310.2928180809349215
 20
585.5583191388004707
 30
0.0
 40
0.010002410407476
 50
270.013806829262478
 51
0.0
  0
ARC
  5
2412D
  8
0
 10
4310.3728230884444201
 20
585.5583193256335335
 30
0.0
 40
0.010002597287287
 50
180.0083323670619961
 51
269.9851231098357971
  0
ARC
  5
2412E
  8
0
 10
4310.2928204912632282
 20
586.4731611628833434
 30
0.0
 40
0.0099999999999962
 50
359.9999971351891759
 51
90.0
  0
ARC
  5
2412F
  8
0
 10
4310.3728204912631554
 20
586.4731611628833434
 30
0.0
 40
0.009999999999998
 50
90.0
 51
180.0000005729646944
  0
LINE
  5
24130
  8
0
 10
4310.3028204912616275
 20
586.4662976057834385
 30
0.0
 11
4310.3528204912627189
 21
586.4662976057834385
 31
0.0
  0
ARC
  5
24131
  8
0
 10
4310.3528204912627189
 20
586.4562976057834476
 30
0.0
 40
0.010000000000003
 50
0.0
 51
90.0
  0
ARC
  5
24132
  8
0
 10
4310.3553565539514238
 20
585.5835745804506587
 30
0.0
 40
0.0152585258951275
 50
270.5385847622684992
 51
299.2857163341964792
  0
LINE
  5
24133
  8
0
 10
4321.6920016841058896
 20
587.4894076523329431
 30
0.0
 11
4321.6920016841058896
 21
585.6242243967069498
 31
0.0
  0
LINE
  5
24134
  8
0
 10
4321.1812227895297838
 20
585.9073237900834101
 30
0.0
 11
4321.2031923249332976
 21
585.9073237900834101
 31
0.0
  0
LINE
  5
24135
  8
0
 10
4319.7260643828012689
 20
587.5891174196141264
 30
0.0
 11
4321.5933361952229461
 21
587.5891174196141264
 31
0.0
  0
LINE
  5
24136
  8
0
 10
4321.1777350951633707
 20
586.2671753601833871
 30
0.0
 11
4321.1843108298789957
 21
585.5887075206834425
 31
0.0
  0
ARC
  5
24137
  8
0
 10
4321.1440904072778721
 20
585.5883978449345477
 30
0.0
 40
0.0402216147524864
 50
274.790382872680425
 51
0.4411381500509285
  0
ARC
  5
24138
  8
0
 10
4323.6809533193327297
 20
586.2851456688839562
 30
0.0
 40
2.5032827267035538
 50
178.5313103668929955
 51
180.4113125847472929
  0
ARC
  5
24139
  8
0
 10
4321.5195064518247818
 20
586.3396541373612081
 30
0.0
 40
0.3411500586195835
 50
175.5932048698633992
 51
178.3786859104386053
  0
LINE
  5
2413A
  8
0
 10
4321.1793649533628923
 20
586.3658671783833825
 30
0.0
 11
4321.2338502425118349
 21
586.8778323504171794
 31
0.0
  0
LINE
  5
2413B
  8
0
 10
4321.2310349048630087
 20
587.158366097883345
 30
0.0
 11
4321.24318446997313
 21
585.9477251534833613
 31
0.0
  0
ARC
  5
2413C
  8
0
 10
4321.2031847384969296
 20
585.9473255171690198
 30
0.0
 40
0.0400017278049578
 50
270.0108663020117774
 51
0.5724216509879348
  0
ARC
  5
2413D
  8
0
 10
4321.5921452013144517
 20
587.4892679418580883
 30
0.0
 40
0.0998565805274603
 50
0.0801632013165189
 51
89.3166144678421148
  0
LINE
  5
2413E
  8
0
 10
4321.1911982574620197
 20
587.1987956464952276
 30
0.0
 11
4320.1282023205631049
 21
587.1987956464952276
 31
0.0
  0
LINE
  5
2413F
  8
0
 10
4321.0928625855221981
 20
586.483161162883448
 30
0.0
 11
4319.0266204911631576
 21
586.483161162883448
 31
0.0
  0
LINE
  5
24140
  8
0
 10
4320.0560185516369529
 20
586.5359527598833438
 30
0.0
 11
4319.0266204911631576
 21
586.5359527598833438
 31
0.0
  0
ARC
  5
24141
  8
0
 10
4321.1907215374430962
 20
587.1584849227344876
 30
0.0
 40
0.0403135425394575
 50
359.8311194724125812
 51
89.3224440209885842
  0
ARC
  5
24142
  8
0
 10
4321.0926211734422395
 20
586.5942694656707772
 30
0.0
 40
0.1111085650528361
 50
270.1244899902090992
 51
281.1916206766244954
  0
ARC
  5
24143
  8
0
 10
4321.1048777956129925
 20
586.5323214531301801
 30
0.0
 40
0.0479596850567238
 50
281.1916206766244954
 51
298.7227469284416088
  0
ARC
  5
24144
  8
0
 10
4321.1236755772551987
 20
586.4980189399008168
 30
0.0
 40
0.0088442276447103
 50
298.7227469284416088
 51
345.4496927838349052
  0
ARC
  5
24145
  8
0
 10
4321.1327630245086766
 20
586.4563046385904954
 30
0.0
 40
0.0394958807285565
 50
2.6870442433694999
 51
90.7643508324670165
  0
LINE
  5
24146
  8
0
 10
4321.1722154795616007
 20
586.4581562283833591
 30
0.0
 11
4321.1777350951633707
 21
586.2671753601833871
 31
0.0
  0
LINE
  5
24147
  8
0
 10
4321.2194372980729895
 20
587.1867795653988651
 30
0.0
 11
4321.1598371297668564
 21
586.4850608104322873
 31
0.0
  0
ARC
  5
24148
  8
0
 10
4320.0540644932843861
 20
586.769821644321496
 30
0.0
 40
0.2338770477244933
 50
270.4787156340191814
 51
295.1236390366495925
  0
ARC
  5
24149
  8
0
 10
4319.7272553767106729
 20
587.4892679418580883
 30
0.0
 40
0.0998565805274603
 50
90.6833855321578994
 51
179.919836798683491
  0
LINE
  5
2414A
  8
0
 10
4319.627398893919235
 20
587.4894076523329431
 30
0.0
 11
4319.627398893919235
 21
586.5359527598833438
 31
0.0
  0
ARC
  5
2414B
  8
0
 10
4321.5906979505616619
 20
585.6249733013928562
 30
0.0
 40
0.1013065017075497
 50
270.7390941039307108
 51
359.5764391438910934
  0
LINE
  5
2414C
  8
0
 10
4320.1208974420342201
 20
586.545697057509301
 30
0.0
 11
4320.0855503355132896
 21
586.8778323504171794
 31
0.0
  0
LINE
  5
2414D
  8
0
 10
4320.0883656731630253
 20
587.158366097883345
 30
0.0
 11
4320.0821362390561262
 21
586.5376354032525796
 31
0.0
  0
ARC
  5
2414E
  8
0
 10
4320.1286790405829379
 20
587.1584849227344876
 30
0.0
 40
0.0403135425394575
 50
90.6775559790114301
 51
180.1688805275873051
  0
LINE
  5
2414F
  8
0
 10
4320.0999632799521351
 20
587.1867795653988651
 30
0.0
 11
4320.153362374311655
 21
586.5580708372964409
 31
0.0
  0
LINE
  5
24150
  8
0
 10
4319.0166204911620298
 20
586.5259527598833529
 30
0.0
 11
4319.0166204911620298
 21
585.5583191388004707
 31
0.0
  0
LINE
  5
24151
  8
0
 10
4318.9566204911634486
 20
586.5259527598833529
 30
0.0
 11
4318.9566204911634486
 21
585.5583178709832737
 31
0.0
  0
ARC
  5
24152
  8
0
 10
4319.0266204911631576
 20
586.5259527598833529
 30
0.0
 40
0.0099999999999962
 50
90.0
 51
180.0000028648107957
  0
ARC
  5
24153
  8
0
 10
4318.9466204911632303
 20
586.5259527598833529
 30
0.0
 40
0.009999999999998
 50
359.9999994270352204
 51
90.0
  0
LINE
  5
24154
  8
0
 10
4318.9516809036149425
 20
586.5345778526833556
 30
0.0
 11
4319.0215600787096264
 21
586.5345778526833556
 31
0.0
  0
LINE
  5
24155
  8
0
 10
4319.0166204911620298
 20
586.5134766275834863
 30
0.0
 11
4318.9666204911618479
 21
586.5134766275834863
 31
0.0
  0
ARC
  5
24156
  8
0
 10
4318.9666204911618479
 20
586.5034766275832681
 30
0.0
 40
0.010000000000003
 50
90.0
 51
180.0
  0
LINE
  5
24157
  8
0
 10
4319.0166204911620298
 20
585.568316728683385
 30
0.0
 11
4318.9639409992632864
 21
585.568316728683385
 31
0.0
  0
ARC
  5
24158
  8
0
 10
4318.9666204911618479
 20
585.5783167286833759
 30
0.0
 40
0.0099999999999962
 50
180.0
 51
270.0
  0
ARC
  5
24159
  8
0
 10
4319.0266229014887358
 20
585.5583191388004707
 30
0.0
 40
0.010002410407476
 50
180.0
 51
269.986193170737522
  0
ARC
  5
2415A
  8
0
 10
4318.9466178939801466
 20
585.5583193256335335
 30
0.0
 40
0.010002597287287
 50
270.0148768901642029
 51
359.9916676329380039
  0
ARC
  5
2415B
  8
0
 10
4319.0266204911631576
 20
586.4731611628833434
 30
0.0
 40
0.0099999999999962
 50
90.0
 51
180.0000028648107957
  0
ARC
  5
2415C
  8
0
 10
4318.9466204911632303
 20
586.4731611628833434
 30
0.0
 40
0.009999999999998
 50
359.9999994270352204
 51
90.0
  0
LINE
  5
2415D
  8
0
 10
4319.0166204911620298
 20
586.4662976057834385
 30
0.0
 11
4318.9666204911618479
 21
586.4662976057834385
 31
0.0
  0
ARC
  5
2415E
  8
0
 10
4318.9666204911618479
 20
586.4562976057834476
 30
0.0
 40
0.010000000000003
 50
90.0
 51
180.0
  0
ARC
  5
2415F
  8
0
 10
4318.9640844284749619
 20
585.5835745804506587
 30
0.0
 40
0.0152585258951275
 50
240.7142836658034923
 51
269.4614152377315008
  0
ARC
  5
24160
  8
0
 10
4319.7309991883466864
 20
585.6308046985740248
 30
0.0
 40
0.1071900530245814
 50
230.3133830804779905
 51
268.0735608739536247
  0
LINE
  5
24161
  8
0
 10
4321.5920047302615785
 20
585.5236752282867201
 30
0.0
 11
4319.7273958477617271
 21
585.5236752282867201
 31
0.0
  0
ARC
  5
24162
  8
0
 10
4307.7287430318619954
 20
585.6249733013928562
 30
0.0
 40
0.1013065017075497
 50
180.4235608561089066
 51
269.2609058960691755
  0
ARC
  5
24163
  8
0
 10
4309.5884417940787898
 20
585.6308046985740248
 30
0.0
 40
0.1071900530245814
 50
271.9264391260463753
 51
309.6866169195218959
  0
LINE
  5
24164
  8
0
 10
4307.7274362521629882
 20
585.5236752282867201
 30
0.0
 11
4309.5920451346628397
 21
585.5236752282867201
 31
0.0
  0
VIEWPORT
  5
7BC8
 67
     1
  8
0
 10
8.4975296442687753
 20
4.5
 30
0.0
 40
16.9950592885375507
 41
9.0
 68
     1
 69
     1
1001
ACAD
1000
MVIEW
1002
{
1070
    16
1010
0.0
1020
0.0
1030
0.0
1010
0.0
1020
0.0
1030
1.0
1040
0.0
1040
9.0
1040
8.4975296442687753
1040
4.5
1040
50.0
1040
0.0
1040
0.0
1070
     0
1070
   100
1070
     1
1070
     1
1070
     0
1070
     0
1070
     0
1070
     0
1040
0.0
1040
0.0
1040
0.0
1040
1.0
1040
1.0
1040
0.0
1040
0.0
1070
     0
1002
{
1002
}
1002
}
  0
ENDSEC
  0
EOF
