  0
SECTION
  2
HEADER
  9
$ACADVER
  1
AC1009
  9
$INSBASE
 10
4312.6968577083089258
 20
572.6642114068773708
 30
0.0
  9
$EXTMIN
 10
4310.0362083062318561
 20
571.6310706106443149
 30
0.0
  9
$EXTMAX
 10
4312.7075907825637842
 20
573.6965128019717213
 30
0.0
  9
$LIMMIN
 10
0.0
 20
0.0
  9
$LIMMAX
 10
11.6929133858000007
 20
8.2677165353999982
  9
$ORTHOMODE
 70
     0
  9
$REGENMODE
 70
     1
  9
$FILLMODE
 70
     1
  9
$QTEXTMODE
 70
     0
  9
$MIRRTEXT
 70
     0
  9
$DRAGMODE
 70
     2
  9
$LTSCALE
 40
0.6431102362
  9
$OSMODE
 70
    19
  9
$ATTMODE
 70
     1
  9
$TEXTSIZE
 40
0.2
  9
$TRACEWID
 40
0.05
  9
$TEXTSTYLE
  7
STANDARD
  9
$CLAYER
  8
0
  9
$CELTYPE
  6
BYLAYER
  9
$CECOLOR
 62
   256
  9
$DIMSCALE
 40
1.0
  9
$DIMASZ
 40
0.1875
  9
$DIMEXO
 40
0.0625
  9
$DIMDLI
 40
0.4443307087
  9
$DIMRND
 40
0.0
  9
$DIMDLE
 40
0.0
  9
$DIMEXE
 40
0.125
  9
$DIMTP
 40
0.01
  9
$DIMTM
 40
0.01
  9
$DIMTXT
 40
2.0
  9
$DIMCEN
 40
0.1052362205
  9
$DIMTSZ
 40
0.0
  9
$DIMTOL
 70
     1
  9
$DIMLIM
 70
     0
  9
$DIMTIH
 70
     1
  9
$DIMTOH
 70
     1
  9
$DIMSE1
 70
     0
  9
$DIMSE2
 70
     0
  9
$DIMTAD
 70
     0
  9
$DIMZIN
 70
     0
  9
$DIMBLK
  1

  9
$DIMASO
 70
     1
  9
$DIMSHO
 70
     1
  9
$DIMPOST
  1
\X
  9
$DIMAPOST
  1

  9
$DIMALT
 70
     1
  9
$DIMALTD
 70
     2
  9
$DIMALTF
 40
25.3999999999999986
  9
$DIMLFAC
 40
1.0
  9
$DIMTOFL
 70
     0
  9
$DIMTVP
 40
0.0
  9
$DIMTIX
 70
     0
  9
$DIMSOXD
 70
     0
  9
$DIMSAH
 70
     0
  9
$DIMBLK1
  1

  9
$DIMBLK2
  1

  9
$DIMSTYLE
  2
STANDARD
  9
$DIMCLRD
 70
     0
  9
$DIMCLRE
 70
     0
  9
$DIMCLRT
 70
     0
  9
$DIMTFAC
 40
1.0
  9
$DIMGAP
 40
0.09
  9
$LUNITS
 70
     2
  9
$LUPREC
 70
     4
  9
$SKETCHINC
 40
0.1
  9
$FILLETRAD
 40
0.0
  9
$AUNITS
 70
     0
  9
$AUPREC
 70
     0
  9
$MENU
  1
.
  9
$ELEVATION
 40
0.0
  9
$PELEVATION
 40
0.0
  9
$THICKNESS
 40
0.0
  9
$LIMCHECK
 70
     0
  9
$BLIPMODE
 70
     0
  9
$CHAMFERA
 40
0.0
  9
$CHAMFERB
 40
0.0
  9
$SKPOLY
 70
     0
  9
$TDCREATE
 40
2458060.468368056230247
  9
$TDUPDATE
 40
2459698.6080324067734182
  9
$TDINDWG
 40
4.6881320602000001
  9
$TDUSRTIMER
 40
4.6881320602000001
  9
$USRTIMER
 70
     1
  9
$ANGBASE
 50
0.0
  9
$ANGDIR
 70
     0
  9
$PDMODE
 70
     0
  9
$PDSIZE
 40
0.3125
  9
$PLINEWID
 40
0.0
  9
$COORDS
 70
     1
  9
$SPLFRAME
 70
     0
  9
$SPLINETYPE
 70
     6
  9
$SPLINESEGS
 70
     8
  9
$ATTDIA
 70
     1
  9
$ATTREQ
 70
     1
  9
$HANDLING
 70
     1
  9
$HANDSEED
  5
24292
  9
$SURFTAB1
 70
     6
  9
$SURFTAB2
 70
     6
  9
$SURFTYPE
 70
     6
  9
$SURFU
 70
     6
  9
$SURFV
 70
     6
  9
$UCSNAME
  2

  9
$UCSORG
 10
0.0
 20
0.0
 30
0.0
  9
$UCSXDIR
 10
1.0
 20
0.0
 30
0.0
  9
$UCSYDIR
 10
0.0
 20
1.0
 30
0.0
  9
$PUCSNAME
  2

  9
$PUCSORG
 10
0.0
 20
0.0
 30
0.0
  9
$PUCSXDIR
 10
1.0
 20
0.0
 30
0.0
  9
$PUCSYDIR
 10
0.0
 20
1.0
 30
0.0
  9
$USERI1
 70
     0
  9
$USERI2
 70
     0
  9
$USERI3
 70
     0
  9
$USERI4
 70
     0
  9
$USERI5
 70
     0
  9
$USERR1
 40
0.0
  9
$USERR2
 40
0.0
  9
$USERR3
 40
0.0
  9
$USERR4
 40
0.0
  9
$USERR5
 40
0.0
  9
$WORLDVIEW
 70
     1
  9
$SHADEDGE
 70
     3
  9
$SHADEDIF
 70
    70
  9
$TILEMODE
 70
     1
  9
$MAXACTVP
 70
    64
  9
$PLIMCHECK
 70
     0
  9
$PEXTMIN
 10
1.0000000000000000E+20
 20
1.0000000000000000E+20
 30
1.0000000000000000E+20
  9
$PEXTMAX
 10
-1.0000000000000000E+20
 20
-1.0000000000000000E+20
 30
-1.0000000000000000E+20
  9
$PLIMMIN
 10
0.0
 20
0.0
  9
$PLIMMAX
 10
12.0
 20
9.0
  9
$UNITMODE
 70
     0
  9
$VISRETAIN
 70
     1
  9
$PLINEGEN
 70
     0
  9
$PSLTSCALE
 70
     1
  0
ENDSEC
  0
SECTION
  2
TABLES
  0
TABLE
  2
VPORT
 70
     1
  0
VPORT
  2
*ACTIVE
 70
     0
 10
0.0
 20
0.0
 11
1.0
 21
1.0
 12
74.9405030600228201
 22
-25.9206315958572908
 13
0.0
 23
0.0
 14
1.0
 24
1.0
 15
0.0
 25
0.0
 16
0.0
 26
0.0
 36
98.7941898181710343
 17
4236.431396484375
 27
598.728610913283319
 37
0.0
 40
2.370153519111132
 41
2.005224660397074
 42
50.0
 43
0.0
 44
0.0
 50
0.0
 51
0.0
 71
     0
 72
   100
 73
     1
 74
     1
 75
     0
 76
     0
 77
     0
 78
     0
  0
ENDTAB
  0
TABLE
  2
LTYPE
 70
     2
  0
LTYPE
  2
CONTINUOUS
 70
     0
  3
Solid line
 72
    65
 73
     0
 40
0.0
  0
LTYPE
  2
PHANTOM2
 70
     0
  3
___ _ _ ___ _ _ ___ _ _ ___ _ _
 72
    65
 73
     6
 40
1.25
 49
0.625
 49
-0.125
 49
0.125
 49
-0.125
 49
0.125
 49
-0.125
  0
ENDTAB
  0
TABLE
  2
LAYER
 70
     2
  0
LAYER
  2
0
 70
     0
 62
   255
  6
CONTINUOUS
  0
LAYER
  2
DEFPOINTS
 70
     0
 62
     7
  6
CONTINUOUS
  0
ENDTAB
  0
TABLE
  2
STYLE
 70
     1
  0
STYLE
  2
STANDARD
 70
     0
 40
0.0
 41
0.8
 50
0.0
 71
     0
 42
0.2
  3
txt
  4

  0
ENDTAB
  0
TABLE
  2
VIEW
 70
     0
  0
ENDTAB
  0
TABLE
  2
UCS
 70
     0
  0
ENDTAB
  0
TABLE
  2
APPID
 70
    10
  0
APPID
  2
ACAD
 70
     0
  0
APPID
  2
ACAD_MLEADERVER
 70
     0
  0
APPID
  2
ACAD_EXEMPT_FROM_CAD_STANDARDS
 70
     0
  0
APPID
  2
ACAD_NAV_VCDISPLAY
 70
     0
  0
APPID
  2
ACAECLAYERSTANDARD
 70
     0
  0
APPID
  2
ACCMTRANSPARENCY
 70
     0
  0
APPID
  2
ACAD_DSTYLE_DIMJAG
 70
     0
  0
APPID
  2
ACAD_DSTYLE_DIMTALN
 70
     0
  0
APPID
  2
ACDBATTR
 70
     0
  0
APPID
  2
DCO15
 70
     0
  0
ENDTAB
  0
TABLE
  2
DIMSTYLE
 70
     1
  0
DIMSTYLE
  2
STANDARD
 70
     0
  3

  4

  5

  6

  7

 40
1.0
 41
0.1875
 42
0.0625
 43
0.38
 44
0.125
 45
0.0
 46
0.0
 47
0.01
 48
0.01
140
0.15625
141
0.09
142
0.0
143
25.3999999999999986
144
1.0
145
0.0
146
1.0
147
0.09
 71
     1
 72
     0
 73
     1
 74
     1
 75
     0
 76
     0
 77
     0
 78
     4
170
     0
171
     2
172
     0
173
     0
174
     0
175
     0
176
     0
177
     0
178
     0
  0
ENDTAB
  0
ENDSEC
  0
SECTION
  2
BLOCKS
  0
BLOCK
  8
0
  2
$MODEL_SPACE
 70
     0
 10
0.0
 20
0.0
 30
0.0
  3
$MODEL_SPACE
  1

  0
ENDBLK
  5
21
  8
0
  0
BLOCK
 67
     1
  8
0
  2
$PAPER_SPACE
 70
     0
 10
0.0
 20
0.0
 30
0.0
  3
$PAPER_SPACE
  1

  0
ENDBLK
  5
1D
 67
     1
  8
0
  0
ENDSEC
  0
SECTION
  2
ENTITIES
  0
ATTDEF
  5
3930
  8
DEFPOINTS
 10
4312.6969241158949444
 20
572.6676336020111648
 30
0.0
 40
0.001
  1
P30658-00
  3

  2
MODELNUMBER
 70
     0
1001
ACDBATTR
1070
     0
1070
     1
  0
ATTDEF
  5
3931
  8
DEFPOINTS
 10
4312.6969241158949444
 20
572.6659669353446134
 30
0.0
 40
0.001
  1
KLYNE
  3

  2
TRADENAME
 70
     0
1001
ACDBATTR
1070
     0
1070
     1
  0
ATTDEF
  5
3932
  8
DEFPOINTS
 10
4312.6969241158949444
 20
572.6643002686779482
 30
0.0
 40
0.001
  1
TOWEL BAR
  3

  2
PRODUCT
 70
     0
1001
ACDBATTR
1070
     0
1070
     1
  0
LINE
  5
24168
  8
0
 10
4312.6968577083089258
 20
573.5637393446178294
 30
0.0
 11
4312.6968577083089258
 21
571.7646834691372533
 31
0.0
  0
LINE
  5
24169
  8
0
 10
4312.5803588320086419
 20
573.6799633248534747
 30
0.0
 11
4312.5803588320086419
 21
571.6484594889020627
 31
0.0
  0
LINE
  5
2416A
  8
0
 10
4312.2968577083092896
 20
573.6545583727478288
 30
0.0
 11
4312.2968577083092896
 21
571.673864441007936
 31
0.0
  0
ARC
  5
2416B
  8
0
 10
4312.6768577082848424
 20
573.5637393446185115
 30
0.0
 40
0.0200000000250515
 50
359.9999999981304768
 51
81.7798288961986941
  0
ARC
  5
2416C
  8
0
 10
4312.6965884211349476
 20
573.7003203825571518
 30
0.0
 40
0.1179988440064244
 50
189.9343189138942023
 51
261.7798288954617192
  0
ARC
  5
2416D
  8
0
 10
4312.5606587333113566
 20
573.6765128020655311
 30
0.0
 40
0.0199999999062079
 50
9.934726785128678
 51
90.500001696529992
  0
LINE
  5
2416E
  8
0
 10
4312.5604842020093201
 20
573.6965120404278196
 30
0.0
 11
4312.3365086469093512
 21
573.6945574354278961
 31
0.0
  0
ARC
  5
2416F
  8
0
 10
4312.3368582991997755
 20
573.6545583727478288
 30
0.0
 40
0.0400005908957688
 50
90.5008389946400342
 51
180.0
  0
ARC
  5
24170
  8
0
 10
4312.6768577082848424
 20
571.7646834691372533
 30
0.0
 40
0.0200000000250515
 50
278.2201711038013059
 51
0.0000000018694537
  0
ARC
  5
24171
  8
0
 10
4312.6965884211349476
 20
571.628102431198613
 30
0.0
 40
0.1179988440064244
 50
98.2201711045382808
 51
170.0656810861057977
  0
ARC
  5
24172
  8
0
 10
4312.5606587333113566
 20
571.6519100116902337
 30
0.0
 40
0.0199999999062079
 50
269.4999983034700222
 51
350.0652732148712971
  0
LINE
  5
24173
  8
0
 10
4312.6566832119460742
 20
571.6310712573113051
 30
0.0
 11
4312.3365086469093512
 21
571.633865378327755
 31
0.0
  0
ARC
  5
24174
  8
0
 10
4312.3368582991997755
 20
571.673864441007936
 30
0.0
 40
0.0400005908957688
 50
180.0
 51
269.4991610053598947
  0
ARC
  5
24175
  8
0
 10
4312.2768577082815682
 20
573.2861910288200988
 30
0.0
 40
0.0200000000327013
 50
0.0
 51
108.0009996840831974
  0
LINE
  5
24176
  8
0
 10
4312.2706770365093689
 20
573.3052120513409591
 30
0.0
 11
4310.0713241636085513
 21
572.5905565452410428
 31
0.0
  0
ARC
  5
24177
  8
0
 10
4310.0836855075585845
 20
572.5525145001586225
 30
0.0
 40
0.0400000002287515
 50
108.0010002159525015
 51
179.4999997701220877
  0
LINE
  5
24178
  8
0
 10
4310.0436870304092736
 20
572.5528635617408781
 30
0.0
 11
4310.036209829308973
 21
571.6960611724409773
 31
0.0
  0
ARC
  5
24179
  8
0
 10
4310.0762083062163583
 20
571.6957121110247044
 30
0.0
 40
0.0399999999836685
 50
179.5000000049655
 51
269.9999999910369866
  0
LINE
  5
2417A
  8
0
 10
4310.0762083062163583
 20
571.655712111040998
 30
0.0
 11
4310.2322052599265589
 21
571.655712111040998
 31
0.0
  0
ARC
  5
2417B
  8
0
 10
4310.2322052599265589
 20
571.6957121110017397
 30
0.0
 40
0.0399999999607239
 50
269.9999999755602857
 51
359.4999999410758278
  0
LINE
  5
2417C
  8
0
 10
4310.2722037368093879
 20
571.6953630495409016
 30
0.0
 11
4310.2779399093087704
 21
572.3526633045410108
 31
0.0
  0
ARC
  5
2417D
  8
0
 10
4310.3679364823128708
 20
572.3518779164650141
 30
0.0
 40
0.089999999926065
 50
104.7000000058989997
 51
179.5000000752910125
  0
LINE
  5
2417E
  8
0
 10
4310.3450982673093677
 20
572.4389320141409598
 30
0.0
 11
4311.9911573034087269
 21
572.8707675182409957
 31
0.0
  0
ARC
  5
2417F
  8
0
 10
4312.001307620696025
 20
572.8320768081117649
 30
0.0
 40
0.0399999998913063
 50
0.500000014472171
 51
104.6999993045718043
  0
LINE
  5
24180
  8
0
 10
4312.0413060975088229
 20
572.8324258695408844
 30
0.0
 11
4312.0480960872100695
 21
572.0543701110409529
 31
0.0
  0
LINE
  5
24181
  8
0
 10
4312.0880945641501967
 20
572.014719172441005
 30
0.0
 11
4312.2768577083097625
 21
572.014719172441005
 31
0.0
  0
ARC
  5
24182
  8
0
 10
4312.0880945641501967
 20
572.0547191724590448
 30
0.0
 40
0.0400000000181265
 50
180.4999999971774116
 51
269.9999999416887135
  0
ARC
  5
24183
  8
0
 10
4312.2768577083097625
 20
572.0347191724408731
 30
0.0
 40
0.0199999999999898
 50
270.0
 51
0.0
  0
ARC
  5
24184
  8
0
 10
4312.6970685055912327
 20
571.7299420839516415
 30
0.0
 40
0.0202110858374469
 50
121.919866592878094
 51
179.6938332944320109
  0
LINE
  5
24185
  8
0
 10
4312.6768577083103082
 20
571.7300500837410482
 30
0.0
 11
4312.6768577083103082
 21
571.6510786362409817
 31
0.0
  0
ARC
  5
24186
  8
0
 10
4312.6568440965893387
 20
571.6510842231439256
 30
0.0
 40
0.0200136124996584
 50
269.5394079727715848
 51
359.9840055880114278
  0
LINE
  5
24187
  8
0
 10
4310.4414871816570667
 20
572.4642191724409486
 30
0.0
 11
4312.0048669402085579
 21
572.4642191724409486
 31
0.0
  0
ARC
  5
24188
  8
0
 10
4312.0048669402085579
 20
572.4242191724408713
 30
0.0
 40
0.0399999999999983
 50
0.4999999971839035
 51
90.0
  0
VIEWPORT
  5
7BC8
 67
     1
  8
0
 10
8.4975296442687753
 20
4.5
 30
0.0
 40
16.9950592885375507
 41
9.0
 68
     1
 69
     1
1001
ACAD
1000
MVIEW
1002
{
1070
    16
1010
0.0
1020
0.0
1030
0.0
1010
0.0
1020
0.0
1030
1.0
1040
0.0
1040
9.0
1040
8.4975296442687753
1040
4.5
1040
50.0
1040
0.0
1040
0.0
1070
     0
1070
   100
1070
     1
1070
     1
1070
     0
1070
     0
1070
     0
1070
     0
1040
0.0
1040
0.0
1040
0.0
1040
1.0
1040
1.0
1040
0.0
1040
0.0
1070
     0
1002
{
1002
}
1002
}
  0
ENDSEC
  0
EOF
