  0
SECTION
  2
HEADER
  9
$ACADVER
  1
AC1009
  9
$INSBASE
 10
4313.9579954118389651
 20
579.0330208254039235
 30
0.0
  9
$EXTMIN
 10
4306.9257142189453589
 20
576.3723714232038446
 30
0.0
  9
$EXTMAX
 10
4320.9902766047325713
 20
579.0374430205380349
 30
0.0
  9
$LIMMIN
 10
0.0
 20
0.0
  9
$LIMMAX
 10
11.6929133858000007
 20
8.2677165353999982
  9
$ORTHOMODE
 70
     0
  9
$REGENMODE
 70
     1
  9
$FILLMODE
 70
     1
  9
$QTEXTMODE
 70
     0
  9
$MIRRTEXT
 70
     0
  9
$DRAGMODE
 70
     2
  9
$LTSCALE
 40
0.6431102362
  9
$OSMODE
 70
    19
  9
$ATTMODE
 70
     1
  9
$TEXTSIZE
 40
0.2
  9
$TRACEWID
 40
0.05
  9
$TEXTSTYLE
  7
STANDARD
  9
$CLAYER
  8
0
  9
$CELTYPE
  6
BYLAYER
  9
$CECOLOR
 62
   256
  9
$DIMSCALE
 40
1.0
  9
$DIMASZ
 40
0.1875
  9
$DIMEXO
 40
0.0625
  9
$DIMDLI
 40
0.4443307087
  9
$DIMRND
 40
0.0
  9
$DIMDLE
 40
0.0
  9
$DIMEXE
 40
0.125
  9
$DIMTP
 40
0.01
  9
$DIMTM
 40
0.01
  9
$DIMTXT
 40
2.0
  9
$DIMCEN
 40
0.1052362205
  9
$DIMTSZ
 40
0.0
  9
$DIMTOL
 70
     1
  9
$DIMLIM
 70
     0
  9
$DIMTIH
 70
     1
  9
$DIMTOH
 70
     1
  9
$DIMSE1
 70
     0
  9
$DIMSE2
 70
     0
  9
$DIMTAD
 70
     0
  9
$DIMZIN
 70
     0
  9
$DIMBLK
  1

  9
$DIMASO
 70
     1
  9
$DIMSHO
 70
     1
  9
$DIMPOST
  1
\X
  9
$DIMAPOST
  1

  9
$DIMALT
 70
     1
  9
$DIMALTD
 70
     2
  9
$DIMALTF
 40
25.3999999999999986
  9
$DIMLFAC
 40
1.0
  9
$DIMTOFL
 70
     0
  9
$DIMTVP
 40
0.0
  9
$DIMTIX
 70
     0
  9
$DIMSOXD
 70
     0
  9
$DIMSAH
 70
     0
  9
$DIMBLK1
  1

  9
$DIMBLK2
  1

  9
$DIMSTYLE
  2
STANDARD
  9
$DIMCLRD
 70
     0
  9
$DIMCLRE
 70
     0
  9
$DIMCLRT
 70
     0
  9
$DIMTFAC
 40
1.0
  9
$DIMGAP
 40
0.09
  9
$LUNITS
 70
     2
  9
$LUPREC
 70
     4
  9
$SKETCHINC
 40
0.1
  9
$FILLETRAD
 40
0.0
  9
$AUNITS
 70
     0
  9
$AUPREC
 70
     0
  9
$MENU
  1
.
  9
$ELEVATION
 40
0.0
  9
$PELEVATION
 40
0.0
  9
$THICKNESS
 40
0.0
  9
$LIMCHECK
 70
     0
  9
$BLIPMODE
 70
     0
  9
$CHAMFERA
 40
0.0
  9
$CHAMFERB
 40
0.0
  9
$SKPOLY
 70
     0
  9
$TDCREATE
 40
2458060.468368056230247
  9
$TDUPDATE
 40
2459698.6079050931148231
  9
$TDINDWG
 40
4.6869630786999998
  9
$TDUSRTIMER
 40
4.6869630786999998
  9
$USRTIMER
 70
     1
  9
$ANGBASE
 50
0.0
  9
$ANGDIR
 70
     0
  9
$PDMODE
 70
     0
  9
$PDSIZE
 40
0.3125
  9
$PLINEWID
 40
0.0
  9
$COORDS
 70
     1
  9
$SPLFRAME
 70
     0
  9
$SPLINETYPE
 70
     6
  9
$SPLINESEGS
 70
     8
  9
$ATTDIA
 70
     1
  9
$ATTREQ
 70
     1
  9
$HANDLING
 70
     1
  9
$HANDSEED
  5
241D7
  9
$SURFTAB1
 70
     6
  9
$SURFTAB2
 70
     6
  9
$SURFTYPE
 70
     6
  9
$SURFU
 70
     6
  9
$SURFV
 70
     6
  9
$UCSNAME
  2

  9
$UCSORG
 10
0.0
 20
0.0
 30
0.0
  9
$UCSXDIR
 10
1.0
 20
0.0
 30
0.0
  9
$UCSYDIR
 10
0.0
 20
1.0
 30
0.0
  9
$PUCSNAME
  2

  9
$PUCSORG
 10
0.0
 20
0.0
 30
0.0
  9
$PUCSXDIR
 10
1.0
 20
0.0
 30
0.0
  9
$PUCSYDIR
 10
0.0
 20
1.0
 30
0.0
  9
$USERI1
 70
     0
  9
$USERI2
 70
     0
  9
$USERI3
 70
     0
  9
$USERI4
 70
     0
  9
$USERI5
 70
     0
  9
$USERR1
 40
0.0
  9
$USERR2
 40
0.0
  9
$USERR3
 40
0.0
  9
$USERR4
 40
0.0
  9
$USERR5
 40
0.0
  9
$WORLDVIEW
 70
     1
  9
$SHADEDGE
 70
     3
  9
$SHADEDIF
 70
    70
  9
$TILEMODE
 70
     1
  9
$MAXACTVP
 70
    64
  9
$PLIMCHECK
 70
     0
  9
$PEXTMIN
 10
1.0000000000000000E+20
 20
1.0000000000000000E+20
 30
1.0000000000000000E+20
  9
$PEXTMAX
 10
-1.0000000000000000E+20
 20
-1.0000000000000000E+20
 30
-1.0000000000000000E+20
  9
$PLIMMIN
 10
0.0
 20
0.0
  9
$PLIMMAX
 10
12.0
 20
9.0
  9
$UNITMODE
 70
     0
  9
$VISRETAIN
 70
     1
  9
$PLINEGEN
 70
     0
  9
$PSLTSCALE
 70
     1
  0
ENDSEC
  0
SECTION
  2
TABLES
  0
TABLE
  2
VPORT
 70
     1
  0
VPORT
  2
*ACTIVE
 70
     0
 10
0.0
 20
0.0
 11
1.0
 21
1.0
 12
77.5718058946831661
 22
-20.6035625521990617
 13
0.0
 23
0.0
 14
1.0
 24
1.0
 15
0.0
 25
0.0
 16
0.0
 26
0.0
 36
98.7941898181710343
 17
4236.431396484375
 27
598.728610913283319
 37
0.0
 40
7.0919960438374794
 41
2.005224660397074
 42
50.0
 43
0.0
 44
0.0
 50
0.0
 51
0.0
 71
     0
 72
   100
 73
     1
 74
     1
 75
     0
 76
     0
 77
     0
 78
     0
  0
ENDTAB
  0
TABLE
  2
LTYPE
 70
     2
  0
LTYPE
  2
CONTINUOUS
 70
     0
  3
Solid line
 72
    65
 73
     0
 40
0.0
  0
LTYPE
  2
PHANTOM2
 70
     0
  3
___ _ _ ___ _ _ ___ _ _ ___ _ _
 72
    65
 73
     6
 40
1.25
 49
0.625
 49
-0.125
 49
0.125
 49
-0.125
 49
0.125
 49
-0.125
  0
ENDTAB
  0
TABLE
  2
LAYER
 70
     2
  0
LAYER
  2
0
 70
     0
 62
   255
  6
CONTINUOUS
  0
LAYER
  2
DEFPOINTS
 70
     0
 62
     7
  6
CONTINUOUS
  0
ENDTAB
  0
TABLE
  2
STYLE
 70
     1
  0
STYLE
  2
STANDARD
 70
     0
 40
0.0
 41
0.8
 50
0.0
 71
     0
 42
0.2
  3
txt
  4

  0
ENDTAB
  0
TABLE
  2
VIEW
 70
     0
  0
ENDTAB
  0
TABLE
  2
UCS
 70
     0
  0
ENDTAB
  0
TABLE
  2
APPID
 70
    10
  0
APPID
  2
ACAD
 70
     0
  0
APPID
  2
ACAD_MLEADERVER
 70
     0
  0
APPID
  2
ACAD_EXEMPT_FROM_CAD_STANDARDS
 70
     0
  0
APPID
  2
ACAD_NAV_VCDISPLAY
 70
     0
  0
APPID
  2
ACAECLAYERSTANDARD
 70
     0
  0
APPID
  2
ACCMTRANSPARENCY
 70
     0
  0
APPID
  2
ACAD_DSTYLE_DIMJAG
 70
     0
  0
APPID
  2
ACAD_DSTYLE_DIMTALN
 70
     0
  0
APPID
  2
ACDBATTR
 70
     0
  0
APPID
  2
DCO15
 70
     0
  0
ENDTAB
  0
TABLE
  2
DIMSTYLE
 70
     1
  0
DIMSTYLE
  2
STANDARD
 70
     0
  3

  4

  5

  6

  7

 40
1.0
 41
0.1875
 42
0.0625
 43
0.38
 44
0.125
 45
0.0
 46
0.0
 47
0.01
 48
0.01
140
0.15625
141
0.09
142
0.0
143
25.3999999999999986
144
1.0
145
0.0
146
1.0
147
0.09
 71
     1
 72
     0
 73
     1
 74
     1
 75
     0
 76
     0
 77
     0
 78
     4
170
     0
171
     2
172
     0
173
     0
174
     0
175
     0
176
     0
177
     0
178
     0
  0
ENDTAB
  0
ENDSEC
  0
SECTION
  2
BLOCKS
  0
BLOCK
  8
0
  2
$MODEL_SPACE
 70
     0
 10
0.0
 20
0.0
 30
0.0
  3
$MODEL_SPACE
  1

  0
ENDBLK
  5
21
  8
0
  0
BLOCK
 67
     1
  8
0
  2
$PAPER_SPACE
 70
     0
 10
0.0
 20
0.0
 30
0.0
  3
$PAPER_SPACE
  1

  0
ENDBLK
  5
1D
 67
     1
  8
0
  0
ENDSEC
  0
SECTION
  2
ENTITIES
  0
ATTDEF
  5
3930
  8
DEFPOINTS
 10
4313.9580618194240742
 20
579.0364430205377175
 30
0.0
 40
0.001
  1
P30658-00
  3

  2
MODELNUMBER
 70
     0
1001
ACDBATTR
1070
     0
1070
     1
  0
ATTDEF
  5
3931
  8
DEFPOINTS
 10
4313.9580618194240742
 20
579.0347763538710524
 30
0.0
 40
0.001
  1
KLYNE
  3

  2
TRADENAME
 70
     0
1001
ACDBATTR
1070
     0
1070
     1
  0
ATTDEF
  5
3932
  8
DEFPOINTS
 10
4313.9580618194240742
 20
579.0331096872042735
 30
0.0
 40
0.001
  1
TOWEL BAR
  3

  2
PRODUCT
 70
     0
1001
ACDBATTR
1070
     0
1070
     1
  0
LINE
  5
2406A
  8
0
 10
4307.0584876762977729
 20
579.0330208254039235
 30
0.0
 11
4308.8575435517795995
 21
579.0330208254039235
 31
0.0
  0
LINE
  5
2406C
  8
0
 10
4306.9422636960644013
 20
578.9165219491039807
 30
0.0
 11
4308.97376753201479
 21
578.9165219491039807
 31
0.0
  0
LINE
  5
2406D
  8
0
 10
4306.9676686481689103
 20
578.6330208254039462
 30
0.0
 11
4308.9483625799102811
 21
578.6330208254039462
 31
0.0
  0
LINE
  5
2406E
  8
0
 10
4307.5169644235356827
 20
576.3723714232038446
 30
0.0
 11
4309.5910954118890004
 21
576.3723714232038446
 31
0.0
  0
LINE
  5
2406F
  8
0
 10
4309.6710954118962036
 20
576.3723714232038446
 30
0.0
 11
4318.2448954117762696
 21
576.3723714232038446
 31
0.0
  0
LINE
  5
24070
  8
0
 10
4309.6010954118892187
 20
576.6062891966039388
 30
0.0
 11
4309.6010954118892187
 21
576.3823738333210258
 31
0.0
  0
LINE
  5
24071
  8
0
 10
4309.6610954118887094
 20
576.6062891966039388
 30
0.0
 11
4309.6610954118887094
 21
576.3823725655039425
 31
0.0
  0
LINE
  5
24072
  8
0
 10
4308.566975424139855
 20
576.6162891966039297
 30
0.0
 11
4309.5910954118890004
 21
576.6162891966039297
 31
0.0
  0
LINE
  5
24073
  8
0
 10
4309.6710954118880181
 20
576.6162891966039297
 30
0.0
 11
4318.2448954117890025
 21
576.6162891966039297
 31
0.0
  0
ARC
  5
24074
  8
0
 10
4307.0584876762977729
 20
579.0130208253789306
 30
0.0
 40
0.0200000000250515
 50
89.9999999981240251
 51
171.7798288961949993
  0
ARC
  5
24075
  8
0
 10
4306.9219066383602694
 20
579.0327515382304
 30
0.0
 40
0.1179988440064244
 50
279.9343189138824073
 51
351.7798288954645045
  0
ARC
  5
24076
  8
0
 10
4306.9457142188502985
 20
578.8968218504053311
 30
0.0
 40
0.0199999999062079
 50
99.9347267851105556
 51
180.5000016965495888
  0
LINE
  5
24077
  8
0
 10
4306.9257149804889195
 20
578.8966473191038631
 30
0.0
 11
4306.9276695854887294
 21
578.6726717640037805
 31
0.0
  0
ARC
  5
24078
  8
0
 10
4306.9676686481689103
 20
578.6730214162954553
 30
0.0
 40
0.0400005908957688
 50
180.5008389946463865
 51
270.0
  0
ARC
  5
24079
  8
0
 10
4307.3945813006439494
 20
578.6129692317017543
 30
0.0
 40
0.0200518638936617
 50
90.2974381408447755
 51
181.5980870927672868
  0
LINE
  5
2407A
  8
0
 10
4307.3745372359890098
 20
578.6124100200039493
 30
0.0
 11
4307.3803231312886055
 21
578.4230361407038572
 31
0.0
  0
ARC
  5
2407B
  8
0
 10
4307.4203016036017289
 20
578.4242575935036257
 30
0.0
 40
0.0399971273388462
 50
181.7499999972208116
 51
219.2492948417335867
  0
ARC
  5
2407C
  8
0
 10
4302.2985670416483117
 20
578.1827202597634141
 30
0.0
 40
5.0953509392159919
 50
1.4981099954955841
 51
2.4321903942751639
  0
ARC
  5
2407D
  8
0
 10
2953.5741121567198206
 20
540.1063956371375525
 30
0.0
 40
1354.3571610255489759
 50
1.5436193524655191
 51
1.616660515840846
  0
ARC
  5
2407E
  8
0
 10
4307.473419142338571
 20
576.568362831432637
 30
0.0
 40
0.0400152613169795
 50
147.1935269365420993
 51
181.7413883653188122
  0
LINE
  5
2407F
  8
0
 10
4307.433422361288649
 20
576.5671468364039356
 30
0.0
 11
4307.4370037687885997
 21
576.4499264250039232
 31
0.0
  0
ARC
  5
24080
  8
0
 10
4307.5169644235320447
 20
576.4523693880232713
 30
0.0
 40
0.0799979648194449
 50
181.749959954935207
 51
270.000000002188699
  0
ARC
  5
24081
  8
0
 10
4308.5214499274343325
 20
578.6129692317017543
 30
0.0
 40
0.0200518638936617
 50
358.4019129072327132
 51
89.7025618591552245
  0
LINE
  5
24082
  8
0
 10
4308.5414939920892721
 20
578.6124100200039493
 30
0.0
 11
4308.5357080967887669
 21
578.4230361407038572
 31
0.0
  0
ARC
  5
24083
  8
0
 10
4308.495729624476553
 20
578.4242575935036257
 30
0.0
 40
0.0399971273388462
 50
320.7507051582663848
 51
358.2500000027791884
  0
ARC
  5
24084
  8
0
 10
4313.6174641864299701
 20
578.1827202597634141
 30
0.0
 40
5.0953509392159919
 50
177.5678096057247899
 51
178.5018900045043893
  0
ARC
  5
24085
  8
0
 10
5662.3419190713593707
 20
540.1063956371375525
 30
0.0
 40
1354.3571610255489759
 50
178.3833394841591087
 51
178.4518086619945052
  0
ARC
  5
24086
  8
0
 10
4308.8575435517795995
 20
579.0130208253789306
 30
0.0
 40
0.0200000000250515
 50
8.2201711038049652
 51
90.0000000018759465
  0
ARC
  5
24087
  8
0
 10
4308.9941245897180124
 20
579.0327515382304
 30
0.0
 40
0.1179988440064244
 50
188.2201711045354102
 51
260.065681086117479
  0
ARC
  5
24088
  8
0
 10
4308.9703170092270739
 20
578.8968218504053311
 30
0.0
 40
0.0199999999062079
 50
359.4999983034504112
 51
80.0652732148894444
  0
LINE
  5
24089
  8
0
 10
4308.9903162475893623
 20
578.8966473191038631
 30
0.0
 11
4308.988361642588643
 21
578.6726717640037805
 31
0.0
  0
ARC
  5
2408A
  8
0
 10
4308.9483625799102811
 20
578.6730214162954553
 30
0.0
 40
0.0400005908957688
 50
270.0
 51
359.4991610053535283
  0
ARC
  5
2408B
  8
0
 10
4308.5673927011639535
 20
576.7047740577274908
 30
0.0
 40
0.0884858450159614
 50
184.3409444592595889
 51
269.729806490237479
  0
ARC
  5
2408C
  8
0
 10
4309.5910954118890004
 20
576.6062891966039388
 30
0.0
 40
0.0099999999999962
 50
359.9999971351891759
 51
90.0
  0
ARC
  5
2408D
  8
0
 10
4309.6710954118880181
 20
576.6062891966039388
 30
0.0
 40
0.009999999999998
 50
90.0
 51
180.0000005729646944
  0
LINE
  5
2408E
  8
0
 10
4309.6660349994372154
 20
576.6149142894039414
 30
0.0
 11
4309.5961558243407126
 21
576.6149142894039414
 31
0.0
  0
LINE
  5
2408F
  8
0
 10
4309.6010954118892187
 20
576.5880208254038735
 30
0.0
 11
4309.6537749037888716
 21
576.5880208254038735
 31
0.0
  0
ARC
  5
24090
  8
0
 10
4309.6537749037888716
 20
576.5735288838983479
 30
0.0
 40
0.0144919415055895
 50
59.6591302756071329
 51
90.0
  0
ARC
  5
24091
  8
0
 10
4309.6510954118894006
 20
576.5780208254039962
 30
0.0
 40
0.010000000000003
 50
0.0
 51
90.0
  0
LINE
  5
24092
  8
0
 10
4309.6010954118892187
 20
576.3920208254038471
 30
0.0
 11
4309.6510954118894006
 21
576.3920208254038471
 31
0.0
  0
ARC
  5
24093
  8
0
 10
4309.6510954118894006
 20
576.4020208254039517
 30
0.0
 40
0.0099999999999962
 50
270.0
 51
0.0
  0
ARC
  5
24094
  8
0
 10
4309.5910930015616032
 20
576.3823738333210258
 30
0.0
 40
0.010002410407476
 50
270.013806829262478
 51
0.0
  0
ARC
  5
24095
  8
0
 10
4309.6710980090711018
 20
576.3823740201540886
 30
0.0
 40
0.010002597287287
 50
180.0083323670619961
 51
269.9851231098357971
  0
LINE
  5
24096
  8
0
 10
4320.8575031473792478
 20
579.0330208254039235
 30
0.0
 11
4319.0584472718983307
 21
579.0330208254039235
 31
0.0
  0
LINE
  5
24097
  8
0
 10
4320.9737271276153479
 20
578.9165219491039807
 30
0.0
 11
4318.9422232916631401
 21
578.9165219491039807
 31
0.0
  0
LINE
  5
24098
  8
0
 10
4320.9483221755090199
 20
578.6330208254039462
 30
0.0
 11
4318.9676282437685586
 21
578.6330208254039462
 31
0.0
  0
LINE
  5
24099
  8
0
 10
4320.3990264001431569
 20
576.3723714232038446
 30
0.0
 11
4318.3248954117889298
 21
576.3723714232038446
 31
0.0
  0
LINE
  5
2409A
  8
0
 10
4318.3148954117887115
 20
576.6062891966039388
 30
0.0
 11
4318.3148954117887115
 21
576.3823738333210258
 31
0.0
  0
LINE
  5
2409B
  8
0
 10
4318.2548954117892208
 20
576.6062891966039388
 30
0.0
 11
4318.2548954117892208
 21
576.3823725655039425
 31
0.0
  0
LINE
  5
2409C
  8
0
 10
4319.3490153995389846
 20
576.6162891966039297
 30
0.0
 11
4318.3248954117889298
 21
576.6162891966039297
 31
0.0
  0
ARC
  5
2409D
  8
0
 10
4320.8575031473792478
 20
579.0130208253789306
 30
0.0
 40
0.0200000000250515
 50
8.2201711038049652
 51
90.0000000018759465
  0
ARC
  5
2409E
  8
0
 10
4320.9940841853176607
 20
579.0327515382304
 30
0.0
 40
0.1179988440064244
 50
188.2201711045354102
 51
260.065681086117479
  0
ARC
  5
2409F
  8
0
 10
4320.9702766048267222
 20
578.8968218504053311
 30
0.0
 40
0.0199999999062079
 50
359.4999983034504112
 51
80.0652732148894444
  0
LINE
  5
240A0
  8
0
 10
4320.9902758431890106
 20
578.8966473191038631
 30
0.0
 11
4320.9883212381882913
 21
578.6726717640037805
 31
0.0
  0
ARC
  5
240A1
  8
0
 10
4320.9483221755090199
 20
578.6730214162954553
 30
0.0
 40
0.0400005908957688
 50
270.0
 51
359.4991610053535283
  0
ARC
  5
240A2
  8
0
 10
4320.5214095230339808
 20
578.6129692317017543
 30
0.0
 40
0.0200518638936617
 50
358.4019129072327132
 51
89.7025618591552245
  0
LINE
  5
240A3
  8
0
 10
4320.5414535876889204
 20
578.6124100200039493
 30
0.0
 11
4320.5356676923884152
 21
578.4230361407038572
 31
0.0
  0
ARC
  5
240A4
  8
0
 10
4320.4956892200762013
 20
578.4242575935036257
 30
0.0
 40
0.0399971273388462
 50
320.7507051582663848
 51
358.2500000027791884
  0
ARC
  5
240A5
  8
0
 10
4325.6174237820296185
 20
578.1827202597634141
 30
0.0
 40
5.0953509392159919
 50
177.5678096057247899
 51
178.5018900045043893
  0
ARC
  5
240A6
  8
0
 10
5674.341878666959019
 20
540.1063956371375525
 30
0.0
 40
1354.3571610255489759
 50
178.3833394841591087
 51
178.4563806475345018
  0
ARC
  5
240A7
  8
0
 10
4320.4425716813393592
 20
576.568362831432637
 30
0.0
 40
0.0400152613169795
 50
358.2586116346810741
 51
32.8064730634578723
  0
LINE
  5
240A8
  8
0
 10
4320.4825684623892812
 20
576.5671468364039356
 30
0.0
 11
4320.4789870548893305
 21
576.4499264250039232
 31
0.0
  0
ARC
  5
240A9
  8
0
 10
4320.3990264001458854
 20
576.4523693880232713
 30
0.0
 40
0.0799979648194449
 50
269.9999999978114147
 51
358.2500400450646794
  0
ARC
  5
240AA
  8
0
 10
4319.3945408962426882
 20
578.6129692317017543
 30
0.0
 40
0.0200518638936617
 50
90.2974381408447755
 51
181.5980870927672868
  0
LINE
  5
240AB
  8
0
 10
4319.3744968315886581
 20
578.6124100200039493
 30
0.0
 11
4319.3802827268882538
 21
578.4230361407038572
 31
0.0
  0
ARC
  5
240AC
  8
0
 10
4319.4202611991995582
 20
578.4242575935036257
 30
0.0
 40
0.0399971273388462
 50
181.7499999972208116
 51
219.2492948417335867
  0
ARC
  5
240AD
  8
0
 10
4314.2985266372470505
 20
578.1827202597634141
 30
0.0
 40
5.0953509392159919
 50
1.4981099954955841
 51
2.4321903942751639
  0
ARC
  5
240AE
  8
0
 10
2965.5740717523190142
 20
540.1063956371375525
 30
0.0
 40
1354.3571610255489759
 50
1.548191338005465
 51
1.616660515840846
  0
ARC
  5
240AF
  8
0
 10
4319.0584472718983307
 20
579.0130208253789306
 30
0.0
 40
0.0200000000250515
 50
89.9999999981240251
 51
171.7798288961949993
  0
ARC
  5
240B0
  8
0
 10
4318.9218662339590082
 20
579.0327515382304
 30
0.0
 40
0.1179988440064244
 50
279.9343189138824073
 51
351.7798288954645045
  0
ARC
  5
240B1
  8
0
 10
4318.9456738144517658
 20
578.8968218504053311
 30
0.0
 40
0.0199999999062079
 50
99.9347267851105556
 51
180.5000016965495888
  0
LINE
  5
240B2
  8
0
 10
4318.9256745760885678
 20
578.8966473191038631
 30
0.0
 11
4318.9276291810883777
 21
578.6726717640037805
 31
0.0
  0
ARC
  5
240B3
  8
0
 10
4318.9676282437685586
 20
578.6730214162954553
 30
0.0
 40
0.0400005908957688
 50
180.5008389946463865
 51
270.0
  0
ARC
  5
240B4
  8
0
 10
4319.3485981225130672
 20
576.7047740577274908
 30
0.0
 40
0.0884858450159614
 50
270.270193509762521
 51
355.6590555407403258
  0
ARC
  5
240B5
  8
0
 10
4318.3248954117889298
 20
576.6062891966039388
 30
0.0
 40
0.0099999999999962
 50
90.0
 51
180.0000028648107957
  0
ARC
  5
240B6
  8
0
 10
4318.2448954117890025
 20
576.6062891966039388
 30
0.0
 40
0.009999999999998
 50
359.9999994270286834
 51
90.0
  0
LINE
  5
240B7
  8
0
 10
4318.2499558242407147
 20
576.6149142894039414
 30
0.0
 11
4318.3198349993363081
 21
576.6149142894039414
 31
0.0
  0
LINE
  5
240B8
  8
0
 10
4318.3148954117887115
 20
576.5880208254038735
 30
0.0
 11
4318.2622159198890586
 21
576.5880208254038735
 31
0.0
  0
ARC
  5
240B9
  8
0
 10
4318.2622159198890586
 20
576.5735288838983479
 30
0.0
 40
0.0144919415055895
 50
90.0
 51
120.3408697243929026
  0
ARC
  5
240BA
  8
0
 10
4318.2648954117894391
 20
576.5780208254039962
 30
0.0
 40
0.010000000000003
 50
90.0
 51
180.0
  0
LINE
  5
240BB
  8
0
 10
4318.3148954117887115
 20
576.3920208254038471
 30
0.0
 11
4318.2648954117894391
 21
576.3920208254038471
 31
0.0
  0
ARC
  5
240BC
  8
0
 10
4318.2648954117894391
 20
576.4020208254039517
 30
0.0
 40
0.0099999999999962
 50
180.0
 51
270.0
  0
ARC
  5
240BD
  8
0
 10
4318.324897822116327
 20
576.3823738333210258
 30
0.0
 40
0.010002410407476
 50
180.0
 51
269.986193170737522
  0
ARC
  5
240BE
  8
0
 10
4318.2448928146068283
 20
576.3823740201540886
 30
0.0
 40
0.010002597287287
 50
270.0148768901642029
 51
359.9916676329380039
  0
VIEWPORT
  5
7BC8
 67
     1
  8
0
 10
8.4975296442687753
 20
4.5
 30
0.0
 40
16.9950592885375507
 41
9.0
 68
     1
 69
     1
1001
ACAD
1000
MVIEW
1002
{
1070
    16
1010
0.0
1020
0.0
1030
0.0
1010
0.0
1020
0.0
1030
1.0
1040
0.0
1040
9.0
1040
8.4975296442687753
1040
4.5
1040
50.0
1040
0.0
1040
0.0
1070
     0
1070
   100
1070
     1
1070
     1
1070
     0
1070
     0
1070
     0
1070
     0
1040
0.0
1040
0.0
1040
0.0
1040
1.0
1040
1.0
1040
0.0
1040
0.0
1070
     0
1002
{
1002
}
1002
}
  0
ENDSEC
  0
EOF
