  0
SECTION
  2
HEADER
  9
$ACADVER
  1
AC1009
  9
$INSBASE
 10
4315.1457372794557159
 20
583.4408170962791473
 30
0.0
  9
$EXTMIN
 10
4305.1134560865612002
 20
580.7801676940790685
 30
0.0
  9
$EXTMAX
 10
4325.1780184723493221
 20
583.4452979534703445
 30
0.0
  9
$LIMMIN
 10
0.0
 20
0.0
  9
$LIMMAX
 10
11.6929133858000007
 20
8.2677165353999982
  9
$ORTHOMODE
 70
     0
  9
$REGENMODE
 70
     1
  9
$FILLMODE
 70
     1
  9
$QTEXTMODE
 70
     0
  9
$MIRRTEXT
 70
     0
  9
$DRAGMODE
 70
     2
  9
$LTSCALE
 40
0.6431102362
  9
$OSMODE
 70
    19
  9
$ATTMODE
 70
     1
  9
$TEXTSIZE
 40
0.2
  9
$TRACEWID
 40
0.05
  9
$TEXTSTYLE
  7
STANDARD
  9
$CLAYER
  8
0
  9
$CELTYPE
  6
BYLAYER
  9
$CECOLOR
 62
   256
  9
$DIMSCALE
 40
1.0
  9
$DIMASZ
 40
0.1875
  9
$DIMEXO
 40
0.0625
  9
$DIMDLI
 40
0.4443307087
  9
$DIMRND
 40
0.0
  9
$DIMDLE
 40
0.0
  9
$DIMEXE
 40
0.125
  9
$DIMTP
 40
0.01
  9
$DIMTM
 40
0.01
  9
$DIMTXT
 40
2.0
  9
$DIMCEN
 40
0.1052362205
  9
$DIMTSZ
 40
0.0
  9
$DIMTOL
 70
     1
  9
$DIMLIM
 70
     0
  9
$DIMTIH
 70
     1
  9
$DIMTOH
 70
     1
  9
$DIMSE1
 70
     0
  9
$DIMSE2
 70
     0
  9
$DIMTAD
 70
     0
  9
$DIMZIN
 70
     0
  9
$DIMBLK
  1

  9
$DIMASO
 70
     1
  9
$DIMSHO
 70
     1
  9
$DIMPOST
  1
\X
  9
$DIMAPOST
  1

  9
$DIMALT
 70
     1
  9
$DIMALTD
 70
     2
  9
$DIMALTF
 40
25.3999999999999986
  9
$DIMLFAC
 40
1.0
  9
$DIMTOFL
 70
     0
  9
$DIMTVP
 40
0.0
  9
$DIMTIX
 70
     0
  9
$DIMSOXD
 70
     0
  9
$DIMSAH
 70
     0
  9
$DIMBLK1
  1

  9
$DIMBLK2
  1

  9
$DIMSTYLE
  2
STANDARD
  9
$DIMCLRD
 70
     0
  9
$DIMCLRE
 70
     0
  9
$DIMCLRT
 70
     0
  9
$DIMTFAC
 40
1.0
  9
$DIMGAP
 40
0.09
  9
$LUNITS
 70
     2
  9
$LUPREC
 70
     4
  9
$SKETCHINC
 40
0.1
  9
$FILLETRAD
 40
0.0
  9
$AUNITS
 70
     0
  9
$AUPREC
 70
     0
  9
$MENU
  1
.
  9
$ELEVATION
 40
0.0
  9
$PELEVATION
 40
0.0
  9
$THICKNESS
 40
0.0
  9
$LIMCHECK
 70
     0
  9
$BLIPMODE
 70
     0
  9
$CHAMFERA
 40
0.0
  9
$CHAMFERB
 40
0.0
  9
$SKPOLY
 70
     0
  9
$TDCREATE
 40
2458060.468368056230247
  9
$TDUPDATE
 40
2459698.6043750001117587
  9
$TDINDWG
 40
4.6546482639000004
  9
$TDUSRTIMER
 40
4.6546482639000004
  9
$USRTIMER
 70
     1
  9
$ANGBASE
 50
0.0
  9
$ANGDIR
 70
     0
  9
$PDMODE
 70
     0
  9
$PDSIZE
 40
0.3125
  9
$PLINEWID
 40
0.0
  9
$COORDS
 70
     1
  9
$SPLFRAME
 70
     0
  9
$SPLINETYPE
 70
     6
  9
$SPLINESEGS
 70
     8
  9
$ATTDIA
 70
     1
  9
$ATTREQ
 70
     1
  9
$HANDLING
 70
     1
  9
$HANDSEED
  5
2407B
  9
$SURFTAB1
 70
     6
  9
$SURFTAB2
 70
     6
  9
$SURFTYPE
 70
     6
  9
$SURFU
 70
     6
  9
$SURFV
 70
     6
  9
$UCSNAME
  2

  9
$UCSORG
 10
0.0
 20
0.0
 30
0.0
  9
$UCSXDIR
 10
1.0
 20
0.0
 30
0.0
  9
$UCSYDIR
 10
0.0
 20
1.0
 30
0.0
  9
$PUCSNAME
  2

  9
$PUCSORG
 10
0.0
 20
0.0
 30
0.0
  9
$PUCSXDIR
 10
1.0
 20
0.0
 30
0.0
  9
$PUCSYDIR
 10
0.0
 20
1.0
 30
0.0
  9
$USERI1
 70
     0
  9
$USERI2
 70
     0
  9
$USERI3
 70
     0
  9
$USERI4
 70
     0
  9
$USERI5
 70
     0
  9
$USERR1
 40
0.0
  9
$USERR2
 40
0.0
  9
$USERR3
 40
0.0
  9
$USERR4
 40
0.0
  9
$USERR5
 40
0.0
  9
$WORLDVIEW
 70
     1
  9
$SHADEDGE
 70
     3
  9
$SHADEDIF
 70
    70
  9
$TILEMODE
 70
     1
  9
$MAXACTVP
 70
    64
  9
$PLIMCHECK
 70
     0
  9
$PEXTMIN
 10
1.0000000000000000E+20
 20
1.0000000000000000E+20
 30
1.0000000000000000E+20
  9
$PEXTMAX
 10
-1.0000000000000000E+20
 20
-1.0000000000000000E+20
 30
-1.0000000000000000E+20
  9
$PLIMMIN
 10
0.0
 20
0.0
  9
$PLIMMAX
 10
12.0
 20
9.0
  9
$UNITMODE
 70
     0
  9
$VISRETAIN
 70
     1
  9
$PLINEGEN
 70
     0
  9
$PSLTSCALE
 70
     1
  0
ENDSEC
  0
SECTION
  2
TABLES
  0
TABLE
  2
VPORT
 70
     1
  0
VPORT
  2
*ACTIVE
 70
     0
 10
0.0
 20
0.0
 11
1.0
 21
1.0
 12
78.7859562974545042
 22
-15.9985539445939793
 13
0.0
 23
0.0
 14
1.0
 24
1.0
 15
0.0
 25
0.0
 16
0.0
 26
0.0
 36
98.7941898181710343
 17
4236.431396484375
 27
598.728610913283319
 37
0.0
 40
10.2351965003011394
 41
2.005224660397074
 42
50.0
 43
0.0
 44
0.0
 50
0.0
 51
0.0
 71
     0
 72
   100
 73
     1
 74
     1
 75
     0
 76
     0
 77
     0
 78
     0
  0
ENDTAB
  0
TABLE
  2
LTYPE
 70
     2
  0
LTYPE
  2
CONTINUOUS
 70
     0
  3
Solid line
 72
    65
 73
     0
 40
0.0
  0
LTYPE
  2
PHANTOM2
 70
     0
  3
___ _ _ ___ _ _ ___ _ _ ___ _ _
 72
    65
 73
     6
 40
1.25
 49
0.625
 49
-0.125
 49
0.125
 49
-0.125
 49
0.125
 49
-0.125
  0
ENDTAB
  0
TABLE
  2
LAYER
 70
     2
  0
LAYER
  2
0
 70
     0
 62
   255
  6
CONTINUOUS
  0
LAYER
  2
DEFPOINTS
 70
     0
 62
     7
  6
CONTINUOUS
  0
ENDTAB
  0
TABLE
  2
STYLE
 70
     1
  0
STYLE
  2
STANDARD
 70
     0
 40
0.0
 41
0.8
 50
0.0
 71
     0
 42
0.2
  3
txt
  4

  0
ENDTAB
  0
TABLE
  2
VIEW
 70
     0
  0
ENDTAB
  0
TABLE
  2
UCS
 70
     0
  0
ENDTAB
  0
TABLE
  2
APPID
 70
    10
  0
APPID
  2
ACAD
 70
     0
  0
APPID
  2
ACAD_MLEADERVER
 70
     0
  0
APPID
  2
ACAD_EXEMPT_FROM_CAD_STANDARDS
 70
     0
  0
APPID
  2
ACAD_NAV_VCDISPLAY
 70
     0
  0
APPID
  2
ACAECLAYERSTANDARD
 70
     0
  0
APPID
  2
ACCMTRANSPARENCY
 70
     0
  0
APPID
  2
ACAD_DSTYLE_DIMJAG
 70
     0
  0
APPID
  2
ACAD_DSTYLE_DIMTALN
 70
     0
  0
APPID
  2
ACDBATTR
 70
     0
  0
APPID
  2
DCO15
 70
     0
  0
ENDTAB
  0
TABLE
  2
DIMSTYLE
 70
     1
  0
DIMSTYLE
  2
STANDARD
 70
     0
  3

  4

  5

  6

  7

 40
1.0
 41
0.1875
 42
0.0625
 43
0.38
 44
0.125
 45
0.0
 46
0.0
 47
0.01
 48
0.01
140
0.15625
141
0.09
142
0.0
143
25.3999999999999986
144
1.0
145
0.0
146
1.0
147
0.09
 71
     1
 72
     0
 73
     1
 74
     1
 75
     0
 76
     0
 77
     0
 78
     4
170
     0
171
     2
172
     0
173
     0
174
     0
175
     0
176
     0
177
     0
178
     0
  0
ENDTAB
  0
ENDSEC
  0
SECTION
  2
BLOCKS
  0
BLOCK
  8
0
  2
$MODEL_SPACE
 70
     0
 10
0.0
 20
0.0
 30
0.0
  3
$MODEL_SPACE
  1

  0
ENDBLK
  5
21
  8
0
  0
BLOCK
 67
     1
  8
0
  2
$PAPER_SPACE
 70
     0
 10
0.0
 20
0.0
 30
0.0
  3
$PAPER_SPACE
  1

  0
ENDBLK
  5
1D
 67
     1
  8
0
  0
ENDSEC
  0
SECTION
  2
ENTITIES
  0
ATTDEF
  5
3930
  8
DEFPOINTS
 10
4315.1458870923297582
 20
583.4442979534700271
 30
0.0
 40
0.001
  1
P30657-00
  3

  2
MODELNUMBER
 70
     0
1001
ACDBATTR
1070
     0
1070
     1
  0
ATTDEF
  5
3931
  8
DEFPOINTS
 10
4315.1458870923297582
 20
583.4426312868032483
 30
0.0
 40
0.001
  1
KLYNE
  3

  2
TRADENAME
 70
     0
1001
ACDBATTR
1070
     0
1070
     1
  0
ATTDEF
  5
3932
  8
DEFPOINTS
 10
4315.1458870923297582
 20
583.4409646201366968
 30
0.0
 40
0.001
  1
TOWEL BAR
  3

  2
PRODUCT
 70
     0
1001
ACDBATTR
1070
     0
1070
     1
  0
LINE
  5
23F1A
  8
0
 10
4305.2462295439154332
 20
583.4408170962791473
 30
0.0
 11
4307.0452854193972598
 21
583.4408170962791473
 31
0.0
  0
LINE
  5
23F1C
  8
0
 10
4305.1300055636802426
 20
583.3243182199792045
 30
0.0
 11
4307.1615093996306314
 21
583.3243182199792045
 31
0.0
  0
LINE
  5
23F1D
  8
0
 10
4305.1554105157847516
 20
583.0408170962790564
 30
0.0
 11
4307.1361044475261224
 21
583.0408170962790564
 31
0.0
  0
LINE
  5
23F1E
  8
0
 10
4305.7047062911506146
 20
580.7801676940790685
 30
0.0
 11
4307.7788372795057512
 21
580.7801676940790685
 31
0.0
  0
LINE
  5
23F1F
  8
0
 10
4307.8588372795129544
 20
580.7801676940790685
 30
0.0
 11
4322.4326372793957489
 21
580.7801676940790685
 31
0.0
  0
LINE
  5
23F20
  8
0
 10
4307.78883727950506
 20
581.0140854674790489
 30
0.0
 11
4307.78883727950506
 21
580.7901701041962497
 31
0.0
  0
LINE
  5
23F21
  8
0
 10
4307.8488372795063697
 20
581.0140854674790489
 30
0.0
 11
4307.8488372795063697
 21
580.7901688363790527
 31
0.0
  0
LINE
  5
23F22
  8
0
 10
4306.7547172917547869
 20
581.0240854674791535
 30
0.0
 11
4307.7788372795057512
 21
581.0240854674791535
 31
0.0
  0
LINE
  5
23F23
  8
0
 10
4307.8588372795056785
 20
581.0240854674791535
 30
0.0
 11
4322.4326372794057534
 21
581.0240854674791535
 31
0.0
  0
ARC
  5
23F24
  8
0
 10
4305.2462295439154332
 20
583.4208170962541544
 30
0.0
 40
0.0200000000250515
 50
89.9999999981240251
 51
171.7798288961949993
  0
ARC
  5
23F25
  8
0
 10
4305.1096485059752013
 20
583.4405478091055102
 30
0.0
 40
0.1179988440064244
 50
279.9343189138824073
 51
351.7798288954645045
  0
ARC
  5
23F26
  8
0
 10
4305.1334560864679588
 20
583.304618121280555
 30
0.0
 40
0.0199999999062079
 50
99.9347267851105556
 51
180.5000016965495888
  0
LINE
  5
23F27
  8
0
 10
4305.1134568481056704
 20
583.3044435899790869
 30
0.0
 11
4305.1154114531063897
 21
583.080468034879118
 31
0.0
  0
ARC
  5
23F28
  8
0
 10
4305.1554105157847516
 20
583.0808176871705655
 30
0.0
 40
0.0400005908957688
 50
180.5008389946463865
 51
270.0
  0
ARC
  5
23F29
  8
0
 10
4305.5823231682607002
 20
583.0207655025770919
 30
0.0
 40
0.0200518638936617
 50
90.2974381408447755
 51
181.5980870927672868
  0
LINE
  5
23F2A
  8
0
 10
4305.5622791036057606
 20
583.0202062908790595
 30
0.0
 11
4305.5680649989053563
 21
582.8308324115790811
 31
0.0
  0
ARC
  5
23F2B
  8
0
 10
4305.6080434712175702
 20
582.8320538643788495
 30
0.0
 40
0.0399971273388462
 50
181.7499999972208116
 51
219.2492948417335867
  0
ARC
  5
23F2C
  8
0
 10
4300.4863089092650625
 20
582.590516530638638
 30
0.0
 40
5.0953509392159919
 50
1.4981099954955841
 51
2.4321903942751639
  0
ARC
  5
23F2D
  8
0
 10
2951.7618540243361167
 20
544.5141919080127764
 30
0.0
 40
1354.3571610255489759
 50
1.5436193524655191
 51
1.616660515840846
  0
ARC
  5
23F2E
  8
0
 10
4305.6611610099553218
 20
580.9761591023077472
 30
0.0
 40
0.0400152613169795
 50
147.1935269365420993
 51
181.7413883653188122
  0
LINE
  5
23F2F
  8
0
 10
4305.6211642289053998
 20
580.9749431072790458
 30
0.0
 11
4305.6247456364053505
 21
580.8577226958791471
 31
0.0
  0
ARC
  5
23F30
  8
0
 10
4305.7047062911478861
 20
580.8601656588986089
 30
0.0
 40
0.0799979648194449
 50
181.749959954935207
 51
270.000000002188699
  0
ARC
  5
23F31
  8
0
 10
4306.7091917950510833
 20
583.0207655025770919
 30
0.0
 40
0.0200518638936617
 50
358.4019129072327132
 51
89.7025618591552245
  0
LINE
  5
23F32
  8
0
 10
4306.7292358597051134
 20
583.0202062908790595
 30
0.0
 11
4306.7234499644064272
 21
582.8308324115790811
 31
0.0
  0
ARC
  5
23F33
  8
0
 10
4306.6834714920933038
 20
582.8320538643788495
 30
0.0
 40
0.0399971273388462
 50
320.7507051582663848
 51
358.2500000027791884
  0
ARC
  5
23F34
  8
0
 10
4311.805206054046721
 20
582.590516530638638
 30
0.0
 40
5.0953509392159919
 50
177.5678096057247899
 51
178.5018900045043893
  0
ARC
  5
23F35
  8
0
 10
5660.529660938975212
 20
544.5141919080127764
 30
0.0
 40
1354.3571610255489759
 50
178.3833394841591087
 51
178.4518086619945052
  0
ARC
  5
23F36
  8
0
 10
4307.0452854193972598
 20
583.4208170962541544
 30
0.0
 40
0.0200000000250515
 50
8.2201711038049652
 51
90.0000000018759465
  0
ARC
  5
23F37
  8
0
 10
4307.1818664573347633
 20
583.4405478091055102
 30
0.0
 40
0.1179988440064244
 50
188.2201711045354102
 51
260.065681086117479
  0
ARC
  5
23F38
  8
0
 10
4307.1580588768438247
 20
583.304618121280555
 30
0.0
 40
0.0199999999062079
 50
359.4999983034504112
 51
80.0652732148894444
  0
LINE
  5
23F39
  8
0
 10
4307.1780581152061131
 20
583.3044435899790869
 30
0.0
 11
4307.1761035102053938
 21
583.080468034879118
 31
0.0
  0
ARC
  5
23F3A
  8
0
 10
4307.1361044475261224
 20
583.0808176871705655
 30
0.0
 40
0.0400005908957688
 50
270.0
 51
359.4991610053535283
  0
ARC
  5
23F3B
  8
0
 10
4306.7551345687797948
 20
581.1125703286028283
 30
0.0
 40
0.0884858450159614
 50
184.3409444592595889
 51
269.729806490237479
  0
ARC
  5
23F3C
  8
0
 10
4307.7788372795057512
 20
581.0140854674790489
 30
0.0
 40
0.0099999999999962
 50
359.9999971351891759
 51
90.0
  0
ARC
  5
23F3D
  8
0
 10
4307.8588372795056785
 20
581.0140854674790489
 30
0.0
 40
0.009999999999998
 50
90.0
 51
180.0000005729646944
  0
LINE
  5
23F3E
  8
0
 10
4307.8537768670530568
 20
581.0227105602790516
 30
0.0
 11
4307.7838976919583729
 21
581.0227105602790516
 31
0.0
  0
LINE
  5
23F3F
  8
0
 10
4307.78883727950506
 20
580.995817096279211
 30
0.0
 11
4307.8415167714047129
 21
580.995817096279211
 31
0.0
  0
ARC
  5
23F40
  8
0
 10
4307.8415167714047129
 20
580.9813251547734581
 30
0.0
 40
0.0144919415055895
 50
59.6591302756071329
 51
90.0
  0
ARC
  5
23F41
  8
0
 10
4307.8388372795061514
 20
580.9858170962789927
 30
0.0
 40
0.010000000000003
 50
0.0
 51
90.0
  0
LINE
  5
23F42
  8
0
 10
4307.78883727950506
 20
580.7998170962790709
 30
0.0
 11
4307.8388372795061514
 21
580.7998170962790709
 31
0.0
  0
ARC
  5
23F43
  8
0
 10
4307.8388372795061514
 20
580.8098170962790618
 30
0.0
 40
0.0099999999999962
 50
270.0
 51
0.0
  0
ARC
  5
23F44
  8
0
 10
4307.778834869178354
 20
580.7901701041962497
 30
0.0
 40
0.010002410407476
 50
270.013806829262478
 51
0.0
  0
ARC
  5
23F45
  8
0
 10
4307.8588398766860337
 20
580.7901702910291988
 30
0.0
 40
0.010002597287287
 50
180.0083323670619961
 51
269.9851231098357971
  0
LINE
  5
23F46
  8
0
 10
4325.0452450149959986
 20
583.4408170962791473
 30
0.0
 11
4323.2461891395150815
 21
583.4408170962791473
 31
0.0
  0
LINE
  5
23F47
  8
0
 10
4325.1614689952311892
 20
583.3243182199792045
 30
0.0
 11
4323.1299651592798909
 21
583.3243182199792045
 31
0.0
  0
LINE
  5
23F48
  8
0
 10
4325.1360640431257707
 20
583.0408170962790564
 30
0.0
 11
4323.1553701113853094
 21
583.0408170962790564
 31
0.0
  0
LINE
  5
23F49
  8
0
 10
4324.5867682677589983
 20
580.7801676940790685
 30
0.0
 11
4322.5126372794047711
 21
580.7801676940790685
 31
0.0
  0
LINE
  5
23F4A
  8
0
 10
4322.5026372794045528
 20
581.0140854674790489
 30
0.0
 11
4322.5026372794045528
 21
580.7901701041962497
 31
0.0
  0
LINE
  5
23F4B
  8
0
 10
4322.4426372794059716
 20
581.0140854674790489
 30
0.0
 11
4322.4426372794059716
 21
580.7901688363790527
 31
0.0
  0
LINE
  5
23F4C
  8
0
 10
4323.536757267154826
 20
581.0240854674791535
 30
0.0
 11
4322.5126372794047711
 21
581.0240854674791535
 31
0.0
  0
ARC
  5
23F4D
  8
0
 10
4325.0452450149959986
 20
583.4208170962541544
 30
0.0
 40
0.0200000000250515
 50
8.2201711038049652
 51
90.0000000018759465
  0
ARC
  5
23F4E
  8
0
 10
4325.1818260529353211
 20
583.4405478091055102
 30
0.0
 40
0.1179988440064244
 50
188.2201711045354102
 51
260.065681086117479
  0
ARC
  5
23F4F
  8
0
 10
4325.1580184724443825
 20
583.304618121280555
 30
0.0
 40
0.0199999999062079
 50
359.4999983034504112
 51
80.0652732148894444
  0
LINE
  5
23F50
  8
0
 10
4325.1780177108057615
 20
583.3044435899790869
 30
0.0
 11
4325.1760631058059516
 21
583.080468034879118
 31
0.0
  0
ARC
  5
23F51
  8
0
 10
4325.1360640431257707
 20
583.0808176871705655
 30
0.0
 40
0.0400005908957688
 50
270.0
 51
359.4991610053535283
  0
ARC
  5
23F52
  8
0
 10
4324.7091513906507316
 20
583.0207655025770919
 30
0.0
 40
0.0200518638936617
 50
358.4019129072327132
 51
89.7025618591552245
  0
LINE
  5
23F53
  8
0
 10
4324.7291954553047617
 20
583.0202062908790595
 30
0.0
 11
4324.7234095600060755
 21
582.8308324115790811
 31
0.0
  0
ARC
  5
23F54
  8
0
 10
4324.6834310876938616
 20
582.8320538643788495
 30
0.0
 40
0.0399971273388462
 50
320.7507051582663848
 51
358.2500000027791884
  0
ARC
  5
23F55
  8
0
 10
4329.8051656496463693
 20
582.590516530638638
 30
0.0
 40
5.0953509392159919
 50
177.5678096057247899
 51
178.5018900045043893
  0
ARC
  5
23F56
  8
0
 10
5678.5296205345748604
 20
544.5141919080127764
 30
0.0
 40
1354.3571610255489759
 50
178.3833394841591087
 51
178.4563806475345018
  0
ARC
  5
23F57
  8
0
 10
4324.63031354895611
 20
580.9761591023077472
 30
0.0
 40
0.0400152613169795
 50
358.2586116346810741
 51
32.8064730634578723
  0
LINE
  5
23F58
  8
0
 10
4324.670310330006032
 20
580.9749431072790458
 30
0.0
 11
4324.6667289225060813
 21
580.8577226958791471
 31
0.0
  0
ARC
  5
23F59
  8
0
 10
4324.5867682677626362
 20
580.8601656588986089
 30
0.0
 40
0.0799979648194449
 50
269.9999999978114147
 51
358.2500400450646794
  0
ARC
  5
23F5A
  8
0
 10
4323.582282763861258
 20
583.0207655025770919
 30
0.0
 40
0.0200518638936617
 50
90.2974381408447755
 51
181.5980870927672868
  0
LINE
  5
23F5B
  8
0
 10
4323.5622386992063184
 20
583.0202062908790595
 30
0.0
 11
4323.5680245945059141
 21
582.8308324115790811
 31
0.0
  0
ARC
  5
23F5C
  8
0
 10
4323.608003066818128
 20
582.8320538643788495
 30
0.0
 40
0.0399971273388462
 50
181.7499999972208116
 51
219.2492948417335867
  0
ARC
  5
23F5D
  8
0
 10
4318.4862685048647108
 20
582.590516530638638
 30
0.0
 40
5.0953509392159919
 50
1.4981099954955841
 51
2.4321903942751639
  0
ARC
  5
23F5E
  8
0
 10
2969.7618136199362198
 20
544.5141919080127764
 30
0.0
 40
1354.3571610255489759
 50
1.548191338005465
 51
1.616660515840846
  0
ARC
  5
23F5F
  8
0
 10
4323.2461891395150815
 20
583.4208170962541544
 30
0.0
 40
0.0200000000250515
 50
89.9999999981240251
 51
171.7798288961949993
  0
ARC
  5
23F60
  8
0
 10
4323.1096081015766686
 20
583.4405478091055102
 30
0.0
 40
0.1179988440064244
 50
279.9343189138824073
 51
351.7798288954645045
  0
ARC
  5
23F61
  8
0
 10
4323.1334156820676071
 20
583.304618121280555
 30
0.0
 40
0.0199999999062079
 50
99.9347267851105556
 51
180.5000016965495888
  0
LINE
  5
23F62
  8
0
 10
4323.1134164437053187
 20
583.3044435899790869
 30
0.0
 11
4323.115371048706038
 21
583.080468034879118
 31
0.0
  0
ARC
  5
23F63
  8
0
 10
4323.1553701113853094
 20
583.0808176871705655
 30
0.0
 40
0.0400005908957688
 50
180.5008389946463865
 51
270.0
  0
ARC
  5
23F64
  8
0
 10
4323.536339990129818
 20
581.1125703286028283
 30
0.0
 40
0.0884858450159614
 50
270.270193509762521
 51
355.6590555407403258
  0
ARC
  5
23F65
  8
0
 10
4322.5126372794047711
 20
581.0140854674790489
 30
0.0
 40
0.0099999999999962
 50
90.0
 51
180.0000028648107957
  0
ARC
  5
23F66
  8
0
 10
4322.4326372794057534
 20
581.0140854674790489
 30
0.0
 40
0.009999999999998
 50
359.9999994270286834
 51
90.0
  0
LINE
  5
23F67
  8
0
 10
4322.437697691858375
 20
581.0227105602790516
 30
0.0
 11
4322.5075768669530589
 21
581.0227105602790516
 31
0.0
  0
LINE
  5
23F68
  8
0
 10
4322.5026372794045528
 20
580.995817096279211
 30
0.0
 11
4322.4499577875048999
 21
580.995817096279211
 31
0.0
  0
ARC
  5
23F69
  8
0
 10
4322.4499577875048999
 20
580.9813251547734581
 30
0.0
 40
0.0144919415055895
 50
90.0
 51
120.3408697243929026
  0
ARC
  5
23F6A
  8
0
 10
4322.4526372794061899
 20
580.9858170962789927
 30
0.0
 40
0.010000000000003
 50
90.0
 51
180.0
  0
LINE
  5
23F6B
  8
0
 10
4322.5026372794045528
 20
580.7998170962790709
 30
0.0
 11
4322.4526372794061899
 21
580.7998170962790709
 31
0.0
  0
ARC
  5
23F6C
  8
0
 10
4322.4526372794061899
 20
580.8098170962790618
 30
0.0
 40
0.0099999999999962
 50
180.0
 51
270.0
  0
ARC
  5
23F6D
  8
0
 10
4322.5126396897321683
 20
580.7901701041962497
 30
0.0
 40
0.010002410407476
 50
180.0
 51
269.986193170737522
  0
ARC
  5
23F6E
  8
0
 10
4322.4326346822253981
 20
580.7901702910291988
 30
0.0
 40
0.010002597287287
 50
270.0148768901642029
 51
359.9916676329380039
  0
VIEWPORT
  5
7BC8
 67
     1
  8
0
 10
8.4975296442687753
 20
4.5
 30
0.0
 40
16.9950592885375507
 41
9.0
 68
     1
 69
     1
1001
ACAD
1000
MVIEW
1002
{
1070
    16
1010
0.0
1020
0.0
1030
0.0
1010
0.0
1020
0.0
1030
1.0
1040
0.0
1040
9.0
1040
8.4975296442687753
1040
4.5
1040
50.0
1040
0.0
1040
0.0
1070
     0
1070
   100
1070
     1
1070
     1
1070
     0
1070
     0
1070
     0
1070
     0
1040
0.0
1040
0.0
1040
0.0
1040
1.0
1040
1.0
1040
0.0
1040
0.0
1070
     0
1002
{
1002
}
1002
}
  0
ENDSEC
  0
EOF
