  0
SECTION
  2
HEADER
  9
$ACADVER
  1
AC1009
  9
$INSBASE
 10
4315.0114258127414359
 20
598.7866404428626765
 30
0.0
  9
$EXTMIN
 10
4301.6709948238058132
 20
597.7481984875594208
 30
-0.0000000000000058
  9
$EXTMAX
 10
4328.0887564148124511
 20
599.8533316982892529
 30
0.0000000000000104
  9
$LIMMIN
 10
0.0
 20
0.0
  9
$LIMMAX
 10
11.6929133858000007
 20
8.2677165353999982
  9
$ORTHOMODE
 70
     0
  9
$REGENMODE
 70
     1
  9
$FILLMODE
 70
     1
  9
$QTEXTMODE
 70
     0
  9
$MIRRTEXT
 70
     0
  9
$DRAGMODE
 70
     2
  9
$LTSCALE
 40
0.6431102362
  9
$OSMODE
 70
    19
  9
$ATTMODE
 70
     1
  9
$TEXTSIZE
 40
0.2
  9
$TRACEWID
 40
0.05
  9
$TEXTSTYLE
  7
STANDARD
  9
$CLAYER
  8
0
  9
$CELTYPE
  6
BYLAYER
  9
$CECOLOR
 62
   256
  9
$DIMSCALE
 40
1.0
  9
$DIMASZ
 40
0.1875
  9
$DIMEXO
 40
0.0625
  9
$DIMDLI
 40
0.4443307087
  9
$DIMRND
 40
0.0
  9
$DIMDLE
 40
0.0
  9
$DIMEXE
 40
0.125
  9
$DIMTP
 40
0.01
  9
$DIMTM
 40
0.01
  9
$DIMTXT
 40
2.0
  9
$DIMCEN
 40
0.1052362205
  9
$DIMTSZ
 40
0.0
  9
$DIMTOL
 70
     1
  9
$DIMLIM
 70
     0
  9
$DIMTIH
 70
     1
  9
$DIMTOH
 70
     1
  9
$DIMSE1
 70
     0
  9
$DIMSE2
 70
     0
  9
$DIMTAD
 70
     0
  9
$DIMZIN
 70
     0
  9
$DIMBLK
  1

  9
$DIMASO
 70
     1
  9
$DIMSHO
 70
     1
  9
$DIMPOST
  1
\X
  9
$DIMAPOST
  1

  9
$DIMALT
 70
     1
  9
$DIMALTD
 70
     2
  9
$DIMALTF
 40
25.3999999999999986
  9
$DIMLFAC
 40
1.0
  9
$DIMTOFL
 70
     0
  9
$DIMTVP
 40
0.0
  9
$DIMTIX
 70
     0
  9
$DIMSOXD
 70
     0
  9
$DIMSAH
 70
     0
  9
$DIMBLK1
  1

  9
$DIMBLK2
  1

  9
$DIMSTYLE
  2
STANDARD
  9
$DIMCLRD
 70
     0
  9
$DIMCLRE
 70
     0
  9
$DIMCLRT
 70
     0
  9
$DIMTFAC
 40
1.0
  9
$DIMGAP
 40
0.09
  9
$LUNITS
 70
     2
  9
$LUPREC
 70
     4
  9
$SKETCHINC
 40
0.1
  9
$FILLETRAD
 40
0.0
  9
$AUNITS
 70
     0
  9
$AUPREC
 70
     0
  9
$MENU
  1
.
  9
$ELEVATION
 40
0.0
  9
$PELEVATION
 40
0.0
  9
$THICKNESS
 40
0.0
  9
$LIMCHECK
 70
     0
  9
$BLIPMODE
 70
     0
  9
$CHAMFERA
 40
0.0
  9
$CHAMFERB
 40
0.0
  9
$SKPOLY
 70
     0
  9
$TDCREATE
 40
2458060.468368056230247
  9
$TDUPDATE
 40
2459698.6017361111007631
  9
$TDINDWG
 40
4.6537107639000004
  9
$TDUSRTIMER
 40
4.6537107639000004
  9
$USRTIMER
 70
     1
  9
$ANGBASE
 50
0.0
  9
$ANGDIR
 70
     0
  9
$PDMODE
 70
     0
  9
$PDSIZE
 40
0.3125
  9
$PLINEWID
 40
0.0
  9
$COORDS
 70
     1
  9
$SPLFRAME
 70
     0
  9
$SPLINETYPE
 70
     6
  9
$SPLINESEGS
 70
     8
  9
$ATTDIA
 70
     1
  9
$ATTREQ
 70
     1
  9
$HANDLING
 70
     1
  9
$HANDSEED
  5
23F05
  9
$SURFTAB1
 70
     6
  9
$SURFTAB2
 70
     6
  9
$SURFTYPE
 70
     6
  9
$SURFU
 70
     6
  9
$SURFV
 70
     6
  9
$UCSNAME
  2

  9
$UCSORG
 10
0.0
 20
0.0
 30
0.0
  9
$UCSXDIR
 10
1.0
 20
0.0
 30
0.0
  9
$UCSYDIR
 10
0.0
 20
1.0
 30
0.0
  9
$PUCSNAME
  2

  9
$PUCSORG
 10
0.0
 20
0.0
 30
0.0
  9
$PUCSXDIR
 10
1.0
 20
0.0
 30
0.0
  9
$PUCSYDIR
 10
0.0
 20
1.0
 30
0.0
  9
$USERI1
 70
     0
  9
$USERI2
 70
     0
  9
$USERI3
 70
     0
  9
$USERI4
 70
     0
  9
$USERI5
 70
     0
  9
$USERR1
 40
0.0
  9
$USERR2
 40
0.0
  9
$USERR3
 40
0.0
  9
$USERR4
 40
0.0
  9
$USERR5
 40
0.0
  9
$WORLDVIEW
 70
     1
  9
$SHADEDGE
 70
     3
  9
$SHADEDIF
 70
    70
  9
$TILEMODE
 70
     1
  9
$MAXACTVP
 70
    64
  9
$PLIMCHECK
 70
     0
  9
$PEXTMIN
 10
1.0000000000000000E+20
 20
1.0000000000000000E+20
 30
1.0000000000000000E+20
  9
$PEXTMAX
 10
-1.0000000000000000E+20
 20
-1.0000000000000000E+20
 30
-1.0000000000000000E+20
  9
$PLIMMIN
 10
0.0
 20
0.0
  9
$PLIMMAX
 10
12.0
 20
9.0
  9
$UNITMODE
 70
     0
  9
$VISRETAIN
 70
     1
  9
$PLINEGEN
 70
     0
  9
$PSLTSCALE
 70
     1
  0
ENDSEC
  0
SECTION
  2
TABLES
  0
TABLE
  2
VPORT
 70
     1
  0
VPORT
  2
*ACTIVE
 70
     0
 10
0.0
 20
0.0
 11
1.0
 21
1.0
 12
78.4484791349341322
 22
0.0721541796410747
 13
0.0
 23
0.0
 14
1.0
 24
1.0
 15
0.0
 25
0.0
 16
0.0
 26
0.0
 36
98.7941898181710343
 17
4236.431396484375
 27
598.728610913283319
 37
0.0
 40
13.2156134021618001
 41
2.005224660397074
 42
50.0
 43
0.0
 44
0.0
 50
0.0
 51
0.0
 71
     0
 72
   100
 73
     1
 74
     1
 75
     0
 76
     0
 77
     0
 78
     0
  0
ENDTAB
  0
TABLE
  2
LTYPE
 70
     2
  0
LTYPE
  2
CONTINUOUS
 70
     0
  3
Solid line
 72
    65
 73
     0
 40
0.0
  0
LTYPE
  2
PHANTOM2
 70
     0
  3
___ _ _ ___ _ _ ___ _ _ ___ _ _
 72
    65
 73
     6
 40
1.25
 49
0.625
 49
-0.125
 49
0.125
 49
-0.125
 49
0.125
 49
-0.125
  0
ENDTAB
  0
TABLE
  2
LAYER
 70
     2
  0
LAYER
  2
0
 70
     0
 62
   255
  6
CONTINUOUS
  0
LAYER
  2
DEFPOINTS
 70
     0
 62
     7
  6
CONTINUOUS
  0
ENDTAB
  0
TABLE
  2
STYLE
 70
     1
  0
STYLE
  2
STANDARD
 70
     0
 40
0.0
 41
0.8
 50
0.0
 71
     0
 42
0.2
  3
txt
  4

  0
ENDTAB
  0
TABLE
  2
VIEW
 70
     0
  0
ENDTAB
  0
TABLE
  2
UCS
 70
     0
  0
ENDTAB
  0
TABLE
  2
APPID
 70
    10
  0
APPID
  2
ACAD
 70
     0
  0
APPID
  2
ACAD_MLEADERVER
 70
     0
  0
APPID
  2
ACAD_EXEMPT_FROM_CAD_STANDARDS
 70
     0
  0
APPID
  2
ACAD_NAV_VCDISPLAY
 70
     0
  0
APPID
  2
ACAECLAYERSTANDARD
 70
     0
  0
APPID
  2
ACCMTRANSPARENCY
 70
     0
  0
APPID
  2
ACAD_DSTYLE_DIMJAG
 70
     0
  0
APPID
  2
ACAD_DSTYLE_DIMTALN
 70
     0
  0
APPID
  2
ACDBATTR
 70
     0
  0
APPID
  2
DCO15
 70
     0
  0
ENDTAB
  0
TABLE
  2
DIMSTYLE
 70
     1
  0
DIMSTYLE
  2
STANDARD
 70
     0
  3

  4

  5

  6

  7

 40
1.0
 41
0.1875
 42
0.0625
 43
0.38
 44
0.125
 45
0.0
 46
0.0
 47
0.01
 48
0.01
140
0.15625
141
0.09
142
0.0
143
25.3999999999999986
144
1.0
145
0.0
146
1.0
147
0.09
 71
     1
 72
     0
 73
     1
 74
     1
 75
     0
 76
     0
 77
     0
 78
     4
170
     0
171
     2
172
     0
173
     0
174
     0
175
     0
176
     0
177
     0
178
     0
  0
ENDTAB
  0
ENDSEC
  0
SECTION
  2
BLOCKS
  0
BLOCK
  8
0
  2
$MODEL_SPACE
 70
     0
 10
0.0
 20
0.0
 30
0.0
  3
$MODEL_SPACE
  1

  0
ENDBLK
  5
21
  8
0
  0
BLOCK
 67
     1
  8
0
  2
$PAPER_SPACE
 70
     0
 10
0.0
 20
0.0
 30
0.0
  3
$PAPER_SPACE
  1

  0
ENDBLK
  5
1D
 67
     1
  8
0
  0
ENDSEC
  0
SECTION
  2
ENTITIES
  0
ATTDEF
  5
3930
  8
DEFPOINTS
 10
4315.0115780657306459
 20
598.7901230705505213
 30
0.0
 40
0.001
  1
P30656-BL
  3

  2
MODELNUMBER
 70
     0
1001
ACDBATTR
1070
     0
1070
     1
  0
ATTDEF
  5
3931
  8
DEFPOINTS
 10
4315.0115780657306459
 20
598.7884564038838562
 30
0.0
 40
0.001
  1
KLYNE
  3

  2
TRADENAME
 70
     0
1001
ACDBATTR
1070
     0
1070
     1
  0
ATTDEF
  5
3932
  8
DEFPOINTS
 10
4315.0115780657306459
 20
598.7867897372170773
 30
0.0
 40
0.001
  1
TOWEL BAR
  3

  2
PRODUCT
 70
     0
1001
ACDBATTR
1070
     0
1070
     1
  0
LINE
  5
23DDC
  8
0
 10
4301.9791446198460108
 20
599.71923207067573
 30
0.0
 11
4301.9791446198460108
 21
597.8540488150498504
 31
0.0
  0
LINE
  5
23DDD
  8
0
 10
4327.4991546591927545
 20
597.7781411470263038
 30
0.0
 11
4302.5236969662892079
 21
597.7781411470263038
 31
0.0
  0
LINE
  5
23DDE
  8
0
 10
4302.4899235144239356
 20
598.1371482084263107
 30
0.0
 11
4302.4679539790213312
 21
598.1371482084263107
 31
0.0
  0
LINE
  5
23DDF
  8
0
 10
4303.9450819211524504
 20
599.818941837957027
 30
0.0
 11
4302.0778101087298637
 21
599.818941837957027
 31
0.0
  0
LINE
  5
23DE0
  8
0
 10
4302.4934112087912581
 20
598.4969997785261739
 30
0.0
 11
4302.4868354740747236
 21
597.818531939026343
 31
0.0
  0
ARC
  5
23DE1
  8
0
 10
4302.5270558966767567
 20
597.8182222632774483
 30
0.0
 40
0.0402216147524864
 50
179.558861849949011
 51
265.209617127319575
  0
ARC
  5
23DE2
  8
0
 10
4299.9901929846209896
 20
598.5149700872269705
 30
0.0
 40
2.5032827267035538
 50
359.5886874152525934
 51
1.468689633106969
  0
ARC
  5
23DE3
  8
0
 10
4302.151639852128028
 20
598.569478555703995
 30
0.0
 40
0.3411500586195835
 50
1.6213140895613649
 51
4.4067951301365911
  0
LINE
  5
23DE4
  8
0
 10
4302.4917813505908271
 20
598.5956915967261693
 30
0.0
 11
4302.4372960614418844
 21
599.1076567687601937
 31
0.0
  0
LINE
  5
23DE5
  8
0
 10
4302.4401113990898011
 20
599.3881905162262456
 30
0.0
 11
4302.4279618339796798
 21
598.1775495718261482
 31
0.0
  0
ARC
  5
23DE6
  8
0
 10
4302.4679615654567897
 20
598.1771499355119204
 30
0.0
 40
0.0400017278049578
 50
179.4275783490120091
 51
269.9891336979882226
  0
ARC
  5
23DE7
  8
0
 10
4302.0790011026392676
 20
599.7190923602011026
 30
0.0
 40
0.0998565805274603
 50
90.6833855321578994
 51
179.919836798683491
  0
LINE
  5
23DE8
  8
0
 10
4302.4799480464907901
 20
599.4286200648381282
 30
0.0
 11
4303.5429439833924334
 21
599.4286200648381282
 31
0.0
  0
LINE
  5
23DE9
  8
0
 10
4302.5782837184306118
 20
598.7129855812263486
 30
0.0
 11
4304.6445258127923807
 21
598.7129855812263486
 31
0.0
  0
LINE
  5
23DEA
  8
0
 10
4304.7245258127913985
 20
598.7129855812263486
 30
0.0
 11
4325.2983258126905639
 21
598.7129855812263486
 31
0.0
  0
LINE
  5
23DEB
  8
0
 10
4303.6151277523158569
 20
598.7657771782262444
 30
0.0
 11
4304.6445258127923807
 21
598.7657771782262444
 31
0.0
  0
LINE
  5
23DEC
  8
0
 10
4304.7245258127913985
 20
598.7657771782262444
 30
0.0
 11
4325.2983258126905639
 21
598.7657771782262444
 31
0.0
  0
ARC
  5
23DED
  8
0
 10
4302.4804247665097137
 20
599.3883093410775018
 30
0.0
 40
0.0403135425394575
 50
90.6775559790114301
 51
180.1688805275873051
  0
ARC
  5
23DEE
  8
0
 10
4302.5785251305105703
 20
598.8240938840137915
 30
0.0
 40
0.1111085650528361
 50
258.8083793233753909
 51
269.8755100097907871
  0
ARC
  5
23DEF
  8
0
 10
4302.5662685083416363
 20
598.762145871472967
 30
0.0
 40
0.0479596850567238
 50
241.2772530715583059
 51
258.8083793233753909
  0
ARC
  5
23DF0
  8
0
 10
4302.5474707266994301
 20
598.7278433582436037
 30
0.0
 40
0.0088442276447103
 50
194.5503072161650095
 51
241.2772530715583059
  0
ARC
  5
23DF1
  8
0
 10
4302.5383832794450427
 20
598.686129056933396
 30
0.0
 40
0.0394958807285565
 50
89.2356491675330119
 51
177.3129557566304868
  0
LINE
  5
23DF2
  8
0
 10
4302.4989308243902997
 20
598.6879806467262597
 30
0.0
 11
4302.4934112087912581
 21
598.4969997785261739
 31
0.0
  0
LINE
  5
23DF3
  8
0
 10
4302.4517090058807298
 20
599.4166039837417657
 30
0.0
 11
4302.5113091741868629
 21
598.7148852287751879
 31
0.0
  0
ARC
  5
23DF4
  8
0
 10
4303.6170818106702427
 20
598.9996460626642829
 30
0.0
 40
0.2338770477244933
 50
244.8763609633504075
 51
269.5212843659807049
  0
ARC
  5
23DF5
  8
0
 10
4303.9438909272430465
 20
599.7190923602011026
 30
0.0
 40
0.0998565805274603
 50
0.0801632013165189
 51
89.3166144678421148
  0
LINE
  5
23DF6
  8
0
 10
4304.0437474100363033
 20
599.71923207067573
 30
0.0
 11
4304.0437474100363033
 21
598.7657771782262444
 31
0.0
  0
LINE
  5
23DF7
  8
0
 10
4303.5502488619185897
 20
598.7755214758522015
 30
0.0
 11
4303.5855959684404297
 21
599.1076567687601937
 31
0.0
  0
LINE
  5
23DF8
  8
0
 10
4303.5827806307897845
 20
599.3881905162262456
 30
0.0
 11
4303.5890100648975931
 21
598.7674598215954802
 31
0.0
  0
ARC
  5
23DF9
  8
0
 10
4303.5424672633707814
 20
599.3883093410775018
 30
0.0
 40
0.0403135425394575
 50
359.8311194724125812
 51
89.3224440209885842
  0
LINE
  5
23DFA
  8
0
 10
4303.5711830240006748
 20
599.4166039837417657
 30
0.0
 11
4303.5177839296420643
 21
598.7878952556393415
 31
0.0
  0
LINE
  5
23DFB
  8
0
 10
4304.6545258127898705
 20
598.7557771782262535
 30
0.0
 11
4304.6545258127898705
 21
597.7881435571433713
 31
0.0
  0
LINE
  5
23DFC
  8
0
 10
4304.7145258127911802
 20
598.7557771782262535
 30
0.0
 11
4304.7145258127911802
 21
597.7881422893261743
 31
0.0
  0
ARC
  5
23DFD
  8
0
 10
4304.6445258127923807
 20
598.7557771782262535
 30
0.0
 40
0.0099999999999962
 50
359.9999971351891759
 51
90.0
  0
ARC
  5
23DFE
  8
0
 10
4304.7245258127913985
 20
598.7557771782262535
 30
0.0
 40
0.009999999999998
 50
90.0
 51
180.0000005729646944
  0
LINE
  5
23DFF
  8
0
 10
4304.7194654003387768
 20
598.7644022710262561
 30
0.0
 11
4304.6495862252440929
 21
598.7644022710262561
 31
0.0
  0
LINE
  5
23E00
  8
0
 10
4304.6545258127898705
 20
598.7433010459262732
 30
0.0
 11
4304.7045258127900524
 21
598.7433010459262732
 31
0.0
  0
ARC
  5
23E01
  8
0
 10
4304.7045258127900524
 20
598.7333010459262823
 30
0.0
 40
0.010000000000003
 50
0.0
 51
90.0
  0
LINE
  5
23E02
  8
0
 10
4304.6545258127898705
 20
597.7981411470261719
 30
0.0
 11
4304.7072053046913425
 21
597.7981411470261719
 31
0.0
  0
ARC
  5
23E03
  8
0
 10
4304.7045258127900524
 20
597.8081411470261628
 30
0.0
 40
0.0099999999999962
 50
270.0
 51
0.0
  0
ARC
  5
23E04
  8
0
 10
4304.644523402464074
 20
597.7881435571433713
 30
0.0
 40
0.010002410407476
 50
270.013806829262478
 51
0.0
  0
ARC
  5
23E05
  8
0
 10
4304.7245284099717537
 20
597.7881437439764341
 30
0.0
 40
0.010002597287287
 50
180.0083323670619961
 51
269.9851231098357971
  0
ARC
  5
23E06
  8
0
 10
4304.6445258127923807
 20
598.702985581226244
 30
0.0
 40
0.0099999999999962
 50
359.9999971351891759
 51
90.0
  0
ARC
  5
23E07
  8
0
 10
4304.7245258127913985
 20
598.702985581226244
 30
0.0
 40
0.009999999999998
 50
90.0
 51
180.0000005729646944
  0
LINE
  5
23E08
  8
0
 10
4304.6545258127898705
 20
598.6961220241263391
 30
0.0
 11
4304.7045258127900524
 21
598.6961220241263391
 31
0.0
  0
ARC
  5
23E09
  8
0
 10
4304.7045258127900524
 20
598.6861220241263482
 30
0.0
 40
0.010000000000003
 50
0.0
 51
90.0
  0
ARC
  5
23E0A
  8
0
 10
4304.7070618754778479
 20
597.8133989987935593
 30
0.0
 40
0.0152585258951275
 50
270.5385847622684992
 51
299.2857163341964792
  0
LINE
  5
23E0B
  8
0
 10
4328.0437070056350422
 20
599.71923207067573
 30
0.0
 11
4328.0437070056350422
 21
597.8540488150498504
 31
0.0
  0
LINE
  5
23E0C
  8
0
 10
4327.5329281110571173
 20
598.1371482084263107
 30
0.0
 11
4327.5548976464606312
 21
598.1371482084263107
 31
0.0
  0
LINE
  5
23E0D
  8
0
 10
4326.0777697043286025
 20
599.818941837957027
 30
0.0
 11
4327.9450415167520987
 21
599.818941837957027
 31
0.0
  0
LINE
  5
23E0E
  8
0
 10
4327.5294404166897948
 20
598.4969997785261739
 30
0.0
 11
4327.5360161514072388
 21
597.818531939026343
 31
0.0
  0
ARC
  5
23E0F
  8
0
 10
4327.4957957288061152
 20
597.8182222632774483
 30
0.0
 40
0.0402216147524864
 50
274.790382872680425
 51
0.4411381500509285
  0
ARC
  5
23E10
  8
0
 10
4330.0326586408609728
 20
598.5149700872269705
 30
0.0
 40
2.5032827267035538
 50
178.5313103668929955
 51
180.4113125847472929
  0
ARC
  5
23E11
  8
0
 10
4327.8712117733539344
 20
598.569478555703995
 30
0.0
 40
0.3411500586195835
 50
175.5932048698633992
 51
178.3786859104386053
  0
LINE
  5
23E12
  8
0
 10
4327.5310702748911353
 20
598.5956915967261693
 30
0.0
 11
4327.5855555640409875
 21
599.1076567687601937
 31
0.0
  0
LINE
  5
23E13
  8
0
 10
4327.5827402263912518
 20
599.3881905162262456
 30
0.0
 11
4327.5948897915013731
 21
598.1775495718261482
 31
0.0
  0
ARC
  5
23E14
  8
0
 10
4327.5548900600242632
 20
598.1771499355119204
 30
0.0
 40
0.0400017278049578
 50
270.0108663020117774
 51
0.5724216509879348
  0
ARC
  5
23E15
  8
0
 10
4327.9438505228417853
 20
599.7190923602011026
 30
0.0
 40
0.0998565805274603
 50
0.0801632013165189
 51
89.3166144678421148
  0
LINE
  5
23E16
  8
0
 10
4327.5429035789911723
 20
599.4286200648381282
 30
0.0
 11
4326.479907642091348
 21
599.4286200648381282
 31
0.0
  0
LINE
  5
23E17
  8
0
 10
4327.4445679070504411
 20
598.7129855812263486
 30
0.0
 11
4325.3783258126923101
 21
598.7129855812263486
 31
0.0
  0
LINE
  5
23E18
  8
0
 10
4326.407723873165196
 20
598.7657771782262444
 30
0.0
 11
4325.3783258126923101
 21
598.7657771782262444
 31
0.0
  0
ARC
  5
23E19
  8
0
 10
4327.5424268589713392
 20
599.3883093410775018
 30
0.0
 40
0.0403135425394575
 50
359.8311194724125812
 51
89.3224440209885842
  0
ARC
  5
23E1A
  8
0
 10
4327.4443264949695731
 20
598.8240938840137915
 30
0.0
 40
0.1111085650528361
 50
270.1244899902090992
 51
281.1916206766244954
  0
ARC
  5
23E1B
  8
0
 10
4327.4565831171412356
 20
598.762145871472967
 30
0.0
 40
0.0479596850567238
 50
281.1916206766244954
 51
298.7227469284416088
  0
ARC
  5
23E1C
  8
0
 10
4327.4753808987834418
 20
598.7278433582436037
 30
0.0
 40
0.0088442276447103
 50
298.7227469284416088
 51
345.4496927838349052
  0
ARC
  5
23E1D
  8
0
 10
4327.4844683460378292
 20
598.686129056933396
 30
0.0
 40
0.0394958807285565
 50
2.6870442433694999
 51
90.7643508324670165
  0
LINE
  5
23E1E
  8
0
 10
4327.5239208010898437
 20
598.6879806467262597
 30
0.0
 11
4327.5294404166897948
 21
598.4969997785261739
 31
0.0
  0
LINE
  5
23E1F
  8
0
 10
4327.5711426196012326
 20
599.4166039837417657
 30
0.0
 11
4327.5115424512950995
 21
598.7148852287751879
 31
0.0
  0
ARC
  5
23E20
  8
0
 10
4326.4057698148126292
 20
598.9996460626642829
 30
0.0
 40
0.2338770477244933
 50
270.4787156340191814
 51
295.1236390366495925
  0
ARC
  5
23E21
  8
0
 10
4326.0789606982389159
 20
599.7190923602011026
 30
0.0
 40
0.0998565805274603
 50
90.6833855321578994
 51
179.919836798683491
  0
LINE
  5
23E22
  8
0
 10
4326.4726027635615537
 20
598.7755214758522015
 30
0.0
 11
4326.4372556570406232
 21
599.1076567687601937
 31
0.0
  0
LINE
  5
23E23
  8
0
 10
4326.4400709946912684
 20
599.3881905162262456
 30
0.0
 11
4326.4338415605843693
 21
598.7674598215954802
 31
0.0
  0
ARC
  5
23E24
  8
0
 10
4326.480384362111181
 20
599.3883093410775018
 30
0.0
 40
0.0403135425394575
 50
90.6775559790114301
 51
180.1688805275873051
  0
LINE
  5
23E25
  8
0
 10
4326.4516686014812876
 20
599.4166039837417657
 30
0.0
 11
4326.5050676958398981
 21
598.7878952556393415
 31
0.0
  0
LINE
  5
23E26
  8
0
 10
4325.3683258126911824
 20
598.7557771782262535
 30
0.0
 11
4325.3683258126911824
 21
597.7881435571433713
 31
0.0
  0
LINE
  5
23E27
  8
0
 10
4325.3083258126907822
 20
598.7557771782262535
 30
0.0
 11
4325.3083258126907822
 21
597.7881422893261743
 31
0.0
  0
ARC
  5
23E28
  8
0
 10
4325.3783258126923101
 20
598.7557771782262535
 30
0.0
 40
0.0099999999999962
 50
90.0
 51
180.0000028648107957
  0
ARC
  5
23E29
  8
0
 10
4325.2983258126905639
 20
598.7557771782262535
 30
0.0
 40
0.009999999999998
 50
359.9999994270286834
 51
90.0
  0
LINE
  5
23E2A
  8
0
 10
4325.3033862251440951
 20
598.7644022710262561
 30
0.0
 11
4325.373265400238779
 21
598.7644022710262561
 31
0.0
  0
LINE
  5
23E2B
  8
0
 10
4325.3683258126911824
 20
598.7433010459262732
 30
0.0
 11
4325.318325812690091
 21
598.7433010459262732
 31
0.0
  0
ARC
  5
23E2C
  8
0
 10
4325.318325812690091
 20
598.7333010459262823
 30
0.0
 40
0.010000000000003
 50
90.0
 51
180.0
  0
LINE
  5
23E2D
  8
0
 10
4325.3683258126911824
 20
597.7981411470261719
 30
0.0
 11
4325.3156463207906199
 21
597.7981411470261719
 31
0.0
  0
ARC
  5
23E2E
  8
0
 10
4325.318325812690091
 20
597.8081411470261628
 30
0.0
 40
0.0099999999999962
 50
180.0
 51
270.0
  0
ARC
  5
23E2F
  8
0
 10
4325.3783282230178884
 20
597.7881435571433713
 30
0.0
 40
0.010002410407476
 50
180.0
 51
269.986193170737522
  0
ARC
  5
23E30
  8
0
 10
4325.2983232155092992
 20
597.7881437439764341
 30
0.0
 40
0.010002597287287
 50
270.0148768901642029
 51
359.9916676329380039
  0
ARC
  5
23E31
  8
0
 10
4325.3783258126923101
 20
598.702985581226244
 30
0.0
 40
0.0099999999999962
 50
90.0
 51
180.0000028648107957
  0
ARC
  5
23E32
  8
0
 10
4325.2983258126905639
 20
598.702985581226244
 30
0.0
 40
0.009999999999998
 50
359.9999994270352204
 51
90.0
  0
LINE
  5
23E33
  8
0
 10
4325.3683258126911824
 20
598.6961220241263391
 30
0.0
 11
4325.318325812690091
 21
598.6961220241263391
 31
0.0
  0
ARC
  5
23E34
  8
0
 10
4325.318325812690091
 20
598.6861220241263482
 30
0.0
 40
0.010000000000003
 50
90.0
 51
180.0
  0
ARC
  5
23E35
  8
0
 10
4325.3157897500022955
 20
597.8133989987935593
 30
0.0
 40
0.0152585258951275
 50
240.7142836658034923
 51
269.4614152377315008
  0
LINE
  5
23E36
  8
0
 10
4325.9791042154483875
 20
599.71923207067573
 30
0.0
 11
4325.9791042154483875
 21
598.7657771782262444
 31
0.0
  0
ARC
  5
23E37
  8
0
 10
4327.9424032720908144
 20
597.8547977197357568
 30
0.0
 40
0.1013065017075524
 50
270.7390941039307108
 51
359.5764391438910934
  0
ARC
  5
23E38
  8
0
 10
4326.08270450987402
 20
597.8606291169169253
 30
0.0
 40
0.1071900530246024
 50
230.3133830804779905
 51
268.0735608739536247
  0
LINE
  5
23E39
  8
0
 10
4327.9437100517907311
 20
597.7534996466296207
 30
0.0
 11
4326.0791011692899701
 21
597.7534996466296207
 31
0.0
  0
ARC
  5
23E3A
  8
0
 10
4302.080448353391148
 20
597.8547977197357568
 30
0.0
 40
0.1013065017075524
 50
180.4235608561089066
 51
269.2609058960691755
  0
ARC
  5
23E3B
  8
0
 10
4303.9401471156061234
 20
597.8606291169169253
 30
0.0
 40
0.1071900530246024
 50
271.9264391260463753
 51
309.6866169195218959
  0
LINE
  5
23E3C
  8
0
 10
4302.0791415736912313
 20
597.7534996466296207
 30
0.0
 11
4303.9437504561901733
 21
597.7534996466296207
 31
0.0
  0
VIEWPORT
  5
7BC8
 67
     1
  8
0
 10
8.4975296442687753
 20
4.5
 30
0.0
 40
16.9950592885375507
 41
9.0
 68
     1
 69
     1
1001
ACAD
1000
MVIEW
1002
{
1070
    16
1010
0.0
1020
0.0
1030
0.0
1010
0.0
1020
0.0
1030
1.0
1040
0.0
1040
9.0
1040
8.4975296442687753
1040
4.5
1040
50.0
1040
0.0
1040
0.0
1070
     0
1070
   100
1070
     1
1070
     1
1070
     0
1070
     0
1070
     0
1070
     0
1040
0.0
1040
0.0
1040
0.0
1040
1.0
1040
1.0
1040
0.0
1040
0.0
1070
     0
1002
{
1002
}
1002
}
  0
ENDSEC
  0
EOF
