  0
SECTION
  2
HEADER
  9
$ACADVER
  1
AC1009
  9
$INSBASE
 10
1497.7001917958909871
 20
149.9539370498187907
 30
0.0
  9
$EXTMIN
 10
1496.5574140401549812
 20
149.9529467828367046
 30
-0.0015258207003583
  9
$EXTMAX
 10
1498.844397549381938
 20
151.8294434329303897
 30
0.0000000349246037
  9
$LIMMIN
 10
0.0
 20
0.0
  9
$LIMMAX
 10
11.6929133858000007
 20
8.2677165353999982
  9
$ORTHOMODE
 70
     0
  9
$REGENMODE
 70
     1
  9
$FILLMODE
 70
     1
  9
$QTEXTMODE
 70
     0
  9
$MIRRTEXT
 70
     0
  9
$DRAGMODE
 70
     2
  9
$LTSCALE
 40
0.6431102362
  9
$OSMODE
 70
  4095
  9
$ATTMODE
 70
     1
  9
$TEXTSIZE
 40
0.2
  9
$TRACEWID
 40
0.05
  9
$TEXTSTYLE
  7
STANDARD
  9
$CLAYER
  8
0
  9
$CELTYPE
  6
BYLAYER
  9
$CECOLOR
 62
   256
  9
$DIMSCALE
 40
1.0
  9
$DIMASZ
 40
0.1875
  9
$DIMEXO
 40
0.0625
  9
$DIMDLI
 40
0.4443307087
  9
$DIMRND
 40
0.0
  9
$DIMDLE
 40
0.0
  9
$DIMEXE
 40
0.125
  9
$DIMTP
 40
0.01
  9
$DIMTM
 40
0.01
  9
$DIMTXT
 40
1.0
  9
$DIMCEN
 40
0.1052362205
  9
$DIMTSZ
 40
0.0
  9
$DIMTOL
 70
     1
  9
$DIMLIM
 70
     0
  9
$DIMTIH
 70
     0
  9
$DIMTOH
 70
     1
  9
$DIMSE1
 70
     0
  9
$DIMSE2
 70
     0
  9
$DIMTAD
 70
     0
  9
$DIMZIN
 70
     0
  9
$DIMBLK
  1

  9
$DIMASO
 70
     1
  9
$DIMSHO
 70
     1
  9
$DIMPOST
  1
\X
  9
$DIMAPOST
  1

  9
$DIMALT
 70
     1
  9
$DIMALTD
 70
     2
  9
$DIMALTF
 40
25.3999999999999986
  9
$DIMLFAC
 40
1.0
  9
$DIMTOFL
 70
     0
  9
$DIMTVP
 40
0.0
  9
$DIMTIX
 70
     0
  9
$DIMSOXD
 70
     0
  9
$DIMSAH
 70
     0
  9
$DIMBLK1
  1

  9
$DIMBLK2
  1

  9
$DIMSTYLE
  2
STANDARD
  9
$DIMCLRD
 70
     0
  9
$DIMCLRE
 70
     0
  9
$DIMCLRT
 70
     0
  9
$DIMTFAC
 40
1.0
  9
$DIMGAP
 40
0.09
  9
$LUNITS
 70
     2
  9
$LUPREC
 70
     4
  9
$SKETCHINC
 40
0.1
  9
$FILLETRAD
 40
0.0
  9
$AUNITS
 70
     0
  9
$AUPREC
 70
     0
  9
$MENU
  1
.
  9
$ELEVATION
 40
0.0
  9
$PELEVATION
 40
0.0
  9
$THICKNESS
 40
0.0
  9
$LIMCHECK
 70
     0
  9
$BLIPMODE
 70
     0
  9
$CHAMFERA
 40
0.0
  9
$CHAMFERB
 40
0.0
  9
$SKPOLY
 70
     0
  9
$TDCREATE
 40
2458172.5207638889551163
  9
$TDUPDATE
 40
2460067.5548958331346512
  9
$TDINDWG
 40
0.5339590509
  9
$TDUSRTIMER
 40
0.5339590509
  9
$USRTIMER
 70
     1
  9
$ANGBASE
 50
0.0
  9
$ANGDIR
 70
     0
  9
$PDMODE
 70
     0
  9
$PDSIZE
 40
0.3125
  9
$PLINEWID
 40
0.0
  9
$COORDS
 70
     1
  9
$SPLFRAME
 70
     0
  9
$SPLINETYPE
 70
     6
  9
$SPLINESEGS
 70
     8
  9
$ATTDIA
 70
     1
  9
$ATTREQ
 70
     1
  9
$HANDLING
 70
     1
  9
$HANDSEED
  5
12FD0
  9
$SURFTAB1
 70
     6
  9
$SURFTAB2
 70
     6
  9
$SURFTYPE
 70
     6
  9
$SURFU
 70
     6
  9
$SURFV
 70
     6
  9
$UCSNAME
  2

  9
$UCSORG
 10
0.0
 20
0.0
 30
0.0
  9
$UCSXDIR
 10
1.0
 20
0.0
 30
0.0
  9
$UCSYDIR
 10
0.0
 20
1.0
 30
0.0
  9
$PUCSNAME
  2

  9
$PUCSORG
 10
0.0
 20
0.0
 30
0.0
  9
$PUCSXDIR
 10
1.0
 20
0.0
 30
0.0
  9
$PUCSYDIR
 10
0.0
 20
1.0
 30
0.0
  9
$USERI1
 70
     0
  9
$USERI2
 70
     0
  9
$USERI3
 70
     0
  9
$USERI4
 70
     0
  9
$USERI5
 70
     0
  9
$USERR1
 40
0.0
  9
$USERR2
 40
0.0
  9
$USERR3
 40
0.0
  9
$USERR4
 40
0.0
  9
$USERR5
 40
0.0
  9
$WORLDVIEW
 70
     1
  9
$SHADEDGE
 70
     3
  9
$SHADEDIF
 70
    70
  9
$TILEMODE
 70
     1
  9
$MAXACTVP
 70
    64
  9
$PLIMCHECK
 70
     0
  9
$PEXTMIN
 10
1.0000000000000000E+20
 20
1.0000000000000000E+20
 30
1.0000000000000000E+20
  9
$PEXTMAX
 10
-1.0000000000000000E+20
 20
-1.0000000000000000E+20
 30
-1.0000000000000000E+20
  9
$PLIMMIN
 10
0.0
 20
0.0
  9
$PLIMMAX
 10
12.0
 20
9.0
  9
$UNITMODE
 70
     0
  9
$VISRETAIN
 70
     1
  9
$PLINEGEN
 70
     0
  9
$PSLTSCALE
 70
     1
  0
ENDSEC
  0
SECTION
  2
TABLES
  0
TABLE
  2
VPORT
 70
     1
  0
VPORT
  2
*ACTIVE
 70
     0
 10
0.0
 20
0.0
 11
1.0
 21
1.0
 12
1030.9587040869380417
 22
61.7580479879538302
 13
0.0
 23
0.0
 14
1.0
 24
1.0
 15
0.0
 25
0.0
 16
0.0
 26
0.0
 36
24.1179433675886514
 17
466.74220170783002
 27
89.133147119929788
 37
0.0
 40
1.889334711553871
 41
1.7089041095890409
 42
50.0
 43
0.0
 44
0.0
 50
0.0
 51
0.0
 71
     0
 72
   100
 73
     1
 74
     1
 75
     0
 76
     0
 77
     0
 78
     0
  0
ENDTAB
  0
TABLE
  2
LTYPE
 70
     2
  0
LTYPE
  2
CONTINUOUS
 70
     0
  3
Solid line
 72
    65
 73
     0
 40
0.0
  0
LTYPE
  2
PHANTOM2
 70
     0
  3
___ _ _ ___ _ _ ___ _ _ ___ _ _
 72
    65
 73
     6
 40
1.25
 49
0.625
 49
-0.125
 49
0.125
 49
-0.125
 49
0.125
 49
-0.125
  0
ENDTAB
  0
TABLE
  2
LAYER
 70
     2
  0
LAYER
  2
0
 70
     0
 62
   255
  6
CONTINUOUS
  0
LAYER
  2
DEFPOINTS
 70
     0
 62
     7
  6
CONTINUOUS
  0
ENDTAB
  0
TABLE
  2
STYLE
 70
     1
  0
STYLE
  2
STANDARD
 70
     0
 40
0.0
 41
0.8
 50
0.0
 71
     0
 42
0.2
  3
txt
  4

  0
ENDTAB
  0
TABLE
  2
VIEW
 70
     0
  0
ENDTAB
  0
TABLE
  2
UCS
 70
     0
  0
ENDTAB
  0
TABLE
  2
APPID
 70
    11
  0
APPID
  2
ACAD
 70
     0
  0
APPID
  2
ACAD_MLEADERVER
 70
     0
  0
APPID
  2
ACAD_EXEMPT_FROM_CAD_STANDARDS
 70
     0
  0
APPID
  2
ACAD_DSTYLE_DIMJAG
 70
     0
  0
APPID
  2
ACAD_DSTYLE_DIMTALN
 70
     0
  0
APPID
  2
ACAD_NAV_VCDISPLAY
 70
     0
  0
APPID
  2
ACAECLAYERSTANDARD
 70
     0
  0
APPID
  2
ACCMTRANSPARENCY
 70
     0
  0
APPID
  2
DCO15
 70
     0
  0
APPID
  2
ACDBATTR
 70
     0
  0
APPID
  2
ACADANNOTATIVE
 70
     0
  0
ENDTAB
  0
TABLE
  2
DIMSTYLE
 70
     1
  0
DIMSTYLE
  2
STANDARD
 70
     0
  3

  4

  5

  6

  7

 40
1.0
 41
0.1875
 42
0.0625
 43
0.38
 44
0.125
 45
0.0
 46
0.0
 47
0.01
 48
0.01
140
0.15625
141
0.09
142
0.0
143
25.3999999999999986
144
1.0
145
0.0
146
1.0
147
0.09
 71
     1
 72
     0
 73
     1
 74
     1
 75
     0
 76
     0
 77
     0
 78
     4
170
     0
171
     2
172
     0
173
     0
174
     0
175
     0
176
     0
177
     0
178
     0
  0
ENDTAB
  0
ENDSEC
  0
SECTION
  2
BLOCKS
  0
BLOCK
  8
0
  2
$MODEL_SPACE
 70
     0
 10
0.0
 20
0.0
 30
0.0
  3
$MODEL_SPACE
  1

  0
ENDBLK
  5
21
  8
0
  0
BLOCK
 67
     1
  8
0
  2
$PAPER_SPACE
 70
     0
 10
0.0
 20
0.0
 30
0.0
  3
$PAPER_SPACE
  1

  0
ENDBLK
  5
1D
 67
     1
  8
0
  0
ENDSEC
  0
SECTION
  2
ENTITIES
  0
ATTDEF
  5
829
  8
DEFPOINTS
 10
1497.6976734402230704
 20
149.958094962875407
 30
0.0
 40
0.001
  1
P29947-00
  3

  2
MODELNUMBER
 70
     0
1001
ACDBATTR
1070
     0
1070
     1
  0
ATTDEF
  5
82A
  8
DEFPOINTS
 10
1497.6976734402230704
 20
149.9564282962087987
 30
0.0
 40
0.001
  1
TRADITIONAL
  3

  2
TRADENAME
 70
     0
1001
ACDBATTR
1070
     0
1070
     1
  0
ATTDEF
  5
82B
  8
DEFPOINTS
 10
1497.6976734402230704
 20
149.9547616295421051
 30
0.0
 40
0.001
  1
 HANDSHOWER TRIM
  3

  2
PRODUCT
 70
     0
1001
ACDBATTR
1070
     0
1070
     1
  0
LINE
  5
12A8F
  8
0
 10
1496.6182785417540799
 20
149.9539370498187907
 30
0.0
 11
1498.7821050500290312
 21
149.9539370498187907
 31
0.0
  0
LINE
  5
12A90
  8
0
 10
1496.6273165331579094
 20
150.0354759468280008
 30
0.0
 11
1496.6182785417540799
 21
149.9539370498187907
 31
0.0
  0
LINE
  5
12A91
  8
0
 10
1496.9096099027469791
 20
150.3779370498187973
 30
0.0
 11
1496.9096099027469791
 21
150.3309370498189992
 31
0.0
  0
LINE
  5
12A92
  8
0
 10
1496.9296099027469609
 20
150.3979370498188075
 30
0.0
 11
1498.4707736890350134
 21
150.3979370498188075
 31
0.0
  0
LINE
  5
12A93
  8
0
 10
1497.2336921031469501
 20
150.4239370498187895
 30
0.0
 11
1498.1666914886350241
 21
150.4239370498187895
 31
0.0
  0
LINE
  5
12A94
  8
0
 10
1497.0927191386520008
 20
150.3990797125433119
 30
0.0
 11
1497.2336921031469501
 21
150.4239370498187895
 31
0.0
  0
ARC
  5
12A95
  8
0
 10
1497.0961921011130471
 20
150.3793835637449092
 30
0.0
 40
0.0199999936436278
 50
99.9999972921928162
 51
111.924818998676102
  0
ARC
  5
12A96
  8
0
 10
1496.9296099027469609
 20
150.3779370498187973
 30
0.0
 40
0.02
 50
90.0
 51
179.9999999999870113
  0
ARC
  5
12A97
  8
0
 10
1496.8488986978040884
 20
150.3300739744792907
 30
0.0
 40
0.060717339406817
 50
327.7533786466129868
 51
0.8144665146467865
  0
ARC
  5
12A98
  8
0
 10
1496.8342649255368997
 20
150.3455808721762992
 30
0.0
 40
0.081540806713329
 50
300.0259990980110274
 51
324.0216761207992135
  0
ARC
  5
12A99
  8
0
 10
1496.1465518473780776
 20
151.7493915951044983
 30
0.0
 40
1.6445715729891599
 50
293.0632825970541262
 51
296.294296572188216
  0
ARC
  5
12A9A
  8
0
 10
1496.8513607725549264
 20
150.0940514966605122
 30
0.0
 40
0.154568905830203
 50
113.0632825970540978
 51
134.909572188185507
  0
ARC
  5
12A9B
  8
0
 10
1496.8177300783959254
 20
150.1277885148788869
 30
0.0
 40
0.1069326802462655
 50
134.9095721881946872
 51
159.4581763244370904
  0
ARC
  5
12A9C
  8
0
 10
1496.8040316189089936
 20
150.1369664919839124
 30
0.0
 40
0.0909636449909865
 50
161.8446718750032005
 51
174.7733262190101016
  0
ARC
  5
12A9D
  8
0
 10
1496.6935358858061136
 20
150.1471449459951941
 30
0.0
 40
0.0199999999389391
 50
281.9230301709746982
 51
354.5716686548190069
  0
ARC
  5
12A9E
  8
0
 10
1496.7104833373980455
 20
150.0496144233069913
 30
0.0
 40
0.0790082963664807
 50
99.3348770562168255
 51
143.2581856364375881
  0
ARC
  5
12A9F
  8
0
 10
1496.7101793479300795
 20
150.0498413553702051
 30
0.0
 40
0.0786289446057716
 50
143.2581856364375881
 51
163.5804017658456075
  0
ARC
  5
12AA0
  8
0
 10
1496.8490559061119711
 20
150.0094392476341056
 30
0.0
 40
0.223262758253176
 50
163.7091722206131976
 51
173.3029796303736134
  0
LINE
  5
12AA1
  8
0
 10
1497.2343888427790262
 20
150.4528927866141998
 30
0.0
 11
1497.2144511246699494
 21
151.0620345395678044
 31
0.0
  0
ARC
  5
12AA2
  8
0
 10
1497.2933790955230506
 20
150.4543043707834897
 30
0.0
 40
0.0590071393026371
 50
181.3707753399318108
 51
210.9732669178937954
  0
ARC
  5
12AA3
  8
0
 10
1497.3915411126420167
 20
151.0418792316428949
 30
0.0
 40
0.1782332748878359
 50
148.1206924747075107
 51
173.5068822683649046
  0
LINE
  5
12AA4
  8
0
 10
1497.2401921031469101
 20
150.9993381355346003
 30
0.0
 11
1497.2401921031469101
 21
151.6236058946165031
 31
0.0
  0
ARC
  5
12AA5
  8
0
 10
1497.7000353834830548
 20
151.6049498558226958
 30
0.0
 40
0.8019500499359939
 50
259.2225882798667271
 51
270.0111749739157858
  0
ARC
  5
12AA6
  8
0
 10
1497.6667109831889775
 20
151.4298822861480005
 30
0.0
 40
0.623739024444311
 50
238.1911203758635054
 51
259.2225882879428127
  0
ARC
  5
12AA7
  8
0
 10
1497.4931390467450001
 20
151.1500362598225138
 30
0.0
 40
0.294435189709232
 50
210.7852044416399053
 51
238.1911203758635054
  0
ARC
  5
12AA8
  8
0
 10
1497.4599571743319757
 20
151.0746066017572957
 30
0.0
 40
0.2507900118743263
 50
193.3395574469724068
 51
244.2461827296883996
  0
ARC
  5
12AA9
  8
0
 10
1497.6738323044710341
 20
151.429019979293912
 30
0.0
 40
0.6640540574206895
 50
240.9106909128869063
 51
262.7458099507866223
  0
ARC
  5
12AAA
  8
0
 10
1497.7003199073869837
 20
151.5895699834109962
 30
0.0
 40
0.8266853973348013
 50
262.3297723617270094
 51
269.9911208688944271
  0
ARC
  5
12AAB
  8
0
 10
1497.717665129408033
 20
150.7399729077174868
 30
0.0
 40
1.0801128312451049
 50
90.92693273184139
 51
96.4974600317902116
  0
ARC
  5
12AAC
  8
0
 10
1497.6861119396230606
 20
151.1188033239868105
 30
0.0
 40
0.7002398859625395
 50
97.4399091868615841
 51
114.4326319906679004
  0
ARC
  5
12AAD
  8
0
 10
1497.5511862122280036
 20
151.4157957098487941
 30
0.0
 40
0.3740353041841447
 50
114.4326319906679004
 51
146.248654425081412
  0
ARC
  5
12AAE
  8
0
 10
1497.712429954756999
 20
150.9822136932428123
 30
0.0
 40
0.8201759663801771
 50
90.8549639385538939
 51
103.0230628329054952
  0
ARC
  5
12AAF
  8
0
 10
1497.6520683320320586
 20
151.2842090135333137
 30
0.0
 40
0.5124294285911017
 50
104.0566553386989028
 51
123.3534841463870038
  0
ARC
  5
12AB0
  8
0
 10
1497.4975234669971087
 20
151.519003160473801
 30
0.0
 40
0.2313379723956263
 50
123.3534841463870038
 51
157.137647508393286
  0
ARC
  5
12AB1
  8
0
 10
1497.4062306674559295
 20
151.5574960787481871
 30
0.0
 40
0.1322618400266783
 50
157.137647508393286
 51
209.7083693652745069
  0
ARC
  5
12AB2
  8
0
 10
1497.5277141475401095
 20
151.6268125532120905
 30
0.0
 40
0.2721296689410279
 50
209.7083693652745069
 51
234.1046378553693046
  0
ARC
  5
12AB3
  8
0
 10
1497.6088962875560355
 20
151.7389803953186913
 30
0.0
 40
0.4105932549862896
 50
234.1046378553693046
 51
256.2672777001843087
  0
ARC
  5
12AB4
  8
0
 10
1497.7540793119389946
 20
152.3330703491178042
 30
0.0
 40
1.0221658048722331
 50
256.2672777001843087
 51
263.7265519146570227
  0
ARC
  5
12AB5
  8
0
 10
1497.7001848559680184
 20
152.0527034904561958
 30
0.0
 40
0.7379451119700803
 50
265.5075657312598878
 51
270.0005388318476776
  0
ARC
  5
12AB6
  8
0
 10
1497.7016124014890011
 20
151.0533648846268022
 30
0.0
 40
0.6805458430117655
 50
90.1196021768176649
 51
107.0910911986122045
  0
ARC
  5
12AB7
  8
0
 10
1497.6121788285449838
 20
151.3684444728141898
 30
0.0
 40
0.3531684678595331
 50
108.2454945336176024
 51
137.8738640567584071
  0
ARC
  5
12AB8
  8
0
 10
1497.4403867660319065
 20
151.5238129155868876
 30
0.0
 40
0.1215397439236097
 50
137.8738640567584071
 51
192.0109291054137941
  0
ARC
  5
12AB9
  8
0
 10
1497.4960348700269606
 20
151.5356523800791138
 30
0.0
 40
0.1784333674482636
 50
192.0109291054137941
 51
235.9228369376822911
  0
ARC
  5
12ABA
  8
0
 10
1497.6878198684960353
 20
151.1533377600694052
 30
0.0
 40
0.5555240404289795
 50
88.7238755067399296
 51
108.8732481130067953
  0
ARC
  5
12ABB
  8
0
 10
1497.6375452067609331
 20
151.3004020602259914
 30
0.0
 40
0.4001038036735175
 50
108.8732481130067953
 51
130.5501521462246046
  0
ARC
  5
12ABC
  8
0
 10
1497.4650643339189173
 20
151.5019936345123028
 30
0.0
 40
0.1347949000923672
 50
130.5501521462246046
 51
172.9309210080118078
  0
ARC
  5
12ABD
  8
0
 10
1497.4552842988650809
 20
151.5032064427236094
 30
0.0
 40
0.1249399526325671
 50
172.9309210080118078
 51
200.1314058401742955
  0
ARC
  5
12ABE
  8
0
 10
1497.5091465997379601
 20
151.5229507301145873
 30
0.0
 40
0.1823070541800383
 50
200.1314058401742955
 51
210.8394964730844947
  0
ARC
  5
12ABF
  8
0
 10
1497.7339080304200252
 20
150.7987514041080885
 30
0.0
 40
0.8860442900366249
 50
92.1807763688151027
 51
104.6275434049701971
  0
ARC
  5
12AC0
  8
0
 10
1497.5834351146149857
 20
151.3752894739600094
 30
0.0
 40
0.2901934325402498
 50
104.6275434049701971
 51
134.6263391815674879
  0
ARC
  5
12AC1
  8
0
 10
1497.5025476444770902
 20
151.457238918258696
 30
0.0
 40
0.1750478974717225
 50
134.6263391815674879
 51
168.7031615602305124
  0
ARC
  5
12AC2
  8
0
 10
1497.709564084575959
 20
150.9627703328704911
 30
0.0
 40
0.6968341963006188
 50
90.7706406779307429
 51
106.5228882397279051
  0
ARC
  5
12AC3
  8
0
 10
1497.6377366623451053
 20
151.2428637740904946
 30
0.0
 40
0.4080221486636573
 50
108.0391747996602021
 51
127.0162727187933029
  0
ARC
  5
12AC4
  8
0
 10
1497.48767627605298
 20
151.4418830037980115
 30
0.0
 40
0.1587697197340303
 50
127.0162727187933029
 51
166.9823045788581055
  0
ARC
  5
12AC5
  8
0
 10
1497.6995705777419516
 20
150.9737693321002894
 30
0.0
 40
0.6612268984652414
 50
89.9461709990087428
 51
105.3392321257276052
  0
ARC
  5
12AC6
  8
0
 10
1497.6340247210339385
 20
151.231313754458597
 30
0.0
 40
0.3955486132257298
 50
106.0516630692256967
 51
127.2298021592035013
  0
ARC
  5
12AC7
  8
0
 10
1497.4992350350300967
 20
151.4087009399389956
 30
0.0
 40
0.1727606579274894
 50
127.2298021592035013
 51
160.757220899067903
  0
ARC
  5
12AC8
  8
0
 10
1497.7040025345741014
 20
150.9397906976194861
 30
0.0
 40
0.6706730817869481
 50
90.3255541696263435
 51
108.1766732802621931
  0
ARC
  5
12AC9
  8
0
 10
1497.6040576162790785
 20
151.2658815289584879
 30
0.0
 40
0.3297462542842457
 50
109.3523700395880951
 51
135.0969898913411953
  0
ARC
  5
12ACA
  8
0
 10
1497.4669724977989063
 20
151.40250331787459
 30
0.0
 40
0.136205966707222
 50
135.0969898913411953
 51
158.0606057860294982
  0
ARC
  5
12ACB
  8
0
 10
1497.7047612987300909
 20
150.9330772597982957
 30
0.0
 40
0.6527474421201753
 50
90.401097497570774
 51
111.3431956991586986
  0
ARC
  5
12ACC
  8
0
 10
1497.5769020053360236
 20
151.2780977328143024
 30
0.0
 40
0.2849283501892015
 50
112.6465796152707952
 51
133.1682990480341005
  0
ARC
  5
12ACD
  8
0
 10
1497.5127045867000106
 20
151.3465368832750073
 30
0.0
 40
0.1910921851174693
 50
133.1682990480341005
 51
150.4695103172925883
  0
ARC
  5
12ACE
  8
0
 10
1497.7027310053340443
 20
150.8561113368357098
 30
0.0
 40
0.7023136010453453
 50
90.2071529031007344
 51
107.5381993389684965
  0
ARC
  5
12ACF
  8
0
 10
1497.5892877851420053
 20
151.2352785027595132
 30
0.0
 40
0.3066468423595203
 50
108.6759574906502053
 51
132.876423528579295
  0
ARC
  5
12AD0
  8
0
 10
1497.4794332979879528
 20
151.353593605455103
 30
0.0
 40
0.1451956984376518
 50
132.876423528579295
 51
149.5172870036165875
  0
ARC
  5
12AD1
  8
0
 10
1497.7079346185998929
 20
150.7037525761593031
 30
0.0
 40
0.8330242925684055
 50
90.5325624412079861
 51
97.8057190193410833
  0
ARC
  5
12AD2
  8
0
 10
1497.6726508683909742
 20
151.0327367242038008
 30
0.0
 40
0.5023904877181641
 50
98.9147727956368641
 51
119.0012491832409012
  0
ARC
  5
12AD3
  8
0
 10
1497.5330672191460053
 20
151.2845393460164019
 30
0.0
 40
0.214487456320181
 50
119.0012491832409012
 51
142.1847103011859019
  0
ARC
  5
12AD4
  8
0
 10
1497.7085041239570273
 20
150.8107801793532019
 30
0.0
 40
0.6563644398530643
 50
90.7256243920651571
 51
109.0237773196576967
  0
ARC
  5
12AD5
  8
0
 10
1497.6165336816170566
 20
151.1008767552202983
 30
0.0
 40
0.3522155036121322
 50
110.2622506846948056
 51
126.8967621145377933
  0
ARC
  5
12AD6
  8
0
 10
1497.708225705292989
 20
150.6566049158865894
 30
0.0
 40
0.7976348081837024
 50
90.5771023032883562
 51
101.3554439039998982
  0
ARC
  5
12AD7
  8
0
 10
1497.6709965541219844
 20
150.8751559586688984
 30
0.0
 40
0.5760687850811117
 50
102.005053347360203
 51
115.5269551009156004
  0
LINE
  5
12AD8
  8
0
 10
1496.6976678354469641
 20
150.1275764256187983
 30
0.0
 11
1498.7027157563350102
 21
150.1275764256187983
 31
0.0
  0
LINE
  5
12AD9
  8
0
 10
1496.8750673682939123
 20
150.2749829697673931
 30
0.0
 11
1498.525316223488062
 21
150.2749829697673931
 31
0.0
  0
ARC
  5
12ADA
  8
0
 10
1497.7040137962349036
 20
152.1145683519800968
 30
0.0
 40
0.8780583622041568
 50
259.2155221342770801
 51
269.7506029326555108
  0
ARC
  5
12ADB
  8
0
 10
1497.6641611440979887
 20
151.8887689812027872
 30
0.0
 40
0.6487974422815581
 50
240.693264164665095
 51
258.9416059756287041
  0
ARC
  5
12ADC
  8
0
 10
1497.5026250739470015
 20
151.6009943673201974
 30
0.0
 40
0.3187851237918636
 50
214.5907118025043019
 51
240.693264164665095
  0
LINE
  5
12ADD
  8
0
 10
1498.7730670586240649
 20
150.0354759468280008
 30
0.0
 11
1498.7821050500290312
 21
149.9539370498187907
 31
0.0
  0
LINE
  5
12ADE
  8
0
 10
1498.4907736890349952
 20
150.3779370498187973
 30
0.0
 11
1498.4907736890349952
 21
150.3309370498189992
 31
0.0
  0
LINE
  5
12ADF
  8
0
 10
1498.3076644531311103
 20
150.3990797125433119
 30
0.0
 11
1498.1666914886350241
 21
150.4239370498187895
 31
0.0
  0
ARC
  5
12AE0
  8
0
 10
1498.3041914906689271
 20
150.3793835637449092
 30
0.0
 40
0.0199999936436278
 50
68.0751810013238696
 51
80.000002707807198
  0
ARC
  5
12AE1
  8
0
 10
1498.4707736890350134
 20
150.3779370498187973
 30
0.0
 40
0.02
 50
0.0000000000130276
 51
90.0
  0
ARC
  5
12AE2
  8
0
 10
1498.5514848939781132
 20
150.3300739744792907
 30
0.0
 40
0.060717339406817
 50
179.1855334853532042
 51
212.2466213533870132
  0
ARC
  5
12AE3
  8
0
 10
1498.5661186662450746
 20
150.3455808721762992
 30
0.0
 40
0.081540806713329
 50
215.9783238792007865
 51
239.974000901989001
  0
ARC
  5
12AE4
  8
0
 10
1499.2538317444038967
 20
151.7493915951044983
 30
0.0
 40
1.6445715729891599
 50
243.7057034278116987
 51
246.9367174029459022
  0
ARC
  5
12AE5
  8
0
 10
1498.5490228192270479
 20
150.0940514966605122
 30
0.0
 40
0.154568905830203
 50
45.0904278118144575
 51
66.9367174029464991
  0
ARC
  5
12AE6
  8
0
 10
1498.5826535133860489
 20
150.1277885148788869
 30
0.0
 40
0.1069326802462655
 50
20.5418236755628207
 51
45.0904278118144575
  0
ARC
  5
12AE7
  8
0
 10
1498.5963519728738902
 20
150.1369664919839124
 30
0.0
 40
0.0909636449909865
 50
5.2266737809898709
 51
18.1553281249968208
  0
ARC
  5
12AE8
  8
0
 10
1498.706847705976088
 20
150.1471449459951941
 30
0.0
 40
0.0199999999389391
 50
185.4283313451809079
 51
258.0769698290253018
  0
ARC
  5
12AE9
  8
0
 10
1498.6899002543839288
 20
150.0496144233069913
 30
0.0
 40
0.0790082963664807
 50
36.7418143635624119
 51
80.6651229437831745
  0
ARC
  5
12AEA
  8
0
 10
1498.6902042438518947
 20
150.0498413553702051
 30
0.0
 40
0.0786289446057716
 50
16.4195982341543498
 51
36.7418143635624119
  0
ARC
  5
12AEB
  8
0
 10
1498.5513276856709126
 20
150.0094392476341056
 30
0.0
 40
0.223262758253176
 50
6.6970203696263697
 51
16.2908277793867491
  0
LINE
  5
12AEC
  8
0
 10
1498.165994749004085
 20
150.4528927866141998
 30
0.0
 11
1498.1859324671120248
 21
151.0620345395678044
 31
0.0
  0
ARC
  5
12AED
  8
0
 10
1498.1070044962589236
 20
150.4543043707834897
 30
0.0
 40
0.0590071393026371
 50
329.0267330821062046
 51
358.6292246600681892
  0
ARC
  5
12AEE
  8
0
 10
1498.0088424791410944
 20
151.0418792316428949
 30
0.0
 40
0.1782332748878359
 50
6.4931177316350928
 51
31.8793075252925107
  0
LINE
  5
12AEF
  8
0
 10
1498.1601914886350642
 20
150.9993381355346003
 30
0.0
 11
1498.1601914886350642
 21
151.6236058946165031
 31
0.0
  0
ARC
  5
12AF0
  8
0
 10
1497.7003482082989194
 20
151.6049498558226958
 30
0.0
 40
0.80195004993602
 50
269.9888250260841005
 51
280.7774117201332729
  0
ARC
  5
12AF1
  8
0
 10
1497.7336726085939063
 20
151.4298822861480005
 30
0.0
 40
0.623739024444311
 50
280.7774117120570736
 51
301.8088796241364093
  0
ARC
  5
12AF2
  8
0
 10
1497.907244545038111
 20
151.1500362598225138
 30
0.0
 40
0.294435189709232
 50
301.8088796241364093
 51
329.2147955583600947
  0
ARC
  5
12AF3
  8
0
 10
1497.940426417450908
 20
151.0746066017572957
 30
0.0
 40
0.2507900118743263
 50
295.753817270311572
 51
346.6604425530276217
  0
ARC
  5
12AF4
  8
0
 10
1497.7265512873109401
 20
151.429019979293912
 30
0.0
 40
0.6640540574206895
 50
277.2541900492134914
 51
299.0893090871131221
  0
ARC
  5
12AF5
  8
0
 10
1497.7000636843959001
 20
151.5895699834109962
 30
0.0
 40
0.8266853973347835
 50
270.0088791311055729
 51
277.6702276382728769
  0
ARC
  5
12AF6
  8
0
 10
1497.6827184623750782
 20
150.7399729077174868
 30
0.0
 40
1.0801128312451731
 50
83.5025399682097884
 51
89.0730672681586242
  0
ARC
  5
12AF7
  8
0
 10
1497.7142716521589136
 20
151.1188033239868105
 30
0.0
 40
0.7002398859625395
 50
65.567368009332057
 51
82.5600908131383875
  0
ARC
  5
12AF8
  8
0
 10
1497.8491973795551075
 20
151.4157957098487941
 30
0.0
 40
0.3740353041841447
 50
33.7513455749185809
 51
65.567368009332057
  0
ARC
  5
12AF9
  8
0
 10
1497.6879536370261121
 20
150.9822136932428123
 30
0.0
 40
0.8201759663801771
 50
76.9769371670944622
 51
89.1450360614460919
  0
ARC
  5
12AFA
  8
0
 10
1497.7483152597510525
 20
151.2842090135333137
 30
0.0
 40
0.5124294285911017
 50
56.6465158536129394
 51
75.9433446613010972
  0
ARC
  5
12AFB
  8
0
 10
1497.9028601247860024
 20
151.519003160473801
 30
0.0
 40
0.2313379723956263
 50
22.8623524916066891
 51
56.6465158536129394
  0
ARC
  5
12AFC
  8
0
 10
1497.9941529243260447
 20
151.5574960787481871
 30
0.0
 40
0.1322618400266783
 50
330.2916306347253794
 51
22.8623524916066891
  0
ARC
  5
12AFD
  8
0
 10
1497.8726694442430016
 20
151.6268125532120905
 30
0.0
 40
0.2721296689410279
 50
305.8953621446307238
 51
330.2916306347240152
  0
ARC
  5
12AFE
  8
0
 10
1497.7914873042259387
 20
151.7389803953186913
 30
0.0
 40
0.4105932549862896
 50
283.7327222998156913
 51
305.8953621446307238
  0
ARC
  5
12AFF
  8
0
 10
1497.6463042798429797
 20
152.3330703491178042
 30
0.0
 40
1.0221658048722331
 50
276.2734480853429204
 51
283.7327222998156913
  0
ARC
  5
12B00
  8
0
 10
1497.7001987358150927
 20
152.0527034904561958
 30
0.0
 40
0.7379451119700803
 50
269.9994611681522088
 51
274.4924342687401122
  0
ARC
  5
12B01
  8
0
 10
1497.6987711902929732
 20
151.0533648846268022
 30
0.0
 40
0.6805458430117655
 50
72.9089088013877813
 51
89.8803978231823635
  0
ARC
  5
12B02
  8
0
 10
1497.7882047632369904
 20
151.3684444728141898
 30
0.0
 40
0.3531684678595331
 50
42.1261359432415432
 51
71.7545054663823123
  0
ARC
  5
12B03
  8
0
 10
1497.9599968257509772
 20
151.5238129155868876
 30
0.0
 40
0.1215397439236097
 50
347.9890708945861206
 51
42.1261359432415432
  0
ARC
  5
12B04
  8
0
 10
1497.9043487217550137
 20
151.5356523800791138
 30
0.0
 40
0.1784333674482636
 50
304.0771630623177089
 51
347.9890708945861206
  0
ARC
  5
12B05
  8
0
 10
1497.712563723285939
 20
151.1533377600694052
 30
0.0
 40
0.5555240404289795
 50
71.1267518869931621
 51
91.2761244932600562
  0
ARC
  5
12B06
  8
0
 10
1497.7628383850210412
 20
151.3004020602259914
 30
0.0
 40
0.4001038036735175
 50
49.4498478537753812
 51
71.1267518869931621
  0
ARC
  5
12B07
  8
0
 10
1497.9353192578630569
 20
151.5019936345123028
 30
0.0
 40
0.1347949000923672
 50
7.0690789919881762
 51
49.4498478537753812
  0
ARC
  5
12B08
  8
0
 10
1497.9450992929180302
 20
151.5032064427236094
 30
0.0
 40
0.1249399526325671
 50
339.8685941598257045
 51
7.0690789919881762
  0
ARC
  5
12B09
  8
0
 10
1497.8912369920440142
 20
151.5229507301145873
 30
0.0
 40
0.1823070541800383
 50
329.16050352691542
 51
339.8685941598257045
  0
ARC
  5
12B0A
  8
0
 10
1497.6664755613630859
 20
150.7987514041080885
 30
0.0
 40
0.8860442900366249
 50
75.3724565950297745
 51
87.8192236311848831
  0
ARC
  5
12B0B
  8
0
 10
1497.8169484771669886
 20
151.3752894739600094
 30
0.0
 40
0.2901934325402498
 50
45.3736608184325121
 51
75.3724565950297745
  0
ARC
  5
12B0C
  8
0
 10
1497.8978359473051114
 20
151.457238918258696
 30
0.0
 40
0.1750478974717225
 50
11.2968384397694894
 51
45.3736608184325121
  0
ARC
  5
12B0D
  8
0
 10
1497.6908195072060153
 20
150.9627703328704911
 30
0.0
 40
0.6968341963006188
 50
73.4771117602720238
 51
89.2293593220692856
  0
ARC
  5
12B0E
  8
0
 10
1497.7626469294380058
 20
151.2428637740904946
 30
0.0
 40
0.4080221486636573
 50
52.9837272812066686
 51
71.9608252003397837
  0
ARC
  5
12B0F
  8
0
 10
1497.9127073157289942
 20
151.4418830037980115
 30
0.0
 40
0.1587697197340303
 50
13.0176954211418501
 51
52.9837272812066686
  0
ARC
  5
12B10
  8
0
 10
1497.7008130140409321
 20
150.9737693321002894
 30
0.0
 40
0.6612268984652414
 50
74.6607678742723948
 51
90.0538290009912856
  0
ARC
  5
12B11
  8
0
 10
1497.7663588707480358
 20
151.231313754458597
 30
0.0
 40
0.3955486132257298
 50
52.7701978407964702
 51
73.9483369307742322
  0
ARC
  5
12B12
  8
0
 10
1497.9011485567530144
 20
151.4087009399389956
 30
0.0
 40
0.1727606579274894
 50
19.2427791009321396
 51
52.7701978407964702
  0
ARC
  5
12B13
  8
0
 10
1497.6963810572081002
 20
150.9397906976194861
 30
0.0
 40
0.6706730817869481
 50
71.8233267197378211
 51
89.6744458303736565
  0
ARC
  5
12B14
  8
0
 10
1497.7963259755028957
 20
151.2658815289584879
 30
0.0
 40
0.3297462542842457
 50
44.9030101086588189
 51
70.6476299604118054
  0
ARC
  5
12B15
  8
0
 10
1497.933411093983068
 20
151.40250331787459
 30
0.0
 40
0.136205966707222
 50
21.9393942139704912
 51
44.9030101086588189
  0
ARC
  5
12B16
  8
0
 10
1497.6956222930521108
 20
150.9330772597982957
 30
0.0
 40
0.6527474421201753
 50
68.6568043008413156
 51
89.5989025024292118
  0
ARC
  5
12B17
  8
0
 10
1497.8234815864459506
 20
151.2780977328143024
 30
0.0
 40
0.2849283501892015
 50
46.8317009519659067
 51
67.3534203847292048
  0
ARC
  5
12B18
  8
0
 10
1497.8876790050819636
 20
151.3465368832750073
 30
0.0
 40
0.1910921851174693
 50
29.53048968270733
 51
46.8317009519659067
  0
ARC
  5
12B19
  8
0
 10
1497.6976525864479299
 20
150.8561113368357098
 30
0.0
 40
0.7023136010453453
 50
72.4618006610314751
 51
89.7928470968992656
  0
ARC
  5
12B1A
  8
0
 10
1497.8110958066411058
 20
151.2352785027595132
 30
0.0
 40
0.3066468423595203
 50
47.1235764714206624
 51
71.3240425093498231
  0
ARC
  5
12B1B
  8
0
 10
1497.9209502937940215
 20
151.353593605455103
 30
0.0
 40
0.1451956984376518
 50
30.4827129963833485
 51
47.1235764714206624
  0
ARC
  5
12B1C
  8
0
 10
1497.6924489731820813
 20
150.7037525761593031
 30
0.0
 40
0.8330242925684055
 50
82.1942809806589025
 51
89.4674375587920139
  0
ARC
  5
12B1D
  8
0
 10
1497.727732723391
 20
151.0327367242038008
 30
0.0
 40
0.5023904877181641
 50
60.9987508167590917
 51
81.0852272043631501
  0
ARC
  5
12B1E
  8
0
 10
1497.8673163726359689
 20
151.2845393460164019
 30
0.0
 40
0.214487456320181
 50
37.8152896988140981
 51
60.9987508167590917
  0
ARC
  5
12B1F
  8
0
 10
1497.6918794678249469
 20
150.8107801793532019
 30
0.0
 40
0.6563644398530643
 50
70.9762226803422038
 51
89.2743756079348429
  0
ARC
  5
12B20
  8
0
 10
1497.7838499101649177
 20
151.1008767552202983
 30
0.0
 40
0.3522155036121322
 50
53.1032378854622209
 51
69.7377493153051233
  0
ARC
  5
12B21
  8
0
 10
1497.6921578864898947
 20
150.6566049158865894
 30
0.0
 40
0.7976348081837024
 50
78.6445560960000591
 51
89.4228976967116864
  0
ARC
  5
12B22
  8
0
 10
1497.7293870376599898
 20
150.8751559586688984
 30
0.0
 40
0.5760687850811117
 50
64.473044899084357
 51
77.9949466526397543
  0
ARC
  5
12B23
  8
0
 10
1497.6963697955479802
 20
152.1145683519802105
 30
0.0
 40
0.8780583622042671
 50
270.2493970673446029
 51
280.7844778657229199
  0
ARC
  5
12B24
  8
0
 10
1497.7362224476848951
 20
151.8887689812027872
 30
0.0
 40
0.6487974422815581
 50
281.0583940243712959
 51
299.306735835334905
  0
ARC
  5
12B25
  8
0
 10
1497.8977585178349727
 20
151.6009943673201974
 30
0.0
 40
0.3187851237918636
 50
299.306735835334905
 51
325.4092881974956981
  0
ARC
  5
12B26
  8
0
 10
1497.7002110112280207
 20
151.0071365431003017
 30
0.0
 40
0.3817009190985324
 50
90.0028845068339649
 51
94.2489174552842144
  0
ARC
  5
12B27
  8
0
 10
1497.6995590600959076
 20
151.015290679928313
 30
0.0
 40
0.3735208932268139
 50
94.2418579408461028
 51
96.9221406344464356
  0
ARC
  5
12B28
  8
0
 10
1497.6330421411551015
 20
151.1958076790004952
 30
0.0
 40
0.1793561338992012
 50
120.9928857322206994
 51
127.8746713786700013
  0
ARC
  5
12B29
  8
0
 10
1497.657494425978939
 20
151.1547056457254996
 30
0.0
 40
0.2271814275361891
 50
112.9355918331826985
 51
120.9415481734739046
  0
ARC
  5
12B2A
  8
0
 10
1497.6789171272289423
 20
151.104670746337689
 30
0.0
 40
0.2816091810506879
 50
105.7852582530387053
 51
112.9825280686174978
  0
ARC
  5
12B2B
  8
0
 10
1497.7035911266450512
 20
151.0044244981397128
 30
0.0
 40
0.38480324022459
 50
97.3231334165421487
 51
105.2601293367902997
  0
ARC
  5
12B2C
  8
0
 10
1497.672268807797991
 20
151.3295960152503881
 30
0.0
 40
0.0055787426392899
 50
58.4023443701470271
 51
86.5038729510840056
  0
ARC
  5
12B2D
  8
0
 10
1497.6737967144890717
 20
151.3276557720716937
 30
0.0
 40
0.0059103563612294
 50
4.1201630343282494
 51
32.2650702534713716
  0
ARC
  5
12B2E
  8
0
 10
1497.670488119545098
 20
151.3258036699066054
 30
0.0
 40
0.0096988483704069
 50
31.082686992750439
 51
44.6111711047687791
  0
ARC
  5
12B2F
  8
0
 10
1497.6804724661860746
 20
151.3253478078796093
 30
0.0
 40
0.0104347276377455
 50
120.402201369526594
 51
142.9271584641070092
  0
ARC
  5
12B30
  8
0
 10
1497.6771474348508946
 20
151.3275165185366973
 30
0.0
 40
0.0064802207928233
 50
140.5031229263254033
 51
175.0078544654955977
  0
LINE
  5
12B31
  8
0
 10
1497.6773926242910875
 20
151.3326150922187878
 30
0.0
 11
1497.675191795892033
 21
151.3343477002187001
 31
0.0
  0
LINE
  5
12B32
  8
0
 10
1497.675191795892033
 20
151.3343477002187001
 30
0.0
 11
1497.6767112557920427
 21
151.3350008514188119
 31
0.0
  0
LINE
  5
12B33
  8
0
 10
1497.6767112557920427
 20
151.3350008514188119
 30
0.0
 11
1497.6777728897909583
 21
151.3351615160187862
 31
0.0
  0
LINE
  5
12B34
  8
0
 10
1497.6777728897909583
 20
151.3351615160187862
 30
0.0
 11
1497.6976107018920175
 21
151.3351615160187862
 31
0.0
  0
LINE
  5
12B35
  8
0
 10
1497.6706917958920258
 20
151.3280804220187861
 30
0.0
 11
1497.6706917958920258
 21
151.3208221051187934
 31
0.0
  0
LINE
  5
12B36
  8
0
 10
1497.6796917958920403
 20
151.3280804220187861
 30
0.0
 11
1497.6796917958920403
 21
151.3208221051187934
 31
0.0
  0
LINE
  5
12B37
  8
0
 10
1497.6726090054919496
 20
151.335164375418799
 30
0.0
 11
1497.6527745543910441
 21
151.3351642738188048
 31
0.0
  0
LINE
  5
12B38
  8
0
 10
1497.6706917958920258
 20
151.3261615160188001
 30
0.0
 11
1497.6546917958910399
 21
151.3261615160188001
 31
0.0
  0
LINE
  5
12B39
  8
0
 10
1497.6796917958920403
 20
151.3261615160188001
 30
0.0
 11
1497.6956917958909798
 21
151.3261615160188001
 31
0.0
  0
ARC
  5
12B3A
  8
0
 10
1497.6722688077970815
 20
151.3439354261502956
 30
0.0
 40
0.0055787426392899
 50
58.4023443701470271
 51
86.5038729510840056
  0
ARC
  5
12B3B
  8
0
 10
1497.6737967144890717
 20
151.3419951829714876
 30
0.0
 40
0.0059103563612294
 50
4.1201630343282494
 51
32.2650702534713716
  0
ARC
  5
12B3C
  8
0
 10
1497.670488119545098
 20
151.3401430808063992
 30
0.0
 40
0.0096988483704069
 50
31.082686992750439
 51
44.6111711047687791
  0
ARC
  5
12B3D
  8
0
 10
1497.6804724661849377
 20
151.3396872187794031
 30
0.0
 40
0.0104347276377455
 50
120.402201369526594
 51
142.9271584641070092
  0
ARC
  5
12B3E
  8
0
 10
1497.6771474348508946
 20
151.3418559294364911
 30
0.0
 40
0.0064802207928233
 50
140.5031229263254033
 51
175.0078544654955977
  0
LINE
  5
12B3F
  8
0
 10
1497.6773926242910875
 20
151.3469545031186101
 30
0.0
 11
1497.6751917958908962
 21
151.3486871111186076
 31
0.0
  0
LINE
  5
12B40
  8
0
 10
1497.6751917958908962
 20
151.3486871111186076
 30
0.0
 11
1497.6767112557909059
 21
151.3493402623186057
 31
0.0
  0
LINE
  5
12B41
  8
0
 10
1497.6767112557909059
 20
151.3493402623186057
 30
0.0
 11
1497.6777728897909583
 21
151.3495009269186085
 31
0.0
  0
LINE
  5
12B42
  8
0
 10
1497.6777728897909583
 20
151.3495009269186085
 30
0.0
 11
1497.697610701891108
 21
151.3495009269186085
 31
0.0
  0
LINE
  5
12B43
  8
0
 10
1497.6706917958908889
 20
151.3424198329186083
 30
0.0
 11
1497.6706917958908889
 21
151.3351615160185872
 31
0.0
  0
LINE
  5
12B44
  8
0
 10
1497.6796917958909034
 20
151.3424198329186083
 30
0.0
 11
1497.6796917958909034
 21
151.3351615160185872
 31
0.0
  0
LINE
  5
12B45
  8
0
 10
1497.6726090054910401
 20
151.3495037863185928
 30
0.0
 11
1497.6527745543910441
 21
151.3495036847185986
 31
0.0
  0
LINE
  5
12B46
  8
0
 10
1497.6706917958908889
 20
151.3405009269185939
 30
0.0
 11
1497.6546917958910399
 21
151.3405009269185939
 31
0.0
  0
LINE
  5
12B47
  8
0
 10
1497.6796917958909034
 20
151.3405009269185939
 30
0.0
 11
1497.6956917958909798
 21
151.3405009269185939
 31
0.0
  0
ARC
  5
12B48
  8
0
 10
1497.6722688077970815
 20
151.3582748370502884
 30
0.0
 40
0.0055787426392899
 50
58.4023443701470271
 51
86.5038729510840056
  0
ARC
  5
12B49
  8
0
 10
1497.6737967144890717
 20
151.3563345938713951
 30
0.0
 40
0.0059103563612294
 50
4.1201630343282494
 51
32.2650702534713716
  0
ARC
  5
12B4A
  8
0
 10
1497.670488119545098
 20
151.354482491706392
 30
0.0
 40
0.0096988483704069
 50
31.082686992750439
 51
44.6111711047687791
  0
ARC
  5
12B4B
  8
0
 10
1497.6804724661849377
 20
151.3540266296793959
 30
0.0
 40
0.0104347276377455
 50
120.402201369526594
 51
142.9271584641070092
  0
ARC
  5
12B4C
  8
0
 10
1497.6771474348508946
 20
151.3561953403365123
 30
0.0
 40
0.0064802207928233
 50
140.5031229263254033
 51
175.0078544654955977
  0
LINE
  5
12B4D
  8
0
 10
1497.6773926242910875
 20
151.3612939140186029
 30
0.0
 11
1497.6751917958908962
 21
151.3630265220186004
 31
0.0
  0
LINE
  5
12B4E
  8
0
 10
1497.6751917958908962
 20
151.3630265220186004
 30
0.0
 11
1497.6767112557909059
 21
151.3636796732185985
 31
0.0
  0
LINE
  5
12B4F
  8
0
 10
1497.6767112557909059
 20
151.3636796732185985
 30
0.0
 11
1497.6777728897909583
 21
151.3638403378186013
 31
0.0
  0
LINE
  5
12B50
  8
0
 10
1497.6777728897909583
 20
151.3638403378186013
 30
0.0
 11
1497.697610701891108
 21
151.3638403378186013
 31
0.0
  0
LINE
  5
12B51
  8
0
 10
1497.6706917958908889
 20
151.3567592438186011
 30
0.0
 11
1497.6706917958908889
 21
151.3495009269186085
 31
0.0
  0
LINE
  5
12B52
  8
0
 10
1497.6796917958909034
 20
151.3567592438186011
 30
0.0
 11
1497.6796917958909034
 21
151.3495009269186085
 31
0.0
  0
LINE
  5
12B53
  8
0
 10
1497.6726090054910401
 20
151.363843197218614
 30
0.0
 11
1497.6527745543910441
 21
151.3638430956185914
 31
0.0
  0
LINE
  5
12B54
  8
0
 10
1497.6706917958908889
 20
151.3548403378185867
 30
0.0
 11
1497.6546917958910399
 21
151.3548403378185867
 31
0.0
  0
LINE
  5
12B55
  8
0
 10
1497.6796917958909034
 20
151.3548403378185867
 30
0.0
 11
1497.6956917958909798
 21
151.3548403378185867
 31
0.0
  0
ARC
  5
12B56
  8
0
 10
1497.6722688077970815
 20
151.3726142479501959
 30
0.0
 40
0.0055787426392899
 50
58.4023443701470271
 51
86.5038729510840056
  0
ARC
  5
12B57
  8
0
 10
1497.6737967144890717
 20
151.3706740047715016
 30
0.0
 40
0.0059103563612294
 50
4.1201630343282494
 51
32.2650702534713716
  0
ARC
  5
12B58
  8
0
 10
1497.670488119545098
 20
151.3688219026064132
 30
0.0
 40
0.0096988483704069
 50
31.082686992750439
 51
44.6111711047687791
  0
ARC
  5
12B59
  8
0
 10
1497.6804724661849377
 20
151.3683660405793887
 30
0.0
 40
0.0104347276377455
 50
120.402201369526594
 51
142.9271584641070092
  0
ARC
  5
12B5A
  8
0
 10
1497.6771474348508946
 20
151.3705347512365051
 30
0.0
 40
0.0064802207928233
 50
140.5031229263254033
 51
175.0078544654955977
  0
LINE
  5
12B5B
  8
0
 10
1497.6773926242910875
 20
151.3756333249185957
 30
0.0
 11
1497.6751917958908962
 21
151.3773659329185932
 31
0.0
  0
LINE
  5
12B5C
  8
0
 10
1497.6751917958908962
 20
151.3773659329185932
 30
0.0
 11
1497.6767112557909059
 21
151.3780190841185913
 31
0.0
  0
LINE
  5
12B5D
  8
0
 10
1497.6767112557909059
 20
151.3780190841185913
 30
0.0
 11
1497.6777728897909583
 21
151.3781797487185941
 31
0.0
  0
LINE
  5
12B5E
  8
0
 10
1497.6777728897909583
 20
151.3781797487185941
 30
0.0
 11
1497.697610701891108
 21
151.3781797487185941
 31
0.0
  0
LINE
  5
12B5F
  8
0
 10
1497.6706917958908889
 20
151.3710986547185939
 30
0.0
 11
1497.6706917958908889
 21
151.3638403378186013
 31
0.0
  0
LINE
  5
12B60
  8
0
 10
1497.6796917958909034
 20
151.3710986547185939
 30
0.0
 11
1497.6796917958909034
 21
151.3638403378186013
 31
0.0
  0
LINE
  5
12B61
  8
0
 10
1497.6726090054910401
 20
151.3781826081186068
 30
0.0
 11
1497.6527745543910441
 21
151.3781825065186126
 31
0.0
  0
LINE
  5
12B62
  8
0
 10
1497.6706917958908889
 20
151.3691797487186079
 30
0.0
 11
1497.6546917958910399
 21
151.3691797487186079
 31
0.0
  0
LINE
  5
12B63
  8
0
 10
1497.6796917958909034
 20
151.3691797487186079
 30
0.0
 11
1497.6956917958909798
 21
151.3691797487186079
 31
0.0
  0
ARC
  5
12B64
  8
0
 10
1497.6222688077968996
 20
151.3726142479501959
 30
0.0
 40
0.0055787426392899
 50
58.4023443701470271
 51
86.5038729510840056
  0
ARC
  5
12B65
  8
0
 10
1497.6237967144888898
 20
151.3706740047715016
 30
0.0
 40
0.0059103563612294
 50
4.1201630343282494
 51
32.2650702534713716
  0
ARC
  5
12B66
  8
0
 10
1497.6204881195440066
 20
151.3688219026064132
 30
0.0
 40
0.0096988483704069
 50
31.082686992750439
 51
44.6111711047687791
  0
ARC
  5
12B67
  8
0
 10
1497.6304724661849832
 20
151.3683660405793887
 30
0.0
 40
0.0104347276377455
 50
120.402201369526594
 51
142.9271584641070092
  0
ARC
  5
12B68
  8
0
 10
1497.62714743485094
 20
151.3705347512365051
 30
0.0
 40
0.0064802207928233
 50
140.5031229263254033
 51
175.0078544654955977
  0
LINE
  5
12B69
  8
0
 10
1497.6273926242909056
 20
151.3756333249185957
 30
0.0
 11
1497.6251917958900322
 21
151.3773659329185932
 31
0.0
  0
LINE
  5
12B6A
  8
0
 10
1497.6251917958900322
 20
151.3773659329185932
 30
0.0
 11
1497.6267112557909513
 21
151.3780190841185913
 31
0.0
  0
LINE
  5
12B6B
  8
0
 10
1497.6267112557909513
 20
151.3780190841185913
 30
0.0
 11
1497.6277728897910038
 21
151.3781797487185941
 31
0.0
  0
LINE
  5
12B6C
  8
0
 10
1497.6277728897910038
 20
151.3781797487185941
 30
0.0
 11
1497.6476107018909261
 21
151.3781797487185941
 31
0.0
  0
LINE
  5
12B6D
  8
0
 10
1497.6206917958920712
 20
151.3710986547185939
 30
0.0
 11
1497.6206917958920712
 21
151.3638403378186013
 31
0.0
  0
LINE
  5
12B6E
  8
0
 10
1497.6296917958920858
 20
151.3710986547185939
 30
0.0
 11
1497.6296917958920858
 21
151.3638403378186013
 31
0.0
  0
LINE
  5
12B6F
  8
0
 10
1497.6226090054910856
 20
151.3781826081186068
 30
0.0
 11
1497.6120572568709122
 21
151.378182554068303
 31
0.0
  0
LINE
  5
12B70
  8
0
 10
1497.6206917958920712
 20
151.3691797487186079
 30
0.0
 11
1497.6046917958910853
 21
151.3691797487186079
 31
0.0
  0
LINE
  5
12B71
  8
0
 10
1497.6296917958920858
 20
151.3691797487186079
 30
0.0
 11
1497.6456917958910253
 21
151.3691797487186079
 31
0.0
  0
ARC
  5
12B72
  8
0
 10
1497.6222688077968996
 20
151.3582748370502884
 30
0.0
 40
0.0055787426392899
 50
58.4023443701470271
 51
86.5038729510840056
  0
ARC
  5
12B73
  8
0
 10
1497.6237967144888898
 20
151.3563345938713951
 30
0.0
 40
0.0059103563612294
 50
4.1201630343282494
 51
32.2650702534713716
  0
ARC
  5
12B74
  8
0
 10
1497.6204881195440066
 20
151.354482491706392
 30
0.0
 40
0.0096988483704069
 50
31.082686992750439
 51
44.6111711047687791
  0
ARC
  5
12B75
  8
0
 10
1497.6304724661849832
 20
151.3540266296793959
 30
0.0
 40
0.0104347276377455
 50
120.402201369526594
 51
142.9271584641070092
  0
ARC
  5
12B76
  8
0
 10
1497.62714743485094
 20
151.3561953403365123
 30
0.0
 40
0.0064802207928233
 50
140.5031229263254033
 51
175.0078544654955977
  0
LINE
  5
12B77
  8
0
 10
1497.6273926242909056
 20
151.3612939140186029
 30
0.0
 11
1497.6251917958900322
 21
151.3630265220186004
 31
0.0
  0
LINE
  5
12B78
  8
0
 10
1497.6251917958900322
 20
151.3630265220186004
 30
0.0
 11
1497.6267112557909513
 21
151.3636796732185985
 31
0.0
  0
LINE
  5
12B79
  8
0
 10
1497.6267112557909513
 20
151.3636796732185985
 30
0.0
 11
1497.6277728897910038
 21
151.3638403378186013
 31
0.0
  0
LINE
  5
12B7A
  8
0
 10
1497.6277728897910038
 20
151.3638403378186013
 30
0.0
 11
1497.6476107018909261
 21
151.3638403378186013
 31
0.0
  0
LINE
  5
12B7B
  8
0
 10
1497.6206917958920712
 20
151.3567592438186011
 30
0.0
 11
1497.6206917958920712
 21
151.3495009269186085
 31
0.0
  0
LINE
  5
12B7C
  8
0
 10
1497.6296917958920858
 20
151.3567592438186011
 30
0.0
 11
1497.6296917958920858
 21
151.3495009269186085
 31
0.0
  0
LINE
  5
12B7D
  8
0
 10
1497.6226090054910856
 20
151.363843197218614
 30
0.0
 11
1497.6027745543919991
 21
151.3638430956185914
 31
0.0
  0
LINE
  5
12B7E
  8
0
 10
1497.6206917958920712
 20
151.3548403378185867
 30
0.0
 11
1497.6046917958910853
 21
151.3548403378185867
 31
0.0
  0
LINE
  5
12B7F
  8
0
 10
1497.6296917958920858
 20
151.3548403378185867
 30
0.0
 11
1497.6456917958910253
 21
151.3548403378185867
 31
0.0
  0
ARC
  5
12B80
  8
0
 10
1497.6222688077968996
 20
151.3439354261502956
 30
0.0
 40
0.0055787426392899
 50
58.4023443701470271
 51
86.5038729510840056
  0
ARC
  5
12B81
  8
0
 10
1497.6237967144888898
 20
151.3419951829714876
 30
0.0
 40
0.0059103563612294
 50
4.1201630343282494
 51
32.2650702534713716
  0
ARC
  5
12B82
  8
0
 10
1497.6204881195440066
 20
151.3401430808063992
 30
0.0
 40
0.0096988483704069
 50
31.082686992750439
 51
44.6111711047687791
  0
ARC
  5
12B83
  8
0
 10
1497.6304724661849832
 20
151.3396872187794031
 30
0.0
 40
0.0104347276377455
 50
120.402201369526594
 51
142.9271584641070092
  0
ARC
  5
12B84
  8
0
 10
1497.62714743485094
 20
151.3418559294364911
 30
0.0
 40
0.0064802207928233
 50
140.5031229263254033
 51
175.0078544654955977
  0
LINE
  5
12B85
  8
0
 10
1497.6273926242909056
 20
151.3469545031186101
 30
0.0
 11
1497.6251917958900322
 21
151.3486871111186076
 31
0.0
  0
LINE
  5
12B86
  8
0
 10
1497.6251917958900322
 20
151.3486871111186076
 30
0.0
 11
1497.6267112557909513
 21
151.3493402623186057
 31
0.0
  0
LINE
  5
12B87
  8
0
 10
1497.6267112557909513
 20
151.3493402623186057
 30
0.0
 11
1497.6277728897910038
 21
151.3495009269186085
 31
0.0
  0
LINE
  5
12B88
  8
0
 10
1497.6277728897910038
 20
151.3495009269186085
 30
0.0
 11
1497.6476107018909261
 21
151.3495009269186085
 31
0.0
  0
LINE
  5
12B89
  8
0
 10
1497.6206917958920712
 20
151.3424198329186083
 30
0.0
 11
1497.6206917958920712
 21
151.3351615160185872
 31
0.0
  0
LINE
  5
12B8A
  8
0
 10
1497.6296917958920858
 20
151.3424198329186083
 30
0.0
 11
1497.6296917958920858
 21
151.3351615160185872
 31
0.0
  0
LINE
  5
12B8B
  8
0
 10
1497.6226090054910856
 20
151.3495037863185928
 30
0.0
 11
1497.6027745543919991
 21
151.3495036847185986
 31
0.0
  0
LINE
  5
12B8C
  8
0
 10
1497.6206917958920712
 20
151.3405009269185939
 30
0.0
 11
1497.6046917958910853
 21
151.3405009269185939
 31
0.0
  0
LINE
  5
12B8D
  8
0
 10
1497.6296917958920858
 20
151.3405009269185939
 30
0.0
 11
1497.6456917958910253
 21
151.3405009269185939
 31
0.0
  0
ARC
  5
12B8E
  8
0
 10
1497.6222688077968996
 20
151.3295960152501891
 30
0.0
 40
0.0055787426392899
 50
58.4023443701470271
 51
86.5038729510840056
  0
ARC
  5
12B8F
  8
0
 10
1497.6237967144888898
 20
151.3276557720714948
 30
0.0
 40
0.0059103563612294
 50
4.1201630343282494
 51
32.2650702534713716
  0
ARC
  5
12B90
  8
0
 10
1497.6204881195440066
 20
151.3258036699064064
 30
0.0
 40
0.0096988483704069
 50
31.082686992750439
 51
44.6111711047687791
  0
ARC
  5
12B91
  8
0
 10
1497.6304724661849832
 20
151.3253478078794103
 30
0.0
 40
0.0104347276377455
 50
120.402201369526594
 51
142.9271584641070092
  0
ARC
  5
12B92
  8
0
 10
1497.62714743485094
 20
151.3275165185364983
 30
0.0
 40
0.0064802207928233
 50
140.5031229263254033
 51
175.0078544654955977
  0
LINE
  5
12B93
  8
0
 10
1497.6273926242909056
 20
151.3326150922185889
 30
0.0
 11
1497.6251917958900322
 21
151.3343477002185864
 31
0.0
  0
LINE
  5
12B94
  8
0
 10
1497.6251917958900322
 20
151.3343477002185864
 30
0.0
 11
1497.6267112557909513
 21
151.3350008514186129
 31
0.0
  0
LINE
  5
12B95
  8
0
 10
1497.6267112557909513
 20
151.3350008514186129
 30
0.0
 11
1497.6277728897910038
 21
151.3351615160185872
 31
0.0
  0
LINE
  5
12B96
  8
0
 10
1497.6277728897910038
 20
151.3351615160185872
 30
0.0
 11
1497.6476107018909261
 21
151.3351615160185872
 31
0.0
  0
LINE
  5
12B97
  8
0
 10
1497.6206917958920712
 20
151.3280804220185871
 30
0.0
 11
1497.6206917958920712
 21
151.3208221051185944
 31
0.0
  0
LINE
  5
12B98
  8
0
 10
1497.6296917958920858
 20
151.3280804220185871
 30
0.0
 11
1497.6296917958920858
 21
151.3208221051185944
 31
0.0
  0
LINE
  5
12B99
  8
0
 10
1497.6226090054910856
 20
151.3351643754186
 30
0.0
 11
1497.6027745543919991
 21
151.3351642738186058
 31
0.0
  0
LINE
  5
12B9A
  8
0
 10
1497.6206917958920712
 20
151.3261615160186011
 30
0.0
 11
1497.6046917958910853
 21
151.3261615160186011
 31
0.0
  0
LINE
  5
12B9B
  8
0
 10
1497.6296917958920858
 20
151.3261615160186011
 30
0.0
 11
1497.6456917958910253
 21
151.3261615160186011
 31
0.0
  0
ARC
  5
12B9C
  8
0
 10
1497.5722688077969451
 20
151.3582748370502884
 30
0.0
 40
0.0055787426392899
 50
58.4023443701470271
 51
86.5038729510840056
  0
ARC
  5
12B9D
  8
0
 10
1497.5737967144889353
 20
151.3563345938713951
 30
0.0
 40
0.0059103563612294
 50
4.1201630343282494
 51
32.2650702534713716
  0
ARC
  5
12B9E
  8
0
 10
1497.5704881195440521
 20
151.354482491706392
 30
0.0
 40
0.0096988483704069
 50
31.082686992750439
 51
44.6111711047687791
  0
ARC
  5
12B9F
  8
0
 10
1497.5804724661859382
 20
151.3540266296793959
 30
0.0
 40
0.0104347276377455
 50
120.402201369526594
 51
142.9271584641070092
  0
ARC
  5
12BA0
  8
0
 10
1497.5771474348509855
 20
151.3561953403365123
 30
0.0
 40
0.0064802207928233
 50
140.5031229263254033
 51
175.0078544654955977
  0
LINE
  5
12BA1
  8
0
 10
1497.5773926242909511
 20
151.3612939140186029
 30
0.0
 11
1497.5751917958909871
 21
151.3630265220186004
 31
0.0
  0
LINE
  5
12BA2
  8
0
 10
1497.5751917958909871
 20
151.3630265220186004
 30
0.0
 11
1497.5767112557909968
 21
151.3636796732185985
 31
0.0
  0
LINE
  5
12BA3
  8
0
 10
1497.5767112557909968
 20
151.3636796732185985
 30
0.0
 11
1497.5777728897910492
 21
151.3638403378186013
 31
0.0
  0
LINE
  5
12BA4
  8
0
 10
1497.5777728897910492
 20
151.3638403378186013
 30
0.0
 11
1497.5976107018909715
 21
151.3638403378186013
 31
0.0
  0
LINE
  5
12BA5
  8
0
 10
1497.5706917958909798
 20
151.3567592438186011
 30
0.0
 11
1497.5706917958909798
 21
151.3495009269186085
 31
0.0
  0
LINE
  5
12BA6
  8
0
 10
1497.5796917958909944
 20
151.3567592438186011
 30
0.0
 11
1497.5796917958909944
 21
151.3495009269186085
 31
0.0
  0
LINE
  5
12BA7
  8
0
 10
1497.5726090054909037
 20
151.363843197218614
 30
0.0
 11
1497.5687650970698996
 21
151.3638431775285937
 31
0.0
  0
LINE
  5
12BA8
  8
0
 10
1497.5706917958909798
 20
151.3548403378185867
 30
0.0
 11
1497.5546917958909034
 21
151.3548403378185867
 31
0.0
  0
LINE
  5
12BA9
  8
0
 10
1497.5796917958909944
 20
151.3548403378185867
 30
0.0
 11
1497.5956917958910708
 21
151.3548403378185867
 31
0.0
  0
ARC
  5
12BAA
  8
0
 10
1497.5722688077969451
 20
151.3439354261502956
 30
0.0
 40
0.0055787426392899
 50
58.4023443701470271
 51
86.5038729510840056
  0
ARC
  5
12BAB
  8
0
 10
1497.5737967144889353
 20
151.3419951829714876
 30
0.0
 40
0.0059103563612294
 50
4.1201630343282494
 51
32.2650702534713716
  0
ARC
  5
12BAC
  8
0
 10
1497.5704881195440521
 20
151.3401430808063992
 30
0.0
 40
0.0096988483704069
 50
31.082686992750439
 51
44.6111711047687791
  0
ARC
  5
12BAD
  8
0
 10
1497.5804724661859382
 20
151.3396872187794031
 30
0.0
 40
0.0104347276377455
 50
120.402201369526594
 51
142.9271584641070092
  0
ARC
  5
12BAE
  8
0
 10
1497.5771474348509855
 20
151.3418559294364911
 30
0.0
 40
0.0064802207928233
 50
140.5031229263254033
 51
175.0078544654955977
  0
LINE
  5
12BAF
  8
0
 10
1497.5773926242909511
 20
151.3469545031186101
 30
0.0
 11
1497.5751917958909871
 21
151.3486871111186076
 31
0.0
  0
LINE
  5
12BB0
  8
0
 10
1497.5751917958909871
 20
151.3486871111186076
 30
0.0
 11
1497.5767112557909968
 21
151.3493402623186057
 31
0.0
  0
LINE
  5
12BB1
  8
0
 10
1497.5767112557909968
 20
151.3493402623186057
 30
0.0
 11
1497.5777728897910492
 21
151.3495009269186085
 31
0.0
  0
LINE
  5
12BB2
  8
0
 10
1497.5777728897910492
 20
151.3495009269186085
 30
0.0
 11
1497.5976107018909715
 21
151.3495009269186085
 31
0.0
  0
LINE
  5
12BB3
  8
0
 10
1497.5706917958909798
 20
151.3424198329186083
 30
0.0
 11
1497.5706917958909798
 21
151.3351615160185872
 31
0.0
  0
LINE
  5
12BB4
  8
0
 10
1497.5796917958909944
 20
151.3424198329186083
 30
0.0
 11
1497.5796917958909944
 21
151.3351615160185872
 31
0.0
  0
LINE
  5
12BB5
  8
0
 10
1497.5726090054909037
 20
151.3495037863185928
 30
0.0
 11
1497.5527745543909077
 21
151.3495036847185986
 31
0.0
  0
LINE
  5
12BB6
  8
0
 10
1497.5706917958909798
 20
151.3405009269185939
 30
0.0
 11
1497.5546917958909034
 21
151.3405009269185939
 31
0.0
  0
LINE
  5
12BB7
  8
0
 10
1497.5796917958909944
 20
151.3405009269185939
 30
0.0
 11
1497.5956917958910708
 21
151.3405009269185939
 31
0.0
  0
ARC
  5
12BB8
  8
0
 10
1497.5722688077969451
 20
151.3295960152501891
 30
0.0
 40
0.0055787426392899
 50
58.4023443701470271
 51
86.5038729510840056
  0
ARC
  5
12BB9
  8
0
 10
1497.5737967144889353
 20
151.3276557720714948
 30
0.0
 40
0.0059103563612294
 50
4.1201630343282494
 51
32.2650702534713716
  0
ARC
  5
12BBA
  8
0
 10
1497.5704881195440521
 20
151.3258036699064064
 30
0.0
 40
0.0096988483704069
 50
31.082686992750439
 51
44.6111711047687791
  0
ARC
  5
12BBB
  8
0
 10
1497.5804724661859382
 20
151.3253478078794103
 30
0.0
 40
0.0104347276377455
 50
120.402201369526594
 51
142.9271584641070092
  0
ARC
  5
12BBC
  8
0
 10
1497.5771474348509855
 20
151.3275165185364983
 30
0.0
 40
0.0064802207928233
 50
140.5031229263254033
 51
175.0078544654955977
  0
LINE
  5
12BBD
  8
0
 10
1497.5773926242909511
 20
151.3326150922185889
 30
0.0
 11
1497.5751917958909871
 21
151.3343477002185864
 31
0.0
  0
LINE
  5
12BBE
  8
0
 10
1497.5751917958909871
 20
151.3343477002185864
 30
0.0
 11
1497.5767112557909968
 21
151.3350008514186129
 31
0.0
  0
LINE
  5
12BBF
  8
0
 10
1497.5767112557909968
 20
151.3350008514186129
 30
0.0
 11
1497.5777728897910492
 21
151.3351615160185872
 31
0.0
  0
LINE
  5
12BC0
  8
0
 10
1497.5777728897910492
 20
151.3351615160185872
 30
0.0
 11
1497.5976107018909715
 21
151.3351615160185872
 31
0.0
  0
LINE
  5
12BC1
  8
0
 10
1497.5706917958909798
 20
151.3280804220185871
 30
0.0
 11
1497.5706917958909798
 21
151.3274899437757028
 31
0.0
  0
LINE
  5
12BC2
  8
0
 10
1497.5796917958909944
 20
151.3280804220185871
 30
0.0
 11
1497.5796917958909944
 21
151.3258901632042068
 31
0.0
  0
LINE
  5
12BC3
  8
0
 10
1497.5726090054909037
 20
151.3351643754186
 30
0.0
 11
1497.5527745543909077
 21
151.3351642738186058
 31
0.0
  0
LINE
  5
12BC4
  8
0
 10
1497.5796917958909944
 20
151.3261615160186011
 30
0.0
 11
1497.5956917958910708
 21
151.3261615160186011
 31
0.0
  0
ARC
  5
12BC5
  8
0
 10
1497.6472688077960811
 20
151.3439354261518019
 30
0.0
 40
0.0055787426392899
 50
58.4023443701470271
 51
86.5038729510840056
  0
ARC
  5
12BC6
  8
0
 10
1497.6487967144869344
 20
151.3419951829729939
 30
0.0
 40
0.0059103563612294
 50
4.1201630343282494
 51
32.2650702534713716
  0
ARC
  5
12BC7
  8
0
 10
1497.6454881195420512
 20
151.3401430808079056
 30
0.0
 40
0.0096988483704069
 50
31.082686992750439
 51
44.6111711047687791
  0
ARC
  5
12BC8
  8
0
 10
1497.6554724661839373
 20
151.3396872187809095
 30
0.0
 40
0.0104347276377455
 50
120.402201369526594
 51
142.9271584641070092
  0
ARC
  5
12BC9
  8
0
 10
1497.6521474348489846
 20
151.3418559294379975
 30
0.0
 40
0.0064802207928233
 50
140.5031229263254033
 51
175.0078544654955977
  0
LINE
  5
12BCA
  8
0
 10
1497.6523926242889502
 20
151.346954503120088
 30
0.0
 11
1497.6501917958889862
 21
151.348687111120114
 31
0.0
  0
LINE
  5
12BCB
  8
0
 10
1497.6501917958889862
 20
151.348687111120114
 30
0.0
 11
1497.6517112557889959
 21
151.3493402623201121
 31
0.0
  0
LINE
  5
12BCC
  8
0
 10
1497.6517112557889959
 20
151.3493402623201121
 30
0.0
 11
1497.6527728897890483
 21
151.3495009269200864
 31
0.0
  0
LINE
  5
12BCD
  8
0
 10
1497.645691795888979
 20
151.3424198329200863
 30
0.0
 11
1497.645691795888979
 21
151.3351615160200936
 31
0.0
  0
LINE
  5
12BCE
  8
0
 10
1497.6546917958889935
 20
151.3424198329202
 30
0.0
 11
1497.6546917958889935
 21
151.3351615160200936
 31
0.0
  0
ARC
  5
12BCF
  8
0
 10
1497.6472688077960811
 20
151.3582748370517947
 30
0.0
 40
0.0055787426392899
 50
58.4023443701470271
 51
86.5038729510840056
  0
ARC
  5
12BD0
  8
0
 10
1497.6487967144869344
 20
151.3563345938729867
 30
0.0
 40
0.0059103563612294
 50
4.1201630343282494
 51
32.2650702534713716
  0
ARC
  5
12BD1
  8
0
 10
1497.6454881195420512
 20
151.3544824917078984
 30
0.0
 40
0.0096988483704069
 50
31.082686992750439
 51
44.6111711047687791
  0
ARC
  5
12BD2
  8
0
 10
1497.6554724661839373
 20
151.3540266296809023
 30
0.0
 40
0.0104347276377455
 50
120.402201369526594
 51
142.9271584641070092
  0
ARC
  5
12BD3
  8
0
 10
1497.6521474348489846
 20
151.3561953403379903
 30
0.0
 40
0.0064802207928233
 50
140.5031229263254033
 51
175.0078544654955977
  0
LINE
  5
12BD4
  8
0
 10
1497.6523926242889502
 20
151.3612939140201945
 30
0.0
 11
1497.6501917958889862
 21
151.3630265220201068
 31
0.0
  0
LINE
  5
12BD5
  8
0
 10
1497.6501917958889862
 20
151.3630265220201068
 30
0.0
 11
1497.6517112557889959
 21
151.3636796732201049
 31
0.0
  0
LINE
  5
12BD6
  8
0
 10
1497.6517112557889959
 20
151.3636796732201049
 30
0.0
 11
1497.6527728897890483
 21
151.3638403378201929
 31
0.0
  0
LINE
  5
12BD7
  8
0
 10
1497.645691795888979
 20
151.3567592438201075
 30
0.0
 11
1497.645691795888979
 21
151.3495009269200864
 31
0.0
  0
LINE
  5
12BD8
  8
0
 10
1497.6546917958889935
 20
151.3567592438201075
 30
0.0
 11
1497.6546917958889935
 21
151.3495009269200864
 31
0.0
  0
ARC
  5
12BD9
  8
0
 10
1497.6472688077960811
 20
151.3726142479517875
 30
0.0
 40
0.0055787426392899
 50
58.4023443701470271
 51
86.5038729510840056
  0
ARC
  5
12BDA
  8
0
 10
1497.6487967144869344
 20
151.3706740047730079
 30
0.0
 40
0.0059103563612294
 50
4.1201630343282494
 51
32.2650702534713716
  0
ARC
  5
12BDB
  8
0
 10
1497.6454881195420512
 20
151.3688219026078912
 30
0.0
 40
0.0096988483704069
 50
31.082686992750439
 51
44.6111711047687791
  0
ARC
  5
12BDC
  8
0
 10
1497.6554724661839373
 20
151.3683660405808951
 30
0.0
 40
0.0104347276377455
 50
120.402201369526594
 51
142.9271584641070092
  0
ARC
  5
12BDD
  8
0
 10
1497.6521474348489846
 20
151.3705347512380115
 30
0.0
 40
0.0064802207928233
 50
140.5031229263254033
 51
175.0078544654955977
  0
LINE
  5
12BDE
  8
0
 10
1497.6523926242889502
 20
151.375633324920102
 30
0.0
 11
1497.6501917958889862
 21
151.3773659329200996
 31
0.0
  0
LINE
  5
12BDF
  8
0
 10
1497.6501917958889862
 20
151.3773659329200996
 30
0.0
 11
1497.6517112557889959
 21
151.3780190841200977
 31
0.0
  0
LINE
  5
12BE0
  8
0
 10
1497.6517112557889959
 20
151.3780190841200977
 30
0.0
 11
1497.6527728897890483
 21
151.3781797487201004
 31
0.0
  0
LINE
  5
12BE1
  8
0
 10
1497.645691795888979
 20
151.3710986547201003
 30
0.0
 11
1497.645691795888979
 21
151.3638403378201929
 31
0.0
  0
LINE
  5
12BE2
  8
0
 10
1497.6546917958889935
 20
151.3710986547201003
 30
0.0
 11
1497.6546917958889935
 21
151.3638403378201929
 31
0.0
  0
ARC
  5
12BE3
  8
0
 10
1497.6472688077960811
 20
151.3295960152518091
 30
0.0
 40
0.0055787426392899
 50
58.4023443701470271
 51
86.5038729510840056
  0
ARC
  5
12BE4
  8
0
 10
1497.6487967144869344
 20
151.3276557720730011
 30
0.0
 40
0.0059103563612294
 50
4.1201630343282494
 51
32.2650702534713716
  0
ARC
  5
12BE5
  8
0
 10
1497.6454881195420512
 20
151.3258036699079128
 30
0.0
 40
0.0096988483704069
 50
31.082686992750439
 51
44.6111711047687791
  0
ARC
  5
12BE6
  8
0
 10
1497.6554724661839373
 20
151.3253478078808882
 30
0.0
 40
0.0104347276377455
 50
120.402201369526594
 51
142.9271584641070092
  0
ARC
  5
12BE7
  8
0
 10
1497.6521474348489846
 20
151.3275165185380047
 30
0.0
 40
0.0064802207928233
 50
140.5031229263254033
 51
175.0078544654955977
  0
LINE
  5
12BE8
  8
0
 10
1497.6523926242889502
 20
151.3326150922200952
 30
0.0
 11
1497.6501917958889862
 21
151.3343477002200927
 31
0.0
  0
LINE
  5
12BE9
  8
0
 10
1497.6501917958889862
 20
151.3343477002200927
 30
0.0
 11
1497.6517112557889959
 21
151.3350008514200908
 31
0.0
  0
LINE
  5
12BEA
  8
0
 10
1497.6517112557889959
 20
151.3350008514200908
 30
0.0
 11
1497.6527728897890483
 21
151.3351615160200936
 31
0.0
  0
LINE
  5
12BEB
  8
0
 10
1497.645691795888979
 20
151.3280804220200935
 30
0.0
 11
1497.645691795888979
 21
151.3208221051201008
 31
0.0
  0
LINE
  5
12BEC
  8
0
 10
1497.6546917958889935
 20
151.3280804220200935
 30
0.0
 11
1497.6546917958889935
 21
151.3208221051201008
 31
0.0
  0
ARC
  5
12BED
  8
0
 10
1497.5972879513230964
 20
151.3296378818585026
 30
0.0
 40
0.0055330554184377
 50
58.3440386527262334
 51
86.6559618760811787
  0
ARC
  5
12BEE
  8
0
 10
1497.5987967144869799
 20
151.3276557720730011
 30
0.0
 40
0.0059103563612294
 50
4.1201630343282494
 51
32.2650702534713716
  0
ARC
  5
12BEF
  8
0
 10
1497.5954881195430062
 20
151.3258036699079128
 30
0.0
 40
0.0096988483704069
 50
31.082686992750439
 51
44.6111711047687791
  0
ARC
  5
12BF0
  8
0
 10
1497.6054724661830733
 20
151.3253478078808882
 30
0.0
 40
0.0104347276377455
 50
120.402201369526594
 51
142.9271584641070092
  0
ARC
  5
12BF1
  8
0
 10
1497.6021474348499396
 20
151.3275165185380047
 30
0.0
 40
0.0064802207928233
 50
140.5031229263254033
 51
175.0078544654955977
  0
LINE
  5
12BF2
  8
0
 10
1497.6023926242899051
 20
151.3326150922200952
 30
0.0
 11
1497.6001917958890317
 21
151.3343477002200927
 31
0.0
  0
LINE
  5
12BF3
  8
0
 10
1497.6001917958890317
 20
151.3343477002200927
 30
0.0
 11
1497.6017112557890414
 21
151.3350008514200908
 31
0.0
  0
LINE
  5
12BF4
  8
0
 10
1497.6017112557890414
 20
151.3350008514200908
 30
0.0
 11
1497.6027728897890938
 21
151.3351615160200936
 31
0.0
  0
LINE
  5
12BF5
  8
0
 10
1497.5956917958890244
 20
151.3280804220200935
 30
0.0
 11
1497.5956917958890244
 21
151.3232504011025128
 31
0.0
  0
LINE
  5
12BF6
  8
0
 10
1497.604691795889039
 20
151.3280804220200935
 30
0.0
 11
1497.604691795889039
 21
151.321879811830911
 31
0.0
  0
ARC
  5
12BF7
  8
0
 10
1497.5972879513230964
 20
151.3439772927584954
 30
0.0
 40
0.00553305541844
 50
58.3440386527262334
 51
86.6559618760811787
  0
ARC
  5
12BF8
  8
0
 10
1497.5987967144869799
 20
151.3419951829729939
 30
0.0
 40
0.0059103563612294
 50
4.1201630343282494
 51
32.2650702534713716
  0
ARC
  5
12BF9
  8
0
 10
1497.5954881195430062
 20
151.3401430808079056
 30
0.0
 40
0.0096988483704069
 50
31.082686992750439
 51
44.6111711047687791
  0
ARC
  5
12BFA
  8
0
 10
1497.6054724661830733
 20
151.3396872187809095
 30
0.0
 40
0.0104347276377455
 50
120.402201369526594
 51
142.9271584641070092
  0
ARC
  5
12BFB
  8
0
 10
1497.6021474348499396
 20
151.3418559294379975
 30
0.0
 40
0.0064802207928233
 50
140.5031229263254033
 51
175.0078544654955977
  0
LINE
  5
12BFC
  8
0
 10
1497.6023926242899051
 20
151.346954503120088
 30
0.0
 11
1497.6001917958890317
 21
151.348687111120114
 31
0.0
  0
LINE
  5
12BFD
  8
0
 10
1497.6001917958890317
 20
151.348687111120114
 30
0.0
 11
1497.6017112557890414
 21
151.3493402623201121
 31
0.0
  0
LINE
  5
12BFE
  8
0
 10
1497.6017112557890414
 20
151.3493402623201121
 30
0.0
 11
1497.6027728897890938
 21
151.3495009269200864
 31
0.0
  0
LINE
  5
12BFF
  8
0
 10
1497.5956917958890244
 20
151.3424198329200863
 30
0.0
 11
1497.5956917958890244
 21
151.3351615160200936
 31
0.0
  0
LINE
  5
12C00
  8
0
 10
1497.604691795889039
 20
151.3424198329202
 30
0.0
 11
1497.604691795889039
 21
151.3351615160200936
 31
0.0
  0
ARC
  5
12C01
  8
0
 10
1497.5972879513230964
 20
151.3583167036586019
 30
0.0
 40
0.0055330554184358
 50
58.3440386527262334
 51
86.6559618760811787
  0
ARC
  5
12C02
  8
0
 10
1497.5987967144869799
 20
151.3563345938729867
 30
0.0
 40
0.0059103563612294
 50
4.1201630343282494
 51
32.2650702534713716
  0
ARC
  5
12C03
  8
0
 10
1497.5954881195430062
 20
151.3544824917078984
 30
0.0
 40
0.0096988483704069
 50
31.082686992750439
 51
44.6111711047687791
  0
ARC
  5
12C04
  8
0
 10
1497.6054724661830733
 20
151.3540266296809023
 30
0.0
 40
0.0104347276377455
 50
120.402201369526594
 51
142.9271584641070092
  0
ARC
  5
12C05
  8
0
 10
1497.6021474348499396
 20
151.3561953403379903
 30
0.0
 40
0.0064802207928233
 50
140.5031229263254033
 51
175.0078544654955977
  0
LINE
  5
12C06
  8
0
 10
1497.6023926242899051
 20
151.3612939140201945
 30
0.0
 11
1497.6001917958890317
 21
151.3630265220201068
 31
0.0
  0
LINE
  5
12C07
  8
0
 10
1497.6001917958890317
 20
151.3630265220201068
 30
0.0
 11
1497.6017112557890414
 21
151.3636796732201049
 31
0.0
  0
LINE
  5
12C08
  8
0
 10
1497.6017112557890414
 20
151.3636796732201049
 30
0.0
 11
1497.6027728897890938
 21
151.3638403378201929
 31
0.0
  0
LINE
  5
12C09
  8
0
 10
1497.5956917958890244
 20
151.3567592438201075
 30
0.0
 11
1497.5956917958890244
 21
151.3495009269200864
 31
0.0
  0
LINE
  5
12C0A
  8
0
 10
1497.604691795889039
 20
151.3567592438201075
 30
0.0
 11
1497.604691795889039
 21
151.3495009269200864
 31
0.0
  0
ARC
  5
12C0B
  8
0
 10
1497.5472688077950352
 20
151.3439354261518019
 30
0.0
 40
0.0055787426392899
 50
58.4023443701470271
 51
86.5038729510840056
  0
ARC
  5
12C0C
  8
0
 10
1497.5487967144870254
 20
151.3419951829729939
 30
0.0
 40
0.0059103563612294
 50
4.1201630343282494
 51
32.2650702534713716
  0
ARC
  5
12C0D
  8
0
 10
1497.5454881195430517
 20
151.3401430808079056
 30
0.0
 40
0.0096988483704069
 50
31.082686992750439
 51
44.6111711047687791
  0
ARC
  5
12C0E
  8
0
 10
1497.5554724661828914
 20
151.3396872187809095
 30
0.0
 40
0.0104347276377455
 50
120.402201369526594
 51
142.9271584641070092
  0
ARC
  5
12C0F
  8
0
 10
1497.5521474348499851
 20
151.3418559294379975
 30
0.0
 40
0.0064802207928233
 50
140.5031229263254033
 51
175.0078544654955977
  0
LINE
  5
12C10
  8
0
 10
1497.5523926242890411
 20
151.346954503120088
 30
0.0
 11
1497.5501917958890772
 21
151.348687111120114
 31
0.0
  0
LINE
  5
12C11
  8
0
 10
1497.5501917958890772
 20
151.348687111120114
 30
0.0
 11
1497.5517112557890869
 21
151.3493402623201121
 31
0.0
  0
LINE
  5
12C12
  8
0
 10
1497.5517112557890869
 20
151.3493402623201121
 30
0.0
 11
1497.5527728897889119
 21
151.3495009269200864
 31
0.0
  0
LINE
  5
12C13
  8
0
 10
1497.5456917958890699
 20
151.3424198329200863
 30
0.0
 11
1497.5456917958890699
 21
151.3351615160200936
 31
0.0
  0
LINE
  5
12C14
  8
0
 10
1497.5546917958890845
 20
151.3424198329202
 30
0.0
 11
1497.5546917958890845
 21
151.3351615160200936
 31
0.0
  0
ARC
  5
12C15
  8
0
 10
1497.5472688077950352
 20
151.3295960152518091
 30
0.0
 40
0.0055787426392899
 50
58.4023443701470271
 51
86.5038729510840056
  0
ARC
  5
12C16
  8
0
 10
1497.5487967144870254
 20
151.3276557720730011
 30
0.0
 40
0.0059103563612294
 50
31.0663472168840613
 51
32.2650702534713716
  0
ARC
  5
12C17
  8
0
 10
1497.5454881195430517
 20
151.3258036699079128
 30
0.0
 40
0.0096988483704069
 50
31.082686992750439
 51
44.6111711047687791
  0
ARC
  5
12C18
  8
0
 10
1497.5554724661828914
 20
151.3253478078808882
 30
0.0
 40
0.0104347276377455
 50
120.402201369526594
 51
140.3283367199398128
  0
LINE
  5
12C19
  8
0
 10
1497.5523926242890411
 20
151.3326150922200952
 30
0.0
 11
1497.5501917958890772
 21
151.3343477002200927
 31
0.0
  0
LINE
  5
12C1A
  8
0
 10
1497.5501917958890772
 20
151.3343477002200927
 30
0.0
 11
1497.5517112557890869
 21
151.3350008514200908
 31
0.0
  0
LINE
  5
12C1B
  8
0
 10
1497.5517112557890869
 20
151.3350008514200908
 30
0.0
 11
1497.5527728897889119
 21
151.3351615160200936
 31
0.0
  0
ARC
  5
12C1C
  8
0
 10
1497.6722688077950352
 20
151.3152566043517879
 30
0.0
 40
0.0055787426392899
 50
58.4023443701470271
 51
86.5038729510840056
  0
ARC
  5
12C1D
  8
0
 10
1497.6737967144870254
 20
151.3133163611730083
 30
0.0
 40
0.0059103563612294
 50
17.0551436715367117
 51
32.2650702534713716
  0
ARC
  5
12C1E
  8
0
 10
1497.6704881195430517
 20
151.3114642590078915
 30
0.0
 40
0.0096988483704069
 50
31.082686992750439
 51
44.6111711047687791
  0
ARC
  5
12C1F
  8
0
 10
1497.6804724661828914
 20
151.3110083969808954
 30
0.0
 40
0.0104347276377455
 50
120.402201369526594
 51
142.9271584641070092
  0
ARC
  5
12C20
  8
0
 10
1497.6771474348499851
 20
151.3131771076380119
 30
0.0
 40
0.0064802207928233
 50
140.5031229263254033
 51
160.5561511818488043
  0
LINE
  5
12C21
  8
0
 10
1497.6773926242890411
 20
151.3182756813201024
 30
0.0
 11
1497.6751917958890772
 21
151.3200082893200999
 31
0.0
  0
LINE
  5
12C22
  8
0
 10
1497.6751917958890772
 20
151.3200082893200999
 30
0.0
 11
1497.6767112557890869
 21
151.320661440520098
 31
0.0
  0
LINE
  5
12C23
  8
0
 10
1497.6767112557890869
 20
151.320661440520098
 30
0.0
 11
1497.6777728897900488
 21
151.3208221051201008
 31
0.0
  0
ARC
  5
12C24
  8
0
 10
1497.6472688077960811
 20
151.3152566043517879
 30
0.0
 40
0.0055787426392899
 50
58.4023443701470271
 51
86.5038729510840056
  0
ARC
  5
12C25
  8
0
 10
1497.6487967144869344
 20
151.3133163611730083
 30
0.0
 40
0.0059103563612294
 50
29.2924537634315492
 51
32.2650702534713716
  0
ARC
  5
12C26
  8
0
 10
1497.6454881195420512
 20
151.3114642590078915
 30
0.0
 40
0.0096988483704069
 50
31.082686992750439
 51
44.6111711047687791
  0
ARC
  5
12C27
  8
0
 10
1497.6554724661839373
 20
151.3110083969808954
 30
0.0
 40
0.0104347276377455
 50
120.402201369526594
 51
142.9271584641070092
  0
ARC
  5
12C28
  8
0
 10
1497.6521474348489846
 20
151.3131771076380119
 30
0.0
 40
0.0064802207928233
 50
140.5031229263254033
 51
147.0829043239681084
  0
LINE
  5
12C29
  8
0
 10
1497.6523926242889502
 20
151.3182756813201024
 30
0.0
 11
1497.6501917958889862
 21
151.3200082893200999
 31
0.0
  0
LINE
  5
12C2A
  8
0
 10
1497.6501917958889862
 20
151.3200082893200999
 30
0.0
 11
1497.6517112557889959
 21
151.320661440520098
 31
0.0
  0
LINE
  5
12C2B
  8
0
 10
1497.6517112557889959
 20
151.320661440520098
 30
0.0
 11
1497.6527728897890483
 21
151.3208221051201008
 31
0.0
  0
ARC
  5
12C2C
  8
0
 10
1497.6222688077950806
 20
151.3152566043517879
 30
0.0
 40
0.0055787426392899
 50
58.4023443701470271
 51
86.5038729510840056
  0
ARC
  5
12C2D
  8
0
 10
1497.6304724661829368
 20
151.3110083969808954
 30
0.0
 40
0.0104347276377455
 50
120.402201369526594
 51
128.1689000118279012
  0
LINE
  5
12C2E
  8
0
 10
1497.6266222113461026
 20
151.318882190954497
 30
0.0
 11
1497.6251917958888953
 21
151.3200082893200999
 31
0.0
  0
LINE
  5
12C2F
  8
0
 10
1497.6251917958888953
 20
151.3200082893200999
 30
0.0
 11
1497.626711255788905
 21
151.320661440520098
 31
0.0
  0
LINE
  5
12C30
  8
0
 10
1497.626711255788905
 20
151.320661440520098
 30
0.0
 11
1497.6277728897889574
 21
151.3208221051201008
 31
0.0
  0
ARC
  5
12C31
  8
0
 10
1497.5987967144890263
 20
151.3706740047715016
 30
0.0
 40
0.0059103563612294
 50
4.1201630343282494
 51
32.2650702534713716
  0
ARC
  5
12C32
  8
0
 10
1497.5954881195450525
 20
151.3688219026064132
 30
0.0
 40
0.0096988483704069
 50
31.082686992750439
 51
44.9323135461971219
  0
ARC
  5
12C33
  8
0
 10
1497.6021474348510765
 20
151.3705347512365051
 30
0.0
 40
0.0064802207928233
 50
147.64588371107331
 51
175.0078544654955977
  0
LINE
  5
12C34
  8
0
 10
1497.5956917958910708
 20
151.3710986547185939
 30
0.0
 11
1497.5956917958910708
 21
151.3638403378186013
 31
0.0
  0
LINE
  5
12C35
  8
0
 10
1497.6046917958910853
 20
151.3710986547185939
 30
0.0
 11
1497.6046917958910853
 21
151.3638403378186013
 31
0.0
  0
ARC
  5
12C36
  8
0
 10
1497.6487967144889808
 20
151.3850134156716081
 30
0.0
 40
0.0059103563612294
 50
4.1201630343282494
 51
10.5619961713340196
  0
LINE
  5
12C37
  8
0
 10
1497.6456917958910253
 20
151.3848468965150005
 30
0.0
 11
1497.6456917958910253
 21
151.378179748718793
 31
0.0
  0
LINE
  5
12C38
  8
0
 10
1497.6546917958910399
 20
151.3854380656188141
 30
0.0
 11
1497.6546917958910399
 21
151.378179748718793
 31
0.0
  0
ARC
  5
12C39
  8
0
 10
1497.6737967144890717
 20
151.3850134156716081
 30
0.0
 40
0.0059103563612294
 50
4.1201630343282494
 51
32.2650702534713716
  0
ARC
  5
12C3A
  8
0
 10
1497.670488119545098
 20
151.3831613135064913
 30
0.0
 40
0.0096988483704069
 50
31.082686992750439
 51
31.5345223671069697
  0
ARC
  5
12C3B
  8
0
 10
1497.6771474348508946
 20
151.3848741621366969
 30
0.0
 40
0.0064802207928233
 50
153.7145784924724126
 51
175.0078544654955977
  0
LINE
  5
12C3C
  8
0
 10
1497.6706917958920258
 20
151.3854380656188141
 30
0.0
 11
1497.6706917958920258
 21
151.378179748718793
 31
0.0
  0
LINE
  5
12C3D
  8
0
 10
1497.6796917958920403
 20
151.3854380656188141
 30
0.0
 11
1497.6796917958920403
 21
151.378179748718793
 31
0.0
  0
LINE
  5
12C3E
  8
0
 10
1497.6226107018910625
 20
151.3208221051187934
 30
0.0
 11
1497.6120831564101081
 21
151.3208154284257887
 31
0.0
  0
LINE
  5
12C3F
  8
0
 10
1497.6277745543909532
 20
151.320824862818796
 30
0.0
 11
1497.6476107018909261
 21
151.3208221051187934
 31
0.0
  0
LINE
  5
12C40
  8
0
 10
1497.6527745543910441
 20
151.320824862818796
 30
0.0
 11
1497.6726090054889937
 21
151.3208249645201136
 31
0.0
  0
LINE
  5
12C41
  8
0
 10
1497.6777745543909077
 20
151.320824862818796
 30
0.0
 11
1497.6976107018920175
 21
151.3208221051187934
 31
0.0
  0
LINE
  5
12C42
  8
0
 10
1497.5956917958910708
 20
151.3691797487188069
 30
0.0
 11
1497.5822756747159019
 21
151.3691797487188069
 31
0.0
  0
LINE
  5
12C43
  8
0
 10
1497.5796917958909944
 20
151.3638403378188002
 30
0.0
 11
1497.5796917958909944
 21
151.3682239231067967
 31
0.0
  0
LINE
  5
12C44
  8
0
 10
1497.5955992211329431
 20
151.3662921375309907
 30
0.0
 11
1497.5881704811690724
 21
151.3638811797167989
 31
0.0
  0
LINE
  5
12C45
  8
0
 10
1497.5546917958920403
 20
151.3495036945394929
 30
0.0
 11
1497.5546917958920403
 21
151.3572964161577943
 31
0.0
  0
LINE
  5
12C46
  8
0
 10
1497.547610701891017
 20
151.3495009269188074
 30
0.0
 11
1497.5405921097240025
 21
151.3495009269188074
 31
0.0
  0
LINE
  5
12C47
  8
0
 10
1497.5456917958920258
 20
151.3495009269188074
 30
0.0
 11
1497.5456917958920258
 21
151.3524721062863989
 31
0.0
  0
LINE
  5
12C48
  8
0
 10
1497.5476090054889937
 20
151.3351643754201064
 30
0.0
 11
1497.5327164160360098
 21
151.3351618357922064
 31
0.0
  0
LINE
  5
12C49
  8
0
 10
1497.5296917958910399
 20
151.335837590283603
 30
0.0
 11
1497.5296917958910399
 21
151.3423932475299978
 31
0.0
  0
LINE
  5
12C4A
  8
0
 10
1497.5296917958910399
 20
151.3405009269187929
 30
0.0
 11
1497.5456917958890699
 21
151.3405009269187929
 31
0.0
  0
LINE
  5
12C4B
  8
0
 10
1497.5379478836289309
 20
151.3405009269187929
 30
0.0
 11
1497.5305932751930413
 21
151.3356351762720919
 31
0.0
  0
LINE
  5
12C4C
  8
0
 10
1497.5650340129909637
 20
151.3548403378185867
 30
0.0
 11
1497.5546917958920403
 21
151.3499244775948966
 31
0.0
  0
LINE
  5
12C4D
  8
0
 10
1497.6546917958910399
 20
151.378734693224402
 30
0.0
 11
1497.6706917958920258
 21
151.3803289337919864
 31
0.0
  0
LINE
  5
12C4E
  8
0
 10
1497.6796851637438976
 20
151.3809128650987077
 30
0.0
 11
1497.6956917958909798
 21
151.3814413229895024
 31
0.0
  0
LINE
  5
12C4F
  8
0
 10
1497.6956917958909798
 20
151.3835191596187997
 30
0.0
 11
1497.6796917958920403
 21
151.3835191596187997
 31
0.0
  0
LINE
  5
12C50
  8
0
 10
1497.6706917958920258
 20
151.3835191596187997
 30
0.0
 11
1497.6546917958910399
 21
151.3835191596187997
 31
0.0
  0
LINE
  5
12C51
  8
0
 10
1497.6456917958910253
 20
151.3835191596187997
 30
0.0
 11
1497.6375549901329123
 21
151.3835191596187997
 31
0.0
  0
LINE
  5
12C52
  8
0
 10
1497.6296917958920858
 20
151.378179748718793
 30
0.0
 11
1497.6296917958920858
 21
151.3820650979187974
 31
0.0
  0
LINE
  5
12C53
  8
0
 10
1497.6206917958920712
 20
151.378179748718793
 30
0.0
 11
1497.6206917958920712
 21
151.3801920255392019
 31
0.0
  0
LINE
  5
12C54
  8
0
 10
1497.6546917958910399
 20
151.3353196260472942
 30
0.0
 11
1497.6706917958908889
 21
151.336913198735914
 31
0.0
  0
LINE
  5
12C55
  8
0
 10
1497.6796917958920403
 20
151.3374981490790105
 30
0.0
 11
1497.6955664032559525
 21
151.3380218655466081
 31
0.0
  0
ARC
  5
12C56
  8
0
 10
1497.7001725805550905
 20
151.0071365431003017
 30
0.0
 40
0.3817009190985324
 50
85.7510825447157856
 51
89.9971154931660351
  0
ARC
  5
12C57
  8
0
 10
1497.7008245316860666
 20
151.015290679928313
 30
0.0
 40
0.3735208932268139
 50
83.0778593655536071
 51
85.7581420591538972
  0
ARC
  5
12C58
  8
0
 10
1497.7673414506280096
 20
151.1958076790004952
 30
0.0
 40
0.1793561338992012
 50
52.1253286213299987
 51
59.0071142677792793
  0
ARC
  5
12C59
  8
0
 10
1497.7428891658030352
 20
151.1547056457254996
 30
0.0
 40
0.2271814275361891
 50
59.0584518265261167
 51
67.0644081668172873
  0
ARC
  5
12C5A
  8
0
 10
1497.721466464553032
 20
151.104670746337689
 30
0.0
 40
0.2816091810506879
 50
67.0174719313824312
 51
74.2147417469613515
  0
ARC
  5
12C5B
  8
0
 10
1497.6967924651380599
 20
151.0044244981397128
 30
0.0
 40
0.38480324022459
 50
74.7398706632097145
 51
82.6768665834578655
  0
ARC
  5
12C5C
  8
0
 10
1497.7281147839848927
 20
151.3295960152503881
 30
0.0
 40
0.0055787426392899
 50
93.4961270489160086
 51
121.5976556298529943
  0
ARC
  5
12C5D
  8
0
 10
1497.7265868772940394
 20
151.3276557720716937
 30
0.0
 40
0.0059103563612294
 50
147.7349297465285929
 51
175.8798369656717
  0
ARC
  5
12C5E
  8
0
 10
1497.7298954722380131
 20
151.3258036699066054
 30
0.0
 40
0.0096988483704069
 50
135.3888288952311996
 51
148.9173130072495042
  0
ARC
  5
12C5F
  8
0
 10
1497.719911125597946
 20
151.3253478078796093
 30
0.0
 40
0.0104347276377455
 50
37.0728415358929908
 51
59.5977986304733705
  0
ARC
  5
12C60
  8
0
 10
1497.7232361569310797
 20
151.3275165185366973
 30
0.0
 40
0.0064802207928233
 50
4.9921455345044103
 51
39.4968770736745824
  0
LINE
  5
12C61
  8
0
 10
1497.7229909674908868
 20
151.3326150922187878
 30
0.0
 11
1497.7251917958919876
 21
151.3343477002187001
 31
0.0
  0
LINE
  5
12C62
  8
0
 10
1497.7251917958919876
 20
151.3343477002187001
 30
0.0
 11
1497.7236723359910684
 21
151.3350008514188119
 31
0.0
  0
LINE
  5
12C63
  8
0
 10
1497.7236723359910684
 20
151.3350008514188119
 30
0.0
 11
1497.722610701991016
 21
151.3351615160187862
 31
0.0
  0
LINE
  5
12C64
  8
0
 10
1497.722610701991016
 20
151.3351615160187862
 30
0.0
 11
1497.7027728898910937
 21
151.3351615160187862
 31
0.0
  0
LINE
  5
12C65
  8
0
 10
1497.7296917958910853
 20
151.3280804220187861
 30
0.0
 11
1497.7296917958910853
 21
151.3208221051187934
 31
0.0
  0
LINE
  5
12C66
  8
0
 10
1497.7206917958910708
 20
151.3280804220187861
 30
0.0
 11
1497.7206917958910708
 21
151.3208221051187934
 31
0.0
  0
LINE
  5
12C67
  8
0
 10
1497.7277745862909342
 20
151.335164375418799
 30
0.0
 11
1497.7476090373909301
 21
151.3351642738188048
 31
0.0
  0
LINE
  5
12C68
  8
0
 10
1497.7296917958910853
 20
151.3261615160188001
 30
0.0
 11
1497.7456917958909344
 21
151.3261615160188001
 31
0.0
  0
LINE
  5
12C69
  8
0
 10
1497.7206917958910708
 20
151.3261615160188001
 30
0.0
 11
1497.7046917958909944
 21
151.3261615160188001
 31
0.0
  0
ARC
  5
12C6A
  8
0
 10
1497.7281147839860296
 20
151.3439354261502956
 30
0.0
 40
0.0055787426392899
 50
93.4961270489160086
 51
121.5976556298529943
  0
ARC
  5
12C6B
  8
0
 10
1497.7265868772940394
 20
151.3419951829714876
 30
0.0
 40
0.0059103563612294
 50
147.7349297465285929
 51
175.8798369656717
  0
ARC
  5
12C6C
  8
0
 10
1497.7298954722380131
 20
151.3401430808063992
 30
0.0
 40
0.0096988483704069
 50
135.3888288952311996
 51
148.9173130072495042
  0
ARC
  5
12C6D
  8
0
 10
1497.719911125597946
 20
151.3396872187794031
 30
0.0
 40
0.0104347276377455
 50
37.0728415358929908
 51
59.5977986304733705
  0
ARC
  5
12C6E
  8
0
 10
1497.7232361569310797
 20
151.3418559294364911
 30
0.0
 40
0.0064802207928233
 50
4.9921455345044103
 51
39.4968770736745824
  0
LINE
  5
12C6F
  8
0
 10
1497.7229909674908868
 20
151.3469545031186101
 30
0.0
 11
1497.7251917958919876
 21
151.3486871111186076
 31
0.0
  0
LINE
  5
12C70
  8
0
 10
1497.7251917958919876
 20
151.3486871111186076
 30
0.0
 11
1497.7236723359919779
 21
151.3493402623186057
 31
0.0
  0
LINE
  5
12C71
  8
0
 10
1497.7236723359919779
 20
151.3493402623186057
 30
0.0
 11
1497.722610701991016
 21
151.3495009269186085
 31
0.0
  0
LINE
  5
12C72
  8
0
 10
1497.722610701991016
 20
151.3495009269186085
 30
0.0
 11
1497.7027728898920031
 21
151.3495009269186085
 31
0.0
  0
LINE
  5
12C73
  8
0
 10
1497.7296917958919948
 20
151.3424198329186083
 30
0.0
 11
1497.7296917958919948
 21
151.3351615160185872
 31
0.0
  0
LINE
  5
12C74
  8
0
 10
1497.7206917958919803
 20
151.3424198329186083
 30
0.0
 11
1497.7206917958919803
 21
151.3351615160185872
 31
0.0
  0
LINE
  5
12C75
  8
0
 10
1497.727774586292071
 20
151.3495037863185928
 30
0.0
 11
1497.747609037392067
 21
151.3495036847185986
 31
0.0
  0
LINE
  5
12C76
  8
0
 10
1497.7296917958919948
 20
151.3405009269185939
 30
0.0
 11
1497.7456917958909344
 21
151.3405009269185939
 31
0.0
  0
LINE
  5
12C77
  8
0
 10
1497.7206917958919803
 20
151.3405009269185939
 30
0.0
 11
1497.7046917958909944
 21
151.3405009269185939
 31
0.0
  0
ARC
  5
12C78
  8
0
 10
1497.7281147839860296
 20
151.3582748370502884
 30
0.0
 40
0.0055787426392899
 50
93.4961270489160086
 51
121.5976556298529943
  0
ARC
  5
12C79
  8
0
 10
1497.7265868772940394
 20
151.3563345938713951
 30
0.0
 40
0.0059103563612294
 50
147.7349297465285929
 51
175.8798369656717
  0
ARC
  5
12C7A
  8
0
 10
1497.7298954722380131
 20
151.354482491706392
 30
0.0
 40
0.0096988483704069
 50
135.3888288952311996
 51
148.9173130072495042
  0
ARC
  5
12C7B
  8
0
 10
1497.719911125597946
 20
151.3540266296793959
 30
0.0
 40
0.0104347276377455
 50
37.0728415358929908
 51
59.5977986304733705
  0
ARC
  5
12C7C
  8
0
 10
1497.7232361569310797
 20
151.3561953403365123
 30
0.0
 40
0.0064802207928233
 50
4.9921455345044103
 51
39.4968770736745824
  0
LINE
  5
12C7D
  8
0
 10
1497.7229909674908868
 20
151.3612939140186029
 30
0.0
 11
1497.7251917958919876
 21
151.3630265220186004
 31
0.0
  0
LINE
  5
12C7E
  8
0
 10
1497.7251917958919876
 20
151.3630265220186004
 30
0.0
 11
1497.7236723359919779
 21
151.3636796732185985
 31
0.0
  0
LINE
  5
12C7F
  8
0
 10
1497.7236723359919779
 20
151.3636796732185985
 30
0.0
 11
1497.722610701991016
 21
151.3638403378186013
 31
0.0
  0
LINE
  5
12C80
  8
0
 10
1497.722610701991016
 20
151.3638403378186013
 30
0.0
 11
1497.7027728898920031
 21
151.3638403378186013
 31
0.0
  0
LINE
  5
12C81
  8
0
 10
1497.7296917958919948
 20
151.3567592438186011
 30
0.0
 11
1497.7296917958919948
 21
151.3495009269186085
 31
0.0
  0
LINE
  5
12C82
  8
0
 10
1497.7206917958919803
 20
151.3567592438186011
 30
0.0
 11
1497.7206917958919803
 21
151.3495009269186085
 31
0.0
  0
LINE
  5
12C83
  8
0
 10
1497.727774586292071
 20
151.363843197218614
 30
0.0
 11
1497.747609037392067
 21
151.3638430956185914
 31
0.0
  0
LINE
  5
12C84
  8
0
 10
1497.7296917958919948
 20
151.3548403378185867
 30
0.0
 11
1497.7456917958909344
 21
151.3548403378185867
 31
0.0
  0
LINE
  5
12C85
  8
0
 10
1497.7206917958919803
 20
151.3548403378185867
 30
0.0
 11
1497.7046917958909944
 21
151.3548403378185867
 31
0.0
  0
ARC
  5
12C86
  8
0
 10
1497.7281147839860296
 20
151.3726142479501959
 30
0.0
 40
0.0055787426392899
 50
93.4961270489160086
 51
121.5976556298529943
  0
ARC
  5
12C87
  8
0
 10
1497.7265868772940394
 20
151.3706740047715016
 30
0.0
 40
0.0059103563612294
 50
147.7349297465285929
 51
175.8798369656717
  0
ARC
  5
12C88
  8
0
 10
1497.7298954722380131
 20
151.3688219026064132
 30
0.0
 40
0.0096988483704069
 50
135.3888288952311996
 51
148.9173130072495042
  0
ARC
  5
12C89
  8
0
 10
1497.719911125597946
 20
151.3683660405793887
 30
0.0
 40
0.0104347276377455
 50
37.0728415358929908
 51
59.5977986304733705
  0
ARC
  5
12C8A
  8
0
 10
1497.7232361569310797
 20
151.3705347512365051
 30
0.0
 40
0.0064802207928233
 50
4.9921455345044103
 51
39.4968770736745824
  0
LINE
  5
12C8B
  8
0
 10
1497.7229909674908868
 20
151.3756333249185957
 30
0.0
 11
1497.7251917958919876
 21
151.3773659329185932
 31
0.0
  0
LINE
  5
12C8C
  8
0
 10
1497.7251917958919876
 20
151.3773659329185932
 30
0.0
 11
1497.7236723359919779
 21
151.3780190841185913
 31
0.0
  0
LINE
  5
12C8D
  8
0
 10
1497.7236723359919779
 20
151.3780190841185913
 30
0.0
 11
1497.722610701991016
 21
151.3781797487185941
 31
0.0
  0
LINE
  5
12C8E
  8
0
 10
1497.722610701991016
 20
151.3781797487185941
 30
0.0
 11
1497.7027728898920031
 21
151.3781797487185941
 31
0.0
  0
LINE
  5
12C8F
  8
0
 10
1497.7296917958919948
 20
151.3710986547185939
 30
0.0
 11
1497.7296917958919948
 21
151.3638403378186013
 31
0.0
  0
LINE
  5
12C90
  8
0
 10
1497.7206917958919803
 20
151.3710986547185939
 30
0.0
 11
1497.7206917958919803
 21
151.3638403378186013
 31
0.0
  0
LINE
  5
12C91
  8
0
 10
1497.727774586292071
 20
151.3781826081186068
 30
0.0
 11
1497.747609037392067
 21
151.3781825065186126
 31
0.0
  0
LINE
  5
12C92
  8
0
 10
1497.7296917958919948
 20
151.3691797487186079
 30
0.0
 11
1497.7456917958909344
 21
151.3691797487186079
 31
0.0
  0
LINE
  5
12C93
  8
0
 10
1497.7206917958919803
 20
151.3691797487186079
 30
0.0
 11
1497.7046917958909944
 21
151.3691797487186079
 31
0.0
  0
ARC
  5
12C94
  8
0
 10
1497.7781147839859841
 20
151.3726142479501959
 30
0.0
 40
0.0055787426392899
 50
93.4961270489160086
 51
121.5976556298529943
  0
ARC
  5
12C95
  8
0
 10
1497.7765868772939939
 20
151.3706740047715016
 30
0.0
 40
0.0059103563612294
 50
147.7349297465285929
 51
175.8798369656717
  0
ARC
  5
12C96
  8
0
 10
1497.7798954722379676
 20
151.3688219026064132
 30
0.0
 40
0.0096988483704069
 50
135.3888288952311996
 51
148.9173130072495042
  0
ARC
  5
12C97
  8
0
 10
1497.7699111255979005
 20
151.3683660405793887
 30
0.0
 40
0.0104347276377455
 50
37.0728415358929908
 51
59.5977986304733705
  0
ARC
  5
12C98
  8
0
 10
1497.7732361569310342
 20
151.3705347512365051
 30
0.0
 40
0.0064802207928233
 50
4.9921455345044103
 51
39.4968770736745824
  0
LINE
  5
12C99
  8
0
 10
1497.7729909674919782
 20
151.3756333249185957
 30
0.0
 11
1497.7751917958919421
 21
151.3773659329185932
 31
0.0
  0
LINE
  5
12C9A
  8
0
 10
1497.7751917958919421
 20
151.3773659329185932
 30
0.0
 11
1497.7736723359919324
 21
151.3780190841185913
 31
0.0
  0
LINE
  5
12C9B
  8
0
 10
1497.7736723359919324
 20
151.3780190841185913
 30
0.0
 11
1497.7726107019909705
 21
151.3781797487185941
 31
0.0
  0
LINE
  5
12C9C
  8
0
 10
1497.7726107019909705
 20
151.3781797487185941
 30
0.0
 11
1497.7527728898910482
 21
151.3781797487185941
 31
0.0
  0
LINE
  5
12C9D
  8
0
 10
1497.7796917958919494
 20
151.3710986547185939
 30
0.0
 11
1497.7796917958919494
 21
151.3638403378186013
 31
0.0
  0
LINE
  5
12C9E
  8
0
 10
1497.7706917958919348
 20
151.3710986547185939
 30
0.0
 11
1497.7706917958919348
 21
151.3638403378186013
 31
0.0
  0
LINE
  5
12C9F
  8
0
 10
1497.7777745862908887
 20
151.3781826081186068
 30
0.0
 11
1497.7883263349110621
 21
151.378182554068303
 31
0.0
  0
LINE
  5
12CA0
  8
0
 10
1497.7796917958919494
 20
151.3691797487186079
 30
0.0
 11
1497.7956917958920258
 21
151.3691797487186079
 31
0.0
  0
LINE
  5
12CA1
  8
0
 10
1497.7706917958919348
 20
151.3691797487186079
 30
0.0
 11
1497.7546917958909489
 21
151.3691797487186079
 31
0.0
  0
ARC
  5
12CA2
  8
0
 10
1497.7781147839859841
 20
151.3582748370502884
 30
0.0
 40
0.0055787426392899
 50
93.4961270489160086
 51
121.5976556298529943
  0
ARC
  5
12CA3
  8
0
 10
1497.7765868772939939
 20
151.3563345938713951
 30
0.0
 40
0.0059103563612294
 50
147.7349297465285929
 51
175.8798369656717
  0
ARC
  5
12CA4
  8
0
 10
1497.7798954722379676
 20
151.354482491706392
 30
0.0
 40
0.0096988483704069
 50
135.3888288952311996
 51
148.9173130072495042
  0
ARC
  5
12CA5
  8
0
 10
1497.7699111255979005
 20
151.3540266296793959
 30
0.0
 40
0.0104347276377455
 50
37.0728415358929908
 51
59.5977986304733705
  0
ARC
  5
12CA6
  8
0
 10
1497.7732361569310342
 20
151.3561953403365123
 30
0.0
 40
0.0064802207928233
 50
4.9921455345044103
 51
39.4968770736745824
  0
LINE
  5
12CA7
  8
0
 10
1497.7729909674919782
 20
151.3612939140186029
 30
0.0
 11
1497.7751917958919421
 21
151.3630265220186004
 31
0.0
  0
LINE
  5
12CA8
  8
0
 10
1497.7751917958919421
 20
151.3630265220186004
 30
0.0
 11
1497.7736723359919324
 21
151.3636796732185985
 31
0.0
  0
LINE
  5
12CA9
  8
0
 10
1497.7736723359919324
 20
151.3636796732185985
 30
0.0
 11
1497.7726107019909705
 21
151.3638403378186013
 31
0.0
  0
LINE
  5
12CAA
  8
0
 10
1497.7726107019909705
 20
151.3638403378186013
 30
0.0
 11
1497.7527728898910482
 21
151.3638403378186013
 31
0.0
  0
LINE
  5
12CAB
  8
0
 10
1497.7796917958919494
 20
151.3567592438186011
 30
0.0
 11
1497.7796917958919494
 21
151.3495009269186085
 31
0.0
  0
LINE
  5
12CAC
  8
0
 10
1497.7706917958919348
 20
151.3567592438186011
 30
0.0
 11
1497.7706917958919348
 21
151.3495009269186085
 31
0.0
  0
LINE
  5
12CAD
  8
0
 10
1497.7777745862908887
 20
151.363843197218614
 30
0.0
 11
1497.797609037391112
 21
151.3638430956185914
 31
0.0
  0
LINE
  5
12CAE
  8
0
 10
1497.7796917958919494
 20
151.3548403378185867
 30
0.0
 11
1497.7956917958920258
 21
151.3548403378185867
 31
0.0
  0
LINE
  5
12CAF
  8
0
 10
1497.7706917958919348
 20
151.3548403378185867
 30
0.0
 11
1497.7546917958909489
 21
151.3548403378185867
 31
0.0
  0
ARC
  5
12CB0
  8
0
 10
1497.7781147839859841
 20
151.3439354261502956
 30
0.0
 40
0.0055787426392899
 50
93.4961270489160086
 51
121.5976556298529943
  0
ARC
  5
12CB1
  8
0
 10
1497.7765868772939939
 20
151.3419951829714876
 30
0.0
 40
0.0059103563612294
 50
147.7349297465285929
 51
175.8798369656717
  0
ARC
  5
12CB2
  8
0
 10
1497.7798954722379676
 20
151.3401430808063992
 30
0.0
 40
0.0096988483704069
 50
135.3888288952311996
 51
148.9173130072495042
  0
ARC
  5
12CB3
  8
0
 10
1497.7699111255979005
 20
151.3396872187794031
 30
0.0
 40
0.0104347276377455
 50
37.0728415358929908
 51
59.5977986304733705
  0
ARC
  5
12CB4
  8
0
 10
1497.7732361569310342
 20
151.3418559294364911
 30
0.0
 40
0.0064802207928233
 50
4.9921455345044103
 51
39.4968770736745824
  0
LINE
  5
12CB5
  8
0
 10
1497.7729909674919782
 20
151.3469545031186101
 30
0.0
 11
1497.7751917958919421
 21
151.3486871111186076
 31
0.0
  0
LINE
  5
12CB6
  8
0
 10
1497.7751917958919421
 20
151.3486871111186076
 30
0.0
 11
1497.7736723359919324
 21
151.3493402623186057
 31
0.0
  0
LINE
  5
12CB7
  8
0
 10
1497.7736723359919324
 20
151.3493402623186057
 30
0.0
 11
1497.7726107019909705
 21
151.3495009269186085
 31
0.0
  0
LINE
  5
12CB8
  8
0
 10
1497.7726107019909705
 20
151.3495009269186085
 30
0.0
 11
1497.7527728898910482
 21
151.3495009269186085
 31
0.0
  0
LINE
  5
12CB9
  8
0
 10
1497.7796917958919494
 20
151.3424198329186083
 30
0.0
 11
1497.7796917958919494
 21
151.3351615160185872
 31
0.0
  0
LINE
  5
12CBA
  8
0
 10
1497.7706917958919348
 20
151.3424198329186083
 30
0.0
 11
1497.7706917958919348
 21
151.3351615160185872
 31
0.0
  0
LINE
  5
12CBB
  8
0
 10
1497.7777745862908887
 20
151.3495037863185928
 30
0.0
 11
1497.797609037391112
 21
151.3495036847185986
 31
0.0
  0
LINE
  5
12CBC
  8
0
 10
1497.7796917958919494
 20
151.3405009269185939
 30
0.0
 11
1497.7956917958920258
 21
151.3405009269185939
 31
0.0
  0
LINE
  5
12CBD
  8
0
 10
1497.7706917958919348
 20
151.3405009269185939
 30
0.0
 11
1497.7546917958909489
 21
151.3405009269185939
 31
0.0
  0
ARC
  5
12CBE
  8
0
 10
1497.7781147839859841
 20
151.3295960152501891
 30
0.0
 40
0.0055787426392899
 50
93.4961270489160086
 51
121.5976556298529943
  0
ARC
  5
12CBF
  8
0
 10
1497.7765868772939939
 20
151.3276557720714948
 30
0.0
 40
0.0059103563612294
 50
147.7349297465285929
 51
175.8798369656717
  0
ARC
  5
12CC0
  8
0
 10
1497.7798954722379676
 20
151.3258036699064064
 30
0.0
 40
0.0096988483704069
 50
135.3888288952311996
 51
148.9173130072495042
  0
ARC
  5
12CC1
  8
0
 10
1497.7699111255979005
 20
151.3253478078794103
 30
0.0
 40
0.0104347276377455
 50
37.0728415358929908
 51
59.5977986304733705
  0
ARC
  5
12CC2
  8
0
 10
1497.7732361569310342
 20
151.3275165185364983
 30
0.0
 40
0.0064802207928233
 50
4.9921455345044103
 51
39.4968770736745824
  0
LINE
  5
12CC3
  8
0
 10
1497.7729909674919782
 20
151.3326150922185889
 30
0.0
 11
1497.7751917958919421
 21
151.3343477002185864
 31
0.0
  0
LINE
  5
12CC4
  8
0
 10
1497.7751917958919421
 20
151.3343477002185864
 30
0.0
 11
1497.7736723359919324
 21
151.3350008514186129
 31
0.0
  0
LINE
  5
12CC5
  8
0
 10
1497.7736723359919324
 20
151.3350008514186129
 30
0.0
 11
1497.7726107019909705
 21
151.3351615160185872
 31
0.0
  0
LINE
  5
12CC6
  8
0
 10
1497.7726107019909705
 20
151.3351615160185872
 30
0.0
 11
1497.7527728898910482
 21
151.3351615160185872
 31
0.0
  0
LINE
  5
12CC7
  8
0
 10
1497.7796917958919494
 20
151.3280804220185871
 30
0.0
 11
1497.7796917958919494
 21
151.3208221051185944
 31
0.0
  0
LINE
  5
12CC8
  8
0
 10
1497.7706917958919348
 20
151.3280804220185871
 30
0.0
 11
1497.7706917958919348
 21
151.3208221051185944
 31
0.0
  0
LINE
  5
12CC9
  8
0
 10
1497.7777745862908887
 20
151.3351643754186
 30
0.0
 11
1497.797609037391112
 21
151.3351642738186058
 31
0.0
  0
LINE
  5
12CCA
  8
0
 10
1497.7796917958919494
 20
151.3261615160186011
 30
0.0
 11
1497.7956917958920258
 21
151.3261615160186011
 31
0.0
  0
LINE
  5
12CCB
  8
0
 10
1497.7706917958919348
 20
151.3261615160186011
 30
0.0
 11
1497.7546917958909489
 21
151.3261615160186011
 31
0.0
  0
ARC
  5
12CCC
  8
0
 10
1497.8281147839850291
 20
151.3582748370502884
 30
0.0
 40
0.0055787426392899
 50
93.4961270489160086
 51
121.5976556298529943
  0
ARC
  5
12CCD
  8
0
 10
1497.8265868772939484
 20
151.3563345938713951
 30
0.0
 40
0.0059103563612294
 50
147.7349297465285929
 51
175.8798369656717
  0
ARC
  5
12CCE
  8
0
 10
1497.829895472239059
 20
151.354482491706392
 30
0.0
 40
0.0096988483704069
 50
135.3888288952311996
 51
148.9173130072495042
  0
ARC
  5
12CCF
  8
0
 10
1497.8199111255969456
 20
151.3540266296793959
 30
0.0
 40
0.0104347276377455
 50
37.0728415358929908
 51
59.5977986304733705
  0
ARC
  5
12CD0
  8
0
 10
1497.8232361569309887
 20
151.3561953403365123
 30
0.0
 40
0.0064802207928233
 50
4.9921455345044103
 51
39.4968770736745824
  0
LINE
  5
12CD1
  8
0
 10
1497.8229909674919327
 20
151.3612939140186029
 30
0.0
 11
1497.8251917958909871
 21
151.3630265220186004
 31
0.0
  0
LINE
  5
12CD2
  8
0
 10
1497.8251917958909871
 20
151.3630265220186004
 30
0.0
 11
1497.8236723359909774
 21
151.3636796732185985
 31
0.0
  0
LINE
  5
12CD3
  8
0
 10
1497.8236723359909774
 20
151.3636796732185985
 30
0.0
 11
1497.8226107019920619
 21
151.3638403378186013
 31
0.0
  0
LINE
  5
12CD4
  8
0
 10
1497.8226107019920619
 20
151.3638403378186013
 30
0.0
 11
1497.8027728898910027
 21
151.3638403378186013
 31
0.0
  0
LINE
  5
12CD5
  8
0
 10
1497.8296917958909944
 20
151.3567592438186011
 30
0.0
 11
1497.8296917958909944
 21
151.3495009269186085
 31
0.0
  0
LINE
  5
12CD6
  8
0
 10
1497.8206917958909798
 20
151.3567592438186011
 30
0.0
 11
1497.8206917958909798
 21
151.3495009269186085
 31
0.0
  0
LINE
  5
12CD7
  8
0
 10
1497.8277745862910706
 20
151.363843197218614
 30
0.0
 11
1497.8316184947120746
 21
151.3638431775285937
 31
0.0
  0
LINE
  5
12CD8
  8
0
 10
1497.8296917958909944
 20
151.3548403378185867
 30
0.0
 11
1497.8456917958919803
 21
151.3548403378185867
 31
0.0
  0
LINE
  5
12CD9
  8
0
 10
1497.8206917958909798
 20
151.3548403378185867
 30
0.0
 11
1497.8046917958920403
 21
151.3548403378185867
 31
0.0
  0
ARC
  5
12CDA
  8
0
 10
1497.8281147839850291
 20
151.3439354261502956
 30
0.0
 40
0.0055787426392899
 50
93.4961270489160086
 51
121.5976556298529943
  0
ARC
  5
12CDB
  8
0
 10
1497.8265868772939484
 20
151.3419951829714876
 30
0.0
 40
0.0059103563612294
 50
147.7349297465285929
 51
175.8798369656717
  0
ARC
  5
12CDC
  8
0
 10
1497.829895472239059
 20
151.3401430808063992
 30
0.0
 40
0.0096988483704069
 50
135.3888288952311996
 51
148.9173130072495042
  0
ARC
  5
12CDD
  8
0
 10
1497.8199111255969456
 20
151.3396872187794031
 30
0.0
 40
0.0104347276377455
 50
37.0728415358929908
 51
59.5977986304733705
  0
ARC
  5
12CDE
  8
0
 10
1497.8232361569309887
 20
151.3418559294364911
 30
0.0
 40
0.0064802207928233
 50
4.9921455345044103
 51
39.4968770736745824
  0
LINE
  5
12CDF
  8
0
 10
1497.8229909674919327
 20
151.3469545031186101
 30
0.0
 11
1497.8251917958909871
 21
151.3486871111186076
 31
0.0
  0
LINE
  5
12CE0
  8
0
 10
1497.8251917958909871
 20
151.3486871111186076
 30
0.0
 11
1497.8236723359909774
 21
151.3493402623186057
 31
0.0
  0
LINE
  5
12CE1
  8
0
 10
1497.8236723359909774
 20
151.3493402623186057
 30
0.0
 11
1497.8226107019920619
 21
151.3495009269186085
 31
0.0
  0
LINE
  5
12CE2
  8
0
 10
1497.8226107019920619
 20
151.3495009269186085
 30
0.0
 11
1497.8027728898910027
 21
151.3495009269186085
 31
0.0
  0
LINE
  5
12CE3
  8
0
 10
1497.8296917958909944
 20
151.3424198329186083
 30
0.0
 11
1497.8296917958909944
 21
151.3351615160185872
 31
0.0
  0
LINE
  5
12CE4
  8
0
 10
1497.8206917958909798
 20
151.3424198329186083
 30
0.0
 11
1497.8206917958909798
 21
151.3351615160185872
 31
0.0
  0
LINE
  5
12CE5
  8
0
 10
1497.8277745862910706
 20
151.3495037863185928
 30
0.0
 11
1497.8476090373910665
 21
151.3495036847185986
 31
0.0
  0
LINE
  5
12CE6
  8
0
 10
1497.8296917958909944
 20
151.3405009269185939
 30
0.0
 11
1497.8456917958919803
 21
151.3405009269185939
 31
0.0
  0
LINE
  5
12CE7
  8
0
 10
1497.8206917958909798
 20
151.3405009269185939
 30
0.0
 11
1497.8046917958920403
 21
151.3405009269185939
 31
0.0
  0
ARC
  5
12CE8
  8
0
 10
1497.8281147839850291
 20
151.3295960152501891
 30
0.0
 40
0.0055787426392899
 50
93.4961270489160086
 51
121.5976556298529943
  0
ARC
  5
12CE9
  8
0
 10
1497.8265868772939484
 20
151.3276557720714948
 30
0.0
 40
0.0059103563612294
 50
147.7349297465285929
 51
175.8798369656717
  0
ARC
  5
12CEA
  8
0
 10
1497.829895472239059
 20
151.3258036699064064
 30
0.0
 40
0.0096988483704069
 50
135.3888288952311996
 51
148.9173130072495042
  0
ARC
  5
12CEB
  8
0
 10
1497.8199111255969456
 20
151.3253478078794103
 30
0.0
 40
0.0104347276377455
 50
37.0728415358929908
 51
59.5977986304733705
  0
ARC
  5
12CEC
  8
0
 10
1497.8232361569309887
 20
151.3275165185364983
 30
0.0
 40
0.0064802207928233
 50
4.9921455345044103
 51
39.4968770736745824
  0
LINE
  5
12CED
  8
0
 10
1497.8229909674919327
 20
151.3326150922185889
 30
0.0
 11
1497.8251917958909871
 21
151.3343477002185864
 31
0.0
  0
LINE
  5
12CEE
  8
0
 10
1497.8251917958909871
 20
151.3343477002185864
 30
0.0
 11
1497.8236723359909774
 21
151.3350008514186129
 31
0.0
  0
LINE
  5
12CEF
  8
0
 10
1497.8236723359909774
 20
151.3350008514186129
 30
0.0
 11
1497.8226107019920619
 21
151.3351615160185872
 31
0.0
  0
LINE
  5
12CF0
  8
0
 10
1497.8226107019920619
 20
151.3351615160185872
 30
0.0
 11
1497.8027728898910027
 21
151.3351615160185872
 31
0.0
  0
LINE
  5
12CF1
  8
0
 10
1497.8296917958909944
 20
151.3280804220185871
 30
0.0
 11
1497.8296917958909944
 21
151.3274899437757028
 31
0.0
  0
LINE
  5
12CF2
  8
0
 10
1497.8206917958909798
 20
151.3280804220185871
 30
0.0
 11
1497.8206917958909798
 21
151.3258901632042068
 31
0.0
  0
LINE
  5
12CF3
  8
0
 10
1497.8277745862910706
 20
151.3351643754186
 30
0.0
 11
1497.8476090373910665
 21
151.3351642738186058
 31
0.0
  0
LINE
  5
12CF4
  8
0
 10
1497.8206917958909798
 20
151.3261615160186011
 30
0.0
 11
1497.8046917958920403
 21
151.3261615160186011
 31
0.0
  0
ARC
  5
12CF5
  8
0
 10
1497.75311478398703
 20
151.3439354261518019
 30
0.0
 40
0.0055787426392899
 50
93.4961270489160086
 51
121.5976556298529943
  0
ARC
  5
12CF6
  8
0
 10
1497.7515868772959493
 20
151.3419951829729939
 30
0.0
 40
0.0059103563612294
 50
147.7349297465285929
 51
175.8798369656717
  0
ARC
  5
12CF7
  8
0
 10
1497.7548954722410599
 20
151.3401430808079056
 30
0.0
 40
0.0096988483704069
 50
135.3888288952311996
 51
148.9173130072495042
  0
ARC
  5
12CF8
  8
0
 10
1497.7449111255989465
 20
151.3396872187809095
 30
0.0
 40
0.0104347276377455
 50
37.0728415358929908
 51
59.5977986304733705
  0
ARC
  5
12CF9
  8
0
 10
1497.7482361569329896
 20
151.3418559294379975
 30
0.0
 40
0.0064802207928233
 50
4.9921455345044103
 51
39.4968770736745824
  0
LINE
  5
12CFA
  8
0
 10
1497.7479909674939336
 20
151.346954503120088
 30
0.0
 11
1497.750191795892988
 21
151.348687111120114
 31
0.0
  0
LINE
  5
12CFB
  8
0
 10
1497.750191795892988
 20
151.348687111120114
 30
0.0
 11
1497.7486723359929783
 21
151.3493402623201121
 31
0.0
  0
LINE
  5
12CFC
  8
0
 10
1497.7486723359929783
 20
151.3493402623201121
 30
0.0
 11
1497.7476107019940628
 21
151.3495009269200864
 31
0.0
  0
LINE
  5
12CFD
  8
0
 10
1497.7546917958929953
 20
151.3424198329200863
 30
0.0
 11
1497.7546917958929953
 21
151.3351615160200936
 31
0.0
  0
LINE
  5
12CFE
  8
0
 10
1497.7456917958929807
 20
151.3424198329202
 30
0.0
 11
1497.7456917958929807
 21
151.3351615160200936
 31
0.0
  0
ARC
  5
12CFF
  8
0
 10
1497.75311478398703
 20
151.3582748370517947
 30
0.0
 40
0.0055787426392899
 50
93.4961270489160086
 51
121.5976556298529943
  0
ARC
  5
12D00
  8
0
 10
1497.7515868772959493
 20
151.3563345938729867
 30
0.0
 40
0.0059103563612294
 50
147.7349297465285929
 51
175.8798369656717
  0
ARC
  5
12D01
  8
0
 10
1497.7548954722410599
 20
151.3544824917078984
 30
0.0
 40
0.0096988483704069
 50
135.3888288952311996
 51
148.9173130072495042
  0
ARC
  5
12D02
  8
0
 10
1497.7449111255989465
 20
151.3540266296809023
 30
0.0
 40
0.0104347276377455
 50
37.0728415358929908
 51
59.5977986304733705
  0
ARC
  5
12D03
  8
0
 10
1497.7482361569329896
 20
151.3561953403379903
 30
0.0
 40
0.0064802207928233
 50
4.9921455345044103
 51
39.4968770736745824
  0
LINE
  5
12D04
  8
0
 10
1497.7479909674939336
 20
151.3612939140201945
 30
0.0
 11
1497.750191795892988
 21
151.3630265220201068
 31
0.0
  0
LINE
  5
12D05
  8
0
 10
1497.750191795892988
 20
151.3630265220201068
 30
0.0
 11
1497.7486723359929783
 21
151.3636796732201049
 31
0.0
  0
LINE
  5
12D06
  8
0
 10
1497.7486723359929783
 20
151.3636796732201049
 30
0.0
 11
1497.7476107019940628
 21
151.3638403378201929
 31
0.0
  0
LINE
  5
12D07
  8
0
 10
1497.7546917958929953
 20
151.3567592438201075
 30
0.0
 11
1497.7546917958929953
 21
151.3495009269200864
 31
0.0
  0
LINE
  5
12D08
  8
0
 10
1497.7456917958929807
 20
151.3567592438201075
 30
0.0
 11
1497.7456917958929807
 21
151.3495009269200864
 31
0.0
  0
ARC
  5
12D09
  8
0
 10
1497.75311478398703
 20
151.3726142479517875
 30
0.0
 40
0.0055787426392899
 50
93.4961270489160086
 51
121.5976556298529943
  0
ARC
  5
12D0A
  8
0
 10
1497.7515868772959493
 20
151.3706740047730079
 30
0.0
 40
0.0059103563612294
 50
147.7349297465285929
 51
175.8798369656717
  0
ARC
  5
12D0B
  8
0
 10
1497.7548954722410599
 20
151.3688219026078912
 30
0.0
 40
0.0096988483704069
 50
135.3888288952311996
 51
148.9173130072495042
  0
ARC
  5
12D0C
  8
0
 10
1497.7449111255989465
 20
151.3683660405808951
 30
0.0
 40
0.0104347276377455
 50
37.0728415358929908
 51
59.5977986304733705
  0
ARC
  5
12D0D
  8
0
 10
1497.7482361569329896
 20
151.3705347512380115
 30
0.0
 40
0.0064802207928233
 50
4.9921455345044103
 51
39.4968770736745824
  0
LINE
  5
12D0E
  8
0
 10
1497.7479909674939336
 20
151.375633324920102
 30
0.0
 11
1497.750191795892988
 21
151.3773659329200996
 31
0.0
  0
LINE
  5
12D0F
  8
0
 10
1497.750191795892988
 20
151.3773659329200996
 30
0.0
 11
1497.7486723359929783
 21
151.3780190841200977
 31
0.0
  0
LINE
  5
12D10
  8
0
 10
1497.7486723359929783
 20
151.3780190841200977
 30
0.0
 11
1497.7476107019940628
 21
151.3781797487201004
 31
0.0
  0
LINE
  5
12D11
  8
0
 10
1497.7546917958929953
 20
151.3710986547201003
 30
0.0
 11
1497.7546917958929953
 21
151.3638403378201929
 31
0.0
  0
LINE
  5
12D12
  8
0
 10
1497.7456917958929807
 20
151.3710986547201003
 30
0.0
 11
1497.7456917958929807
 21
151.3638403378201929
 31
0.0
  0
ARC
  5
12D13
  8
0
 10
1497.75311478398703
 20
151.3295960152518091
 30
0.0
 40
0.0055787426392899
 50
93.4961270489160086
 51
121.5976556298529943
  0
ARC
  5
12D14
  8
0
 10
1497.7515868772959493
 20
151.3276557720730011
 30
0.0
 40
0.0059103563612294
 50
147.7349297465285929
 51
175.8798369656717
  0
ARC
  5
12D15
  8
0
 10
1497.7548954722410599
 20
151.3258036699079128
 30
0.0
 40
0.0096988483704069
 50
135.3888288952311996
 51
148.9173130072495042
  0
ARC
  5
12D16
  8
0
 10
1497.7449111255989465
 20
151.3253478078808882
 30
0.0
 40
0.0104347276377455
 50
37.0728415358929908
 51
59.5977986304733705
  0
ARC
  5
12D17
  8
0
 10
1497.7482361569329896
 20
151.3275165185380047
 30
0.0
 40
0.0064802207928233
 50
4.9921455345044103
 51
39.4968770736745824
  0
LINE
  5
12D18
  8
0
 10
1497.7479909674939336
 20
151.3326150922200952
 30
0.0
 11
1497.750191795892988
 21
151.3343477002200927
 31
0.0
  0
LINE
  5
12D19
  8
0
 10
1497.750191795892988
 20
151.3343477002200927
 30
0.0
 11
1497.7486723359929783
 21
151.3350008514200908
 31
0.0
  0
LINE
  5
12D1A
  8
0
 10
1497.7486723359929783
 20
151.3350008514200908
 30
0.0
 11
1497.7476107019940628
 21
151.3351615160200936
 31
0.0
  0
LINE
  5
12D1B
  8
0
 10
1497.7546917958929953
 20
151.3280804220200935
 30
0.0
 11
1497.7546917958929953
 21
151.3208221051201008
 31
0.0
  0
LINE
  5
12D1C
  8
0
 10
1497.7456917958929807
 20
151.3280804220200935
 30
0.0
 11
1497.7456917958929807
 21
151.3208221051201008
 31
0.0
  0
ARC
  5
12D1D
  8
0
 10
1497.8030956404600147
 20
151.3296378818585026
 30
0.0
 40
0.0055330554184377
 50
93.3440381239188071
 51
121.6559613472737027
  0
ARC
  5
12D1E
  8
0
 10
1497.8015868772959038
 20
151.3276557720730011
 30
0.0
 40
0.0059103563612294
 50
147.7349297465285929
 51
175.8798369656717
  0
ARC
  5
12D1F
  8
0
 10
1497.8048954722401049
 20
151.3258036699079128
 30
0.0
 40
0.0096988483704069
 50
135.3888288952311996
 51
148.9173130072495042
  0
ARC
  5
12D20
  8
0
 10
1497.794911125598901
 20
151.3253478078808882
 30
0.0
 40
0.0104347276377455
 50
37.0728415358929908
 51
59.5977986304733705
  0
ARC
  5
12D21
  8
0
 10
1497.7982361569329441
 20
151.3275165185380047
 30
0.0
 40
0.0064802207928233
 50
4.9921455345044103
 51
39.4968770736745824
  0
LINE
  5
12D22
  8
0
 10
1497.7979909674938881
 20
151.3326150922200952
 30
0.0
 11
1497.8001917958929425
 21
151.3343477002200927
 31
0.0
  0
LINE
  5
12D23
  8
0
 10
1497.8001917958929425
 20
151.3343477002200927
 30
0.0
 11
1497.7986723359929329
 21
151.3350008514200908
 31
0.0
  0
LINE
  5
12D24
  8
0
 10
1497.7986723359929329
 20
151.3350008514200908
 30
0.0
 11
1497.7976107019940173
 21
151.3351615160200936
 31
0.0
  0
LINE
  5
12D25
  8
0
 10
1497.8046917958929498
 20
151.3280804220200935
 30
0.0
 11
1497.8046917958929498
 21
151.3232504011025128
 31
0.0
  0
LINE
  5
12D26
  8
0
 10
1497.7956917958929353
 20
151.3280804220200935
 30
0.0
 11
1497.7956917958929353
 21
151.321879811830911
 31
0.0
  0
ARC
  5
12D27
  8
0
 10
1497.8030956404600147
 20
151.3439772927584954
 30
0.0
 40
0.00553305541844
 50
93.3440381239188071
 51
121.6559613472737027
  0
ARC
  5
12D28
  8
0
 10
1497.8015868772959038
 20
151.3419951829729939
 30
0.0
 40
0.0059103563612294
 50
147.7349297465285929
 51
175.8798369656717
  0
ARC
  5
12D29
  8
0
 10
1497.8048954722401049
 20
151.3401430808079056
 30
0.0
 40
0.0096988483704069
 50
135.3888288952311996
 51
148.9173130072495042
  0
ARC
  5
12D2A
  8
0
 10
1497.794911125598901
 20
151.3396872187809095
 30
0.0
 40
0.0104347276377455
 50
37.0728415358929908
 51
59.5977986304733705
  0
ARC
  5
12D2B
  8
0
 10
1497.7982361569329441
 20
151.3418559294379975
 30
0.0
 40
0.0064802207928233
 50
4.9921455345044103
 51
39.4968770736745824
  0
LINE
  5
12D2C
  8
0
 10
1497.7979909674938881
 20
151.346954503120088
 30
0.0
 11
1497.8001917958929425
 21
151.348687111120114
 31
0.0
  0
LINE
  5
12D2D
  8
0
 10
1497.8001917958929425
 20
151.348687111120114
 30
0.0
 11
1497.7986723359929329
 21
151.3493402623201121
 31
0.0
  0
LINE
  5
12D2E
  8
0
 10
1497.7986723359929329
 20
151.3493402623201121
 30
0.0
 11
1497.7976107019940173
 21
151.3495009269200864
 31
0.0
  0
LINE
  5
12D2F
  8
0
 10
1497.8046917958929498
 20
151.3424198329200863
 30
0.0
 11
1497.8046917958929498
 21
151.3351615160200936
 31
0.0
  0
LINE
  5
12D30
  8
0
 10
1497.7956917958929353
 20
151.3424198329202
 30
0.0
 11
1497.7956917958929353
 21
151.3351615160200936
 31
0.0
  0
ARC
  5
12D31
  8
0
 10
1497.8030956404600147
 20
151.3583167036586019
 30
0.0
 40
0.0055330554184358
 50
93.3440381239188071
 51
121.6559613472737027
  0
ARC
  5
12D32
  8
0
 10
1497.8015868772959038
 20
151.3563345938729867
 30
0.0
 40
0.0059103563612294
 50
147.7349297465285929
 51
175.8798369656717
  0
ARC
  5
12D33
  8
0
 10
1497.8048954722401049
 20
151.3544824917078984
 30
0.0
 40
0.0096988483704069
 50
135.3888288952311996
 51
148.9173130072495042
  0
ARC
  5
12D34
  8
0
 10
1497.794911125598901
 20
151.3540266296809023
 30
0.0
 40
0.0104347276377455
 50
37.0728415358929908
 51
59.5977986304733705
  0
ARC
  5
12D35
  8
0
 10
1497.7982361569329441
 20
151.3561953403379903
 30
0.0
 40
0.0064802207928233
 50
4.9921455345044103
 51
39.4968770736745824
  0
LINE
  5
12D36
  8
0
 10
1497.7979909674938881
 20
151.3612939140201945
 30
0.0
 11
1497.8001917958929425
 21
151.3630265220201068
 31
0.0
  0
LINE
  5
12D37
  8
0
 10
1497.8001917958929425
 20
151.3630265220201068
 30
0.0
 11
1497.7986723359929329
 21
151.3636796732201049
 31
0.0
  0
LINE
  5
12D38
  8
0
 10
1497.7986723359929329
 20
151.3636796732201049
 30
0.0
 11
1497.7976107019940173
 21
151.3638403378201929
 31
0.0
  0
LINE
  5
12D39
  8
0
 10
1497.8046917958929498
 20
151.3567592438201075
 30
0.0
 11
1497.8046917958929498
 21
151.3495009269200864
 31
0.0
  0
LINE
  5
12D3A
  8
0
 10
1497.7956917958929353
 20
151.3567592438201075
 30
0.0
 11
1497.7956917958929353
 21
151.3495009269200864
 31
0.0
  0
ARC
  5
12D3B
  8
0
 10
1497.8531147839869391
 20
151.3439354261518019
 30
0.0
 40
0.0055787426392899
 50
93.4961270489160086
 51
121.5976556298529943
  0
ARC
  5
12D3C
  8
0
 10
1497.8515868772960857
 20
151.3419951829729939
 30
0.0
 40
0.0059103563612294
 50
147.7349297465285929
 51
175.8798369656717
  0
ARC
  5
12D3D
  8
0
 10
1497.8548954722400595
 20
151.3401430808079056
 30
0.0
 40
0.0096988483704069
 50
135.3888288952311996
 51
148.9173130072495042
  0
ARC
  5
12D3E
  8
0
 10
1497.8449111255990829
 20
151.3396872187809095
 30
0.0
 40
0.0104347276377455
 50
37.0728415358929908
 51
59.5977986304733705
  0
ARC
  5
12D3F
  8
0
 10
1497.8482361569328987
 20
151.3418559294379975
 30
0.0
 40
0.0064802207928233
 50
4.9921455345044103
 51
39.4968770736745824
  0
LINE
  5
12D40
  8
0
 10
1497.8479909674929331
 20
151.346954503120088
 30
0.0
 11
1497.8501917958940339
 21
151.348687111120114
 31
0.0
  0
LINE
  5
12D41
  8
0
 10
1497.8501917958940339
 20
151.348687111120114
 30
0.0
 11
1497.8486723359940243
 21
151.3493402623201121
 31
0.0
  0
LINE
  5
12D42
  8
0
 10
1497.8486723359940243
 20
151.3493402623201121
 30
0.0
 11
1497.8476107019930623
 21
151.3495009269200864
 31
0.0
  0
LINE
  5
12D43
  8
0
 10
1497.8546917958940412
 20
151.3424198329200863
 30
0.0
 11
1497.8546917958940412
 21
151.3351615160200936
 31
0.0
  0
LINE
  5
12D44
  8
0
 10
1497.8456917958940267
 20
151.3424198329202
 30
0.0
 11
1497.8456917958940267
 21
151.3351615160200936
 31
0.0
  0
ARC
  5
12D45
  8
0
 10
1497.8531147839869391
 20
151.3295960152518091
 30
0.0
 40
0.0055787426392899
 50
93.4961270489160086
 51
121.5976556298529943
  0
ARC
  5
12D46
  8
0
 10
1497.8515868772960857
 20
151.3276557720730011
 30
0.0
 40
0.0059103563612294
 50
147.7349297465285929
 51
148.933652783115889
  0
ARC
  5
12D47
  8
0
 10
1497.8548954722400595
 20
151.3258036699079128
 30
0.0
 40
0.0096988483704069
 50
135.3888288952311996
 51
148.9173130072495042
  0
ARC
  5
12D48
  8
0
 10
1497.8449111255990829
 20
151.3253478078808882
 30
0.0
 40
0.0104347276377455
 50
39.6716632800602085
 51
59.5977986304733705
  0
LINE
  5
12D49
  8
0
 10
1497.8479909674929331
 20
151.3326150922200952
 30
0.0
 11
1497.8501917958940339
 21
151.3343477002200927
 31
0.0
  0
LINE
  5
12D4A
  8
0
 10
1497.8501917958940339
 20
151.3343477002200927
 30
0.0
 11
1497.8486723359940243
 21
151.3350008514200908
 31
0.0
  0
LINE
  5
12D4B
  8
0
 10
1497.8486723359940243
 20
151.3350008514200908
 30
0.0
 11
1497.8476107019930623
 21
151.3351615160200936
 31
0.0
  0
ARC
  5
12D4C
  8
0
 10
1497.7281147839880759
 20
151.3152566043517879
 30
0.0
 40
0.0055787426392899
 50
93.4961270489160086
 51
121.5976556298529943
  0
ARC
  5
12D4D
  8
0
 10
1497.7265868772960857
 20
151.3133163611730083
 30
0.0
 40
0.0059103563612294
 50
147.7349297465285929
 51
162.9448563284616966
  0
ARC
  5
12D4E
  8
0
 10
1497.7298954722400595
 20
151.3114642590078915
 30
0.0
 40
0.0096988483704069
 50
135.3888288952311996
 51
148.9173130072495042
  0
ARC
  5
12D4F
  8
0
 10
1497.7199111255990829
 20
151.3110083969808954
 30
0.0
 40
0.0104347276377455
 50
37.0728415358929908
 51
59.5977986304733705
  0
ARC
  5
12D50
  8
0
 10
1497.7232361569328987
 20
151.3131771076380119
 30
0.0
 40
0.0064802207928233
 50
19.4438488181512099
 51
39.4968770736745824
  0
LINE
  5
12D51
  8
0
 10
1497.7229909674929331
 20
151.3182756813201024
 30
0.0
 11
1497.7251917958928971
 21
151.3200082893200999
 31
0.0
  0
LINE
  5
12D52
  8
0
 10
1497.7251917958928971
 20
151.3200082893200999
 30
0.0
 11
1497.7236723359940243
 21
151.320661440520098
 31
0.0
  0
LINE
  5
12D53
  8
0
 10
1497.7236723359940243
 20
151.320661440520098
 30
0.0
 11
1497.7226107019930623
 21
151.3208221051201008
 31
0.0
  0
ARC
  5
12D54
  8
0
 10
1497.75311478398703
 20
151.3152566043517879
 30
0.0
 40
0.0055787426392899
 50
93.4961270489160086
 51
121.5976556298529943
  0
ARC
  5
12D55
  8
0
 10
1497.7515868772959493
 20
151.3133163611730083
 30
0.0
 40
0.0059103563612294
 50
147.7349297465285929
 51
150.7075462365683904
  0
ARC
  5
12D56
  8
0
 10
1497.7548954722410599
 20
151.3114642590078915
 30
0.0
 40
0.0096988483704069
 50
135.3888288952311996
 51
148.9173130072495042
  0
ARC
  5
12D57
  8
0
 10
1497.7449111255989465
 20
151.3110083969808954
 30
0.0
 40
0.0104347276377455
 50
37.0728415358929908
 51
59.5977986304733705
  0
ARC
  5
12D58
  8
0
 10
1497.7482361569329896
 20
151.3131771076380119
 30
0.0
 40
0.0064802207928233
 50
32.91709567603192
 51
39.4968770736745824
  0
LINE
  5
12D59
  8
0
 10
1497.7479909674939336
 20
151.3182756813201024
 30
0.0
 11
1497.750191795892988
 21
151.3200082893200999
 31
0.0
  0
LINE
  5
12D5A
  8
0
 10
1497.750191795892988
 20
151.3200082893200999
 30
0.0
 11
1497.7486723359929783
 21
151.320661440520098
 31
0.0
  0
LINE
  5
12D5B
  8
0
 10
1497.7486723359929783
 20
151.320661440520098
 30
0.0
 11
1497.7476107019940628
 21
151.3208221051201008
 31
0.0
  0
ARC
  5
12D5C
  8
0
 10
1497.7781147839880305
 20
151.3152566043517879
 30
0.0
 40
0.0055787426392899
 50
93.4961270489160086
 51
121.5976556298529943
  0
ARC
  5
12D5D
  8
0
 10
1497.7699111255990374
 20
151.3110083969808954
 30
0.0
 40
0.0104347276377455
 50
51.8310999881720917
 51
59.5977986304733705
  0
LINE
  5
12D5E
  8
0
 10
1497.773761380436099
 20
151.318882190954497
 30
0.0
 11
1497.7751917958939885
 21
151.3200082893200999
 31
0.0
  0
LINE
  5
12D5F
  8
0
 10
1497.7751917958939885
 20
151.3200082893200999
 30
0.0
 11
1497.7736723359939788
 21
151.320661440520098
 31
0.0
  0
LINE
  5
12D60
  8
0
 10
1497.7736723359939788
 20
151.320661440520098
 30
0.0
 11
1497.7726107019930168
 21
151.3208221051201008
 31
0.0
  0
ARC
  5
12D61
  8
0
 10
1497.8015868772940848
 20
151.3706740047715016
 30
0.0
 40
0.0059103563612294
 50
147.7349297465285929
 51
175.8798369656717
  0
ARC
  5
12D62
  8
0
 10
1497.8048954722380586
 20
151.3688219026064132
 30
0.0
 40
0.0096988483704069
 50
135.0676864538027928
 51
148.9173130072495042
  0
ARC
  5
12D63
  8
0
 10
1497.7982361569308978
 20
151.3705347512365051
 30
0.0
 40
0.0064802207928233
 50
4.9921455345044103
 51
32.3541162889266971
  0
LINE
  5
12D64
  8
0
 10
1497.8046917958920403
 20
151.3710986547185939
 30
0.0
 11
1497.8046917958920403
 21
151.3638403378186013
 31
0.0
  0
LINE
  5
12D65
  8
0
 10
1497.7956917958920258
 20
151.3710986547185939
 30
0.0
 11
1497.7956917958920258
 21
151.3638403378186013
 31
0.0
  0
ARC
  5
12D66
  8
0
 10
1497.7515868772929934
 20
151.3850134156716081
 30
0.0
 40
0.0059103563612294
 50
169.4380038286660124
 51
175.8798369656717
  0
LINE
  5
12D67
  8
0
 10
1497.7546917958909489
 20
151.3848468965150005
 30
0.0
 11
1497.7546917958909489
 21
151.378179748718793
 31
0.0
  0
LINE
  5
12D68
  8
0
 10
1497.7456917958909344
 20
151.3854380656188141
 30
0.0
 11
1497.7456917958909344
 21
151.378179748718793
 31
0.0
  0
ARC
  5
12D69
  8
0
 10
1497.7265868772940394
 20
151.3850134156716081
 30
0.0
 40
0.0059103563612294
 50
147.7349297465285929
 51
175.8798369656717
  0
ARC
  5
12D6A
  8
0
 10
1497.7298954722380131
 20
151.3831613135064913
 30
0.0
 40
0.0096988483704069
 50
148.4654776328929984
 51
148.9173130072495042
  0
ARC
  5
12D6B
  8
0
 10
1497.7232361569310797
 20
151.3848741621366969
 30
0.0
 40
0.0064802207928233
 50
4.9921455345044103
 51
26.2854215075276407
  0
LINE
  5
12D6C
  8
0
 10
1497.7296917958910853
 20
151.3854380656188141
 30
0.0
 11
1497.7296917958910853
 21
151.378179748718793
 31
0.0
  0
LINE
  5
12D6D
  8
0
 10
1497.7206917958910708
 20
151.3854380656188141
 30
0.0
 11
1497.7206917958910708
 21
151.378179748718793
 31
0.0
  0
LINE
  5
12D6E
  8
0
 10
1497.7777728898909118
 20
151.3208221051187934
 30
0.0
 11
1497.788300435373003
 21
151.3208154284257887
 31
0.0
  0
LINE
  5
12D6F
  8
0
 10
1497.772609037391021
 20
151.320824862818796
 30
0.0
 11
1497.7527728898910482
 21
151.3208221051187934
 31
0.0
  0
LINE
  5
12D70
  8
0
 10
1497.7476090373909301
 20
151.320824862818796
 30
0.0
 11
1497.72777458629389
 21
151.3208249645201136
 31
0.0
  0
LINE
  5
12D71
  8
0
 10
1497.7226090373910665
 20
151.320824862818796
 30
0.0
 11
1497.7027728898910937
 21
151.3208221051187934
 31
0.0
  0
LINE
  5
12D72
  8
0
 10
1497.8046917958920403
 20
151.3691797487188069
 30
0.0
 11
1497.8181079170660723
 21
151.3691797487188069
 31
0.0
  0
LINE
  5
12D73
  8
0
 10
1497.8206917958909798
 20
151.3638403378188002
 30
0.0
 11
1497.8206917958909798
 21
151.3682239231067967
 31
0.0
  0
LINE
  5
12D74
  8
0
 10
1497.8047843706499407
 20
151.3662921375309907
 30
0.0
 11
1497.8122131106140387
 21
151.3638811797167989
 31
0.0
  0
LINE
  5
12D75
  8
0
 10
1497.8456917958910708
 20
151.3495036945394929
 30
0.0
 11
1497.8456917958910708
 21
151.3572964161577943
 31
0.0
  0
LINE
  5
12D76
  8
0
 10
1497.8527728898909572
 20
151.3495009269188074
 30
0.0
 11
1497.8597914820579717
 21
151.3495009269188074
 31
0.0
  0
LINE
  5
12D77
  8
0
 10
1497.8546917958910853
 20
151.3495009269188074
 30
0.0
 11
1497.8546917958910853
 21
151.3524721062863989
 31
0.0
  0
LINE
  5
12D78
  8
0
 10
1497.85277458629389
 20
151.3351643754201064
 30
0.0
 11
1497.8676671757459644
 21
151.3351618357922064
 31
0.0
  0
LINE
  5
12D79
  8
0
 10
1497.8706917958909344
 20
151.335837590283603
 30
0.0
 11
1497.8706917958909344
 21
151.3423932475299978
 31
0.0
  0
LINE
  5
12D7A
  8
0
 10
1497.8706917958909344
 20
151.3405009269187929
 30
0.0
 11
1497.8546917958940412
 21
151.3405009269187929
 31
0.0
  0
LINE
  5
12D7B
  8
0
 10
1497.8624357081530434
 20
151.3405009269187929
 30
0.0
 11
1497.8697903165889329
 21
151.3356351762720919
 31
0.0
  0
LINE
  5
12D7C
  8
0
 10
1497.8353495787910106
 20
151.3548403378185867
 30
0.0
 11
1497.8456917958910708
 21
151.3499244775948966
 31
0.0
  0
LINE
  5
12D7D
  8
0
 10
1497.7456917958909344
 20
151.378734693224402
 30
0.0
 11
1497.7296917958910853
 21
151.3803289337919864
 31
0.0
  0
LINE
  5
12D7E
  8
0
 10
1497.7206984280380766
 20
151.3809128650987077
 30
0.0
 11
1497.7046917958909944
 21
151.3814413229895024
 31
0.0
  0
LINE
  5
12D7F
  8
0
 10
1497.7046917958909944
 20
151.3835191596187997
 30
0.0
 11
1497.7206917958910708
 21
151.3835191596187997
 31
0.0
  0
LINE
  5
12D80
  8
0
 10
1497.7296917958910853
 20
151.3835191596187997
 30
0.0
 11
1497.7456917958909344
 21
151.3835191596187997
 31
0.0
  0
LINE
  5
12D81
  8
0
 10
1497.7546917958909489
 20
151.3835191596187997
 30
0.0
 11
1497.7628286016499715
 21
151.3835191596187997
 31
0.0
  0
LINE
  5
12D82
  8
0
 10
1497.7706917958910253
 20
151.378179748718793
 30
0.0
 11
1497.7706917958910253
 21
151.3820650979187974
 31
0.0
  0
LINE
  5
12D83
  8
0
 10
1497.7796917958910399
 20
151.378179748718793
 30
0.0
 11
1497.7796917958910399
 21
151.3801920255392019
 31
0.0
  0
LINE
  5
12D84
  8
0
 10
1497.7456917958909344
 20
151.3353196260472942
 30
0.0
 11
1497.7296917958919948
 21
151.336913198735914
 31
0.0
  0
LINE
  5
12D85
  8
0
 10
1497.7206917958910708
 20
151.3374981490790105
 30
0.0
 11
1497.7048171885269312
 21
151.3380218655466081
 31
0.0
  0
ARC
  5
12D86
  8
0
 10
1497.697268807798082
 20
151.3582748370500042
 30
0.0
 40
0.0055787426392899
 50
58.4023443701470271
 51
86.5038729510840056
  0
ARC
  5
12D87
  8
0
 10
1497.6987967144889353
 20
151.3563345938711961
 30
0.0
 40
0.0059103563612294
 50
4.1201630343282494
 51
32.2650702534713716
  0
ARC
  5
12D88
  8
0
 10
1497.6954881195449616
 20
151.3544824917061078
 30
0.0
 40
0.0096988483704069
 50
31.082686992750439
 51
44.6111711047687791
  0
ARC
  5
12D89
  8
0
 10
1497.705472466187075
 20
151.3540266296791117
 30
0.0
 40
0.0104347276377455
 50
120.402201369526594
 51
142.9271584641070092
  0
ARC
  5
12D8A
  8
0
 10
1497.702147434851895
 20
151.3561953403363134
 30
0.0
 40
0.0064802207928233
 50
140.5031229263254033
 51
175.0078544654955977
  0
LINE
  5
12D8B
  8
0
 10
1497.7023926242920879
 20
151.3612939140184039
 30
0.0
 11
1497.7001917958918966
 21
151.3630265220182878
 31
0.0
  0
LINE
  5
12D8C
  8
0
 10
1497.7001917958918966
 20
151.3630265220182878
 30
0.0
 11
1497.7017112557919063
 21
151.3636796732183996
 31
0.0
  0
LINE
  5
12D8D
  8
0
 10
1497.7017112557919063
 20
151.3636796732183996
 30
0.0
 11
1497.7027728897919587
 21
151.3638403378184023
 31
0.0
  0
LINE
  5
12D8E
  8
0
 10
1497.6956917958918893
 20
151.3567592438182885
 30
0.0
 11
1497.6956917958918893
 21
151.3495009269184095
 31
0.0
  0
LINE
  5
12D8F
  8
0
 10
1497.7046917958919039
 20
151.3567592438182885
 30
0.0
 11
1497.7046917958919039
 21
151.3495009269184095
 31
0.0
  0
ARC
  5
12D90
  8
0
 10
1497.697268807798082
 20
151.372614247949997
 30
0.0
 40
0.0055787426392899
 50
58.4023443701470271
 51
86.5038729510840056
  0
ARC
  5
12D91
  8
0
 10
1497.6987967144889353
 20
151.3706740047711889
 30
0.0
 40
0.0059103563612294
 50
4.1201630343282494
 51
32.2650702534713716
  0
ARC
  5
12D92
  8
0
 10
1497.6954881195449616
 20
151.3688219026061006
 30
0.0
 40
0.0096988483704069
 50
31.082686992750439
 51
44.6111711047687791
  0
ARC
  5
12D93
  8
0
 10
1497.705472466187075
 20
151.3683660405791045
 30
0.0
 40
0.0104347276377455
 50
120.402201369526594
 51
142.9271584641070092
  0
ARC
  5
12D94
  8
0
 10
1497.702147434851895
 20
151.3705347512361925
 30
0.0
 40
0.0064802207928233
 50
140.5031229263254033
 51
175.0078544654955977
  0
LINE
  5
12D95
  8
0
 10
1497.7023926242920879
 20
151.3756333249183967
 30
0.0
 11
1497.7001917958918966
 21
151.377365932918309
 31
0.0
  0
LINE
  5
12D96
  8
0
 10
1497.7001917958918966
 20
151.377365932918309
 30
0.0
 11
1497.7017112557919063
 21
151.3780190841183924
 31
0.0
  0
LINE
  5
12D97
  8
0
 10
1497.7017112557919063
 20
151.3780190841183924
 30
0.0
 11
1497.7027728897919587
 21
151.3781797487183951
 31
0.0
  0
LINE
  5
12D98
  8
0
 10
1497.6956917958918893
 20
151.3710986547183097
 30
0.0
 11
1497.6956917958918893
 21
151.3638403378184023
 31
0.0
  0
LINE
  5
12D99
  8
0
 10
1497.7046917958919039
 20
151.371098654718395
 30
0.0
 11
1497.7046917958919039
 21
151.3638403378184023
 31
0.0
  0
ARC
  5
12D9A
  8
0
 10
1497.697268807798082
 20
151.3439354261500114
 30
0.0
 40
0.0055787426392899
 50
58.4023443701470271
 51
86.5038729510840056
  0
ARC
  5
12D9B
  8
0
 10
1497.6987967144889353
 20
151.3419951829712033
 30
0.0
 40
0.0059103563612294
 50
4.1201630343282494
 51
32.2650702534713716
  0
ARC
  5
12D9C
  8
0
 10
1497.6954881195449616
 20
151.3401430808060866
 30
0.0
 40
0.0096988483704069
 50
31.082686992750439
 51
44.6111711047687791
  0
ARC
  5
12D9D
  8
0
 10
1497.705472466187075
 20
151.3396872187790905
 30
0.0
 40
0.0104347276377455
 50
120.402201369526594
 51
142.9271584641070092
  0
ARC
  5
12D9E
  8
0
 10
1497.702147434851895
 20
151.3418559294362069
 30
0.0
 40
0.0064802207928233
 50
140.5031229263254033
 51
175.0078544654955977
  0
LINE
  5
12D9F
  8
0
 10
1497.7023926242920879
 20
151.3469545031184111
 30
0.0
 11
1497.7001917958918966
 21
151.348687111118295
 31
0.0
  0
LINE
  5
12DA0
  8
0
 10
1497.7001917958918966
 20
151.348687111118295
 30
0.0
 11
1497.7017112557919063
 21
151.3493402623184068
 31
0.0
  0
LINE
  5
12DA1
  8
0
 10
1497.7017112557919063
 20
151.3493402623184068
 30
0.0
 11
1497.7027728897919587
 21
151.3495009269184095
 31
0.0
  0
LINE
  5
12DA2
  8
0
 10
1497.6956917958918893
 20
151.3424198329184094
 30
0.0
 11
1497.6956917958918893
 21
151.3351615160183883
 31
0.0
  0
LINE
  5
12DA3
  8
0
 10
1497.7046917958919039
 20
151.3424198329184094
 30
0.0
 11
1497.7046917958919039
 21
151.3351615160183883
 31
0.0
  0
ARC
  5
12DA4
  8
0
 10
1497.697268807798082
 20
151.3295960152499902
 30
0.0
 40
0.0055787426392899
 50
58.4023443701470271
 51
86.5038729510840056
  0
ARC
  5
12DA5
  8
0
 10
1497.6987967144889353
 20
151.3276557720712105
 30
0.0
 40
0.0059103563612294
 50
4.1201630343282494
 51
32.2650702534713716
  0
ARC
  5
12DA6
  8
0
 10
1497.6954881195449616
 20
151.3258036699060938
 30
0.0
 40
0.0096988483704069
 50
31.082686992750439
 51
44.6111711047687791
  0
ARC
  5
12DA7
  8
0
 10
1497.705472466187075
 20
151.3253478078790977
 30
0.0
 40
0.0104347276377455
 50
120.402201369526594
 51
142.9271584641070092
  0
ARC
  5
12DA8
  8
0
 10
1497.702147434851895
 20
151.3275165185362141
 30
0.0
 40
0.0064802207928233
 50
140.5031229263254033
 51
175.0078544654955977
  0
LINE
  5
12DA9
  8
0
 10
1497.7023926242920879
 20
151.3326150922183899
 30
0.0
 11
1497.7001917958918966
 21
151.3343477002183022
 31
0.0
  0
LINE
  5
12DAA
  8
0
 10
1497.7001917958918966
 20
151.3343477002183022
 30
0.0
 11
1497.7017112557919063
 21
151.335000851418414
 31
0.0
  0
LINE
  5
12DAB
  8
0
 10
1497.7017112557919063
 20
151.335000851418414
 30
0.0
 11
1497.7027728897919587
 21
151.3351615160183883
 31
0.0
  0
LINE
  5
12DAC
  8
0
 10
1497.6956917958918893
 20
151.3280804220183882
 30
0.0
 11
1497.6956917958918893
 21
151.3208221051183955
 31
0.0
  0
LINE
  5
12DAD
  8
0
 10
1497.7046917958919039
 20
151.3280804220183882
 30
0.0
 11
1497.7046917958919039
 21
151.3208221051183955
 31
0.0
  0
ARC
  5
12DAE
  8
0
 10
1497.6972879513139105
 20
151.315298470930486
 30
0.0
 40
0.0055330554470305
 50
58.3440386911579978
 51
86.6559617964642257
  0
ARC
  5
12DAF
  8
0
 10
1497.6987967144889353
 20
151.3133163611711893
 30
0.0
 40
0.0059103563612294
 50
14.2488467029170405
 51
32.2650702534713716
  0
ARC
  5
12DB0
  8
0
 10
1497.6954881195449616
 20
151.311464259006101
 30
0.0
 40
0.0096988483704069
 50
31.082686992750439
 51
44.6111711047687791
  0
ARC
  5
12DB1
  8
0
 10
1497.705472466187075
 20
151.3110083969791049
 30
0.0
 40
0.0104347276377455
 50
120.402201369526594
 51
142.9271584641070092
  0
ARC
  5
12DB2
  8
0
 10
1497.702147434851895
 20
151.3131771076363066
 30
0.0
 40
0.0064802207928233
 50
140.5031229263254033
 51
165.7606926515132955
  0
LINE
  5
12DB3
  8
0
 10
1497.7023926242920879
 20
151.3182756813183971
 30
0.0
 11
1497.7001917958918966
 21
151.3200082893183094
 31
0.0
  0
LINE
  5
12DB4
  8
0
 10
1497.7001917958918966
 20
151.3200082893183094
 30
0.0
 11
1497.7017112557919063
 21
151.3206614405183927
 31
0.0
  0
LINE
  5
12DB5
  8
0
 10
1497.7017112557919063
 20
151.3206614405183927
 30
0.0
 11
1497.7027728897919587
 21
151.3208221051183955
 31
0.0
  0
ARC
  5
12DB6
  8
0
 10
1497.6987967144889353
 20
151.3850134156716081
 30
0.0
 40
0.0059103563612294
 50
4.1201630343282494
 51
40.1522016862972606
  0
ARC
  5
12DB7
  8
0
 10
1497.702147434851895
 20
151.3848741621366969
 30
0.0
 40
0.0064802207928233
 50
142.4445852741525016
 51
175.0078544654955977
  0
LINE
  5
12DB8
  8
0
 10
1497.6956917958909798
 20
151.3854380656188141
 30
0.0
 11
1497.6956917958909798
 21
151.378179748718793
 31
0.0
  0
LINE
  5
12DB9
  8
0
 10
1497.7046917958909944
 20
151.3854380656188141
 30
0.0
 11
1497.7046917958909944
 21
151.378179748718793
 31
0.0
  0
ENDSEC
  0
EOF
