  0
SECTION
  2
HEADER
  9
$ACADVER
  1
AC1009
  9
$INSBASE
 10
5225.9849353187519228
 20
484.034746116477379
 30
0.0
  9
$EXTMIN
 10
5223.7374845639760679
 20
482.9551718949772976
 30
0.0
  9
$EXTMAX
 10
5225.9966422516790772
 20
485.1143203379772899
 30
0.0
  9
$LIMMIN
 10
0.0
 20
0.0
  9
$LIMMAX
 10
11.6929133858000007
 20
8.2677165353999982
  9
$ORTHOMODE
 70
     0
  9
$REGENMODE
 70
     1
  9
$FILLMODE
 70
     1
  9
$QTEXTMODE
 70
     0
  9
$MIRRTEXT
 70
     0
  9
$DRAGMODE
 70
     2
  9
$LTSCALE
 40
0.6431102362
  9
$OSMODE
 70
  4095
  9
$ATTMODE
 70
     1
  9
$TEXTSIZE
 40
0.2
  9
$TRACEWID
 40
0.05
  9
$TEXTSTYLE
  7
STANDARD
  9
$CLAYER
  8
0
  9
$CELTYPE
  6
BYLAYER
  9
$CECOLOR
 62
   256
  9
$DIMSCALE
 40
1.0
  9
$DIMASZ
 40
0.1875
  9
$DIMEXO
 40
0.0625
  9
$DIMDLI
 40
0.4443307087
  9
$DIMRND
 40
0.0
  9
$DIMDLE
 40
0.0
  9
$DIMEXE
 40
0.125
  9
$DIMTP
 40
0.01
  9
$DIMTM
 40
0.01
  9
$DIMTXT
 40
2.0
  9
$DIMCEN
 40
0.1052362205
  9
$DIMTSZ
 40
0.0
  9
$DIMTOL
 70
     1
  9
$DIMLIM
 70
     0
  9
$DIMTIH
 70
     1
  9
$DIMTOH
 70
     1
  9
$DIMSE1
 70
     0
  9
$DIMSE2
 70
     0
  9
$DIMTAD
 70
     0
  9
$DIMZIN
 70
     0
  9
$DIMBLK
  1

  9
$DIMASO
 70
     1
  9
$DIMSHO
 70
     1
  9
$DIMPOST
  1
\X
  9
$DIMAPOST
  1

  9
$DIMALT
 70
     1
  9
$DIMALTD
 70
     2
  9
$DIMALTF
 40
25.3999999999999986
  9
$DIMLFAC
 40
1.0
  9
$DIMTOFL
 70
     0
  9
$DIMTVP
 40
0.0
  9
$DIMTIX
 70
     0
  9
$DIMSOXD
 70
     0
  9
$DIMSAH
 70
     0
  9
$DIMBLK1
  1

  9
$DIMBLK2
  1

  9
$DIMSTYLE
  2
STANDARD
  9
$DIMCLRD
 70
     0
  9
$DIMCLRE
 70
     0
  9
$DIMCLRT
 70
     0
  9
$DIMTFAC
 40
1.0
  9
$DIMGAP
 40
0.09
  9
$LUNITS
 70
     2
  9
$LUPREC
 70
     4
  9
$SKETCHINC
 40
0.1
  9
$FILLETRAD
 40
0.0
  9
$AUNITS
 70
     0
  9
$AUPREC
 70
     0
  9
$MENU
  1
.
  9
$ELEVATION
 40
0.0
  9
$PELEVATION
 40
0.0
  9
$THICKNESS
 40
0.0
  9
$LIMCHECK
 70
     0
  9
$BLIPMODE
 70
     0
  9
$CHAMFERA
 40
0.0
  9
$CHAMFERB
 40
0.0
  9
$SKPOLY
 70
     0
  9
$TDCREATE
 40
2458060.468368056230247
  9
$TDUPDATE
 40
2460055.4528819439001381
  9
$TDINDWG
 40
0.6978658565
  9
$TDUSRTIMER
 40
0.6978658565
  9
$USRTIMER
 70
     1
  9
$ANGBASE
 50
0.0
  9
$ANGDIR
 70
     0
  9
$PDMODE
 70
     0
  9
$PDSIZE
 40
0.3125
  9
$PLINEWID
 40
0.0
  9
$COORDS
 70
     1
  9
$SPLFRAME
 70
     0
  9
$SPLINETYPE
 70
     6
  9
$SPLINESEGS
 70
     8
  9
$ATTDIA
 70
     1
  9
$ATTREQ
 70
     1
  9
$HANDLING
 70
     1
  9
$HANDSEED
  5
18BA4
  9
$SURFTAB1
 70
     6
  9
$SURFTAB2
 70
     6
  9
$SURFTYPE
 70
     6
  9
$SURFU
 70
     6
  9
$SURFV
 70
     6
  9
$UCSNAME
  2

  9
$UCSORG
 10
0.0
 20
0.0
 30
0.0
  9
$UCSXDIR
 10
1.0
 20
0.0
 30
0.0
  9
$UCSYDIR
 10
0.0
 20
1.0
 30
0.0
  9
$PUCSNAME
  2

  9
$PUCSORG
 10
0.0
 20
0.0
 30
0.0
  9
$PUCSXDIR
 10
1.0
 20
0.0
 30
0.0
  9
$PUCSYDIR
 10
0.0
 20
1.0
 30
0.0
  9
$USERI1
 70
     0
  9
$USERI2
 70
     0
  9
$USERI3
 70
     0
  9
$USERI4
 70
     0
  9
$USERI5
 70
     0
  9
$USERR1
 40
0.0
  9
$USERR2
 40
0.0
  9
$USERR3
 40
0.0
  9
$USERR4
 40
0.0
  9
$USERR5
 40
0.0
  9
$WORLDVIEW
 70
     1
  9
$SHADEDGE
 70
     3
  9
$SHADEDIF
 70
    70
  9
$TILEMODE
 70
     1
  9
$MAXACTVP
 70
    64
  9
$PLIMCHECK
 70
     0
  9
$PEXTMIN
 10
1.0000000000000000E+20
 20
1.0000000000000000E+20
 30
1.0000000000000000E+20
  9
$PEXTMAX
 10
-1.0000000000000000E+20
 20
-1.0000000000000000E+20
 30
-1.0000000000000000E+20
  9
$PLIMMIN
 10
0.0
 20
0.0
  9
$PLIMMAX
 10
12.0
 20
9.0
  9
$UNITMODE
 70
     0
  9
$VISRETAIN
 70
     1
  9
$PLINEGEN
 70
     0
  9
$PSLTSCALE
 70
     1
  0
ENDSEC
  0
SECTION
  2
TABLES
  0
TABLE
  2
VPORT
 70
     1
  0
VPORT
  2
*ACTIVE
 70
     0
 10
0.0
 20
0.0
 11
1.0
 21
1.0
 12
1421.3229960250150725
 22
358.0510032614446914
 13
0.0
 23
0.0
 14
1.0
 24
1.0
 15
0.0
 25
0.0
 16
0.0
 26
0.0
 36
17.1152628219792007
 17
3803.5440673828129547
 27
125.9952621967499056
 37
0.0
 40
2.200596275078154
 41
2.498684210526315
 42
50.0
 43
0.0
 44
0.0
 50
0.0
 51
0.0
 71
     0
 72
   100
 73
     1
 74
     1
 75
     0
 76
     0
 77
     0
 78
     0
  0
ENDTAB
  0
TABLE
  2
LTYPE
 70
     2
  0
LTYPE
  2
CONTINUOUS
 70
     0
  3
Solid line
 72
    65
 73
     0
 40
0.0
  0
LTYPE
  2
PHANTOM2
 70
     0
  3
___ _ _ ___ _ _ ___ _ _ ___ _ _
 72
    65
 73
     6
 40
1.25
 49
0.625
 49
-0.125
 49
0.125
 49
-0.125
 49
0.125
 49
-0.125
  0
ENDTAB
  0
TABLE
  2
LAYER
 70
     2
  0
LAYER
  2
0
 70
     0
 62
   255
  6
CONTINUOUS
  0
LAYER
  2
DEFPOINTS
 70
     0
 62
     7
  6
CONTINUOUS
  0
ENDTAB
  0
TABLE
  2
STYLE
 70
     1
  0
STYLE
  2
STANDARD
 70
     0
 40
0.0
 41
0.8
 50
0.0
 71
     0
 42
0.2
  3
txt
  4

  0
ENDTAB
  0
TABLE
  2
VIEW
 70
     0
  0
ENDTAB
  0
TABLE
  2
UCS
 70
     0
  0
ENDTAB
  0
TABLE
  2
APPID
 70
    10
  0
APPID
  2
ACAD
 70
     0
  0
APPID
  2
ACAD_MLEADERVER
 70
     0
  0
APPID
  2
ACAD_EXEMPT_FROM_CAD_STANDARDS
 70
     0
  0
APPID
  2
ACAD_NAV_VCDISPLAY
 70
     0
  0
APPID
  2
ACAECLAYERSTANDARD
 70
     0
  0
APPID
  2
ACCMTRANSPARENCY
 70
     0
  0
APPID
  2
ACAD_DSTYLE_DIMJAG
 70
     0
  0
APPID
  2
ACAD_DSTYLE_DIMTALN
 70
     0
  0
APPID
  2
ACDBATTR
 70
     0
  0
APPID
  2
ACADANNOTATIVE
 70
     0
  0
ENDTAB
  0
TABLE
  2
DIMSTYLE
 70
     2
  0
DIMSTYLE
  2
STANDARD
 70
     0
  3

  4

  5

  6

  7

 40
1.0
 41
0.1875
 42
0.0625
 43
0.38
 44
0.125
 45
0.0
 46
0.0
 47
0.01
 48
0.01
140
0.15625
141
0.09
142
0.0
143
25.3999999999999986
144
1.0
145
0.0
146
1.0
147
0.09
 71
     1
 72
     0
 73
     1
 74
     1
 75
     0
 76
     0
 77
     0
 78
     4
170
     0
171
     2
172
     0
173
     0
174
     0
175
     0
176
     0
177
     0
178
     0
  0
DIMSTYLE
  2
ANNOTATIVE
 70
     0
  3

  4

  5

  6

  7

 40
0.0
 41
0.18
 42
0.0625
 43
0.38
 44
0.18
 45
0.0
 46
0.0
 47
0.0
 48
0.0
140
0.18
141
0.09
142
0.0
143
25.3999999999999986
144
1.0
145
0.0
146
1.0
147
0.09
 71
     0
 72
     0
 73
     1
 74
     1
 75
     0
 76
     0
 77
     0
 78
     0
170
     0
171
     2
172
     0
173
     0
174
     0
175
     0
176
     0
177
     0
178
     0
  0
ENDTAB
  0
ENDSEC
  0
SECTION
  2
BLOCKS
  0
BLOCK
  8
0
  2
$MODEL_SPACE
 70
     0
 10
0.0
 20
0.0
 30
0.0
  3
$MODEL_SPACE
  1

  0
ENDBLK
  5
21
  8
0
  0
BLOCK
 67
     1
  8
0
  2
$PAPER_SPACE
 70
     0
 10
0.0
 20
0.0
 30
0.0
  3
$PAPER_SPACE
  1

  0
ENDBLK
  5
1D
 67
     1
  8
0
  0
BLOCK
  8
0
  2
_FILLED
 70
     0
 10
0.0
 20
0.0
 30
0.0
  3
_FILLED
  1

  0
SOLID
  5
13053
  8
0
  6
BYBLOCK
 62
     0
 10
0.0
 20
0.0
 30
0.0
 11
-1.0
 21
0.1666666667
 31
0.0
 12
-1.0
 22
-0.1666666667
 32
0.0
 13
-1.0
 23
-0.1666666667
 33
0.0
  0
ENDBLK
  5
13054
  8
0
  6
BYBLOCK
 62
     0
  0
ENDSEC
  0
SECTION
  2
ENTITIES
  0
ATTDEF
  5
3930
  8
DEFPOINTS
 10
5225.9859755850102374
 20
484.0381368558067834
 30
0.0
 40
0.001
  1
P29942-00
  3

  2
MODELNUMBER
 70
     0
1001
ACDBATTR
1070
     0
1070
     1
  0
ATTDEF
  5
3931
  8
DEFPOINTS
 10
5225.9859755850102374
 20
484.0364701891401182
 30
0.0
 40
0.001
  1

  3

  2
TRADENAME
 70
     0
1001
ACDBATTR
1070
     0
1070
     1
  0
ATTDEF
  5
3932
  8
DEFPOINTS
 10
5225.9859755850102374
 20
484.0348035224733962
 30
0.0
 40
0.001
  1
WALL BRACKET
  3

  2
PRODUCT
 70
     0
1001
ACDBATTR
1070
     0
1070
     1
  0
LINE
  5
18A1E
  8
0
 10
5225.5609353187519446
 20
484.8253283168772896
 30
0.0
 11
5225.6079353187524248
 21
484.8253283168772896
 31
0.0
  0
LINE
  5
18A1F
  8
0
 10
5225.5023304515989366
 20
484.723722494477272
 30
0.0
 11
5225.5409353187524175
 21
484.723722494477272
 31
0.0
  0
LINE
  5
18A20
  8
0
 10
5225.9849353187519228
 20
485.0943203379773081
 30
0.0
 11
5225.9849353187519228
 21
482.9751718949773931
 31
0.0
  0
LINE
  5
18A21
  8
0
 10
5225.7936194341518785
 20
485.0214920278086765
 30
0.0
 11
5225.7936194341518785
 21
483.048000205145911
 31
0.0
  0
LINE
  5
18A22
  8
0
 10
5225.8112959429518014
 20
485.037270384702083
 30
0.0
 11
5225.8112959429518014
 21
483.0322218482526182
 31
0.0
  0
LINE
  5
18A23
  8
0
 10
5225.5409353187524175
 20
484.8053283168773078
 30
0.0
 11
5225.5409353187524175
 21
483.2641639160772797
 31
0.0
  0
LINE
  5
18A24
  8
0
 10
5225.962731958794393
 20
485.1141985975814919
 30
0.0
 11
5225.9179347568524463
 21
485.1092331547773142
 31
0.0
  0
ARC
  5
18A25
  8
0
 10
5225.9746352682896031
 20
484.5976928226837117
 30
0.0
 40
0.5146731577961025
 50
96.3250000071131751
 51
100.944325074438396
  0
ARC
  5
18A26
  8
0
 10
5225.8932961606524259
 20
485.0183280576355855
 30
0.0
 40
0.0862457411728716
 50
100.944325074438396
 51
134.2971614570674888
  0
ARC
  5
18A27
  8
0
 10
5225.8920132645698686
 20
485.0231349029857029
 30
0.0
 40
0.0819457006355453
 50
136.0026027903527961
 51
170.0669016931321949
  0
ARC
  5
18A28
  8
0
 10
5225.7917274224519133
 20
485.0414023339773166
 30
0.0
 40
0.0199999999999999
 50
275.4283313963870228
 51
348.0769696323969242
  0
ARC
  5
18A29
  8
0
 10
5225.8020681651323684
 20
484.9312214133381076
 30
0.0
 40
0.0906651250044895
 50
95.3469288580665193
 51
136.180468738501304
  0
ARC
  5
18A2A
  8
0
 10
5226.1019475938810501
 20
484.7151598670999988
 30
0.0
 40
0.4595559489703936
 50
142.6448848470080009
 51
160.5798731493266018
  0
ARC
  5
18A2B
  8
0
 10
5225.607080170529116
 20
484.8909345638351738
 30
0.0
 40
0.0656118199593184
 50
270.7467826873962053
 51
339.5017980783857752
  0
ARC
  5
18A2C
  8
0
 10
5225.5609353187519446
 20
484.8053283168773078
 30
0.0
 40
0.02
 50
90.0
 51
180.0
  0
ARC
  5
18A2D
  8
0
 10
5225.9649353187533052
 20
485.0943203379773081
 30
0.0
 40
0.02
 50
0.0000000000032569
 51
96.3250000071128056
  0
LINE
  5
18A2E
  8
0
 10
5225.6079353187524248
 20
484.8253283168772896
 30
0.0
 11
5225.6079353187524248
 21
483.2441639160772979
 31
0.0
  0
LINE
  5
18A2F
  8
0
 10
5225.5609353187519446
 20
483.2441639160772979
 30
0.0
 11
5225.6079353187524248
 21
483.2441639160772979
 31
0.0
  0
LINE
  5
18A30
  8
0
 10
5225.962731958794393
 20
482.9552936353730956
 30
0.0
 11
5225.9179347568524463
 21
482.960259078177387
 31
0.0
  0
ARC
  5
18A31
  8
0
 10
5225.9746352682896031
 20
483.4717994102709895
 30
0.0
 40
0.5146731577961025
 50
259.0556749255616182
 51
263.6749999928867965
  0
ARC
  5
18A32
  8
0
 10
5225.8932961606524259
 20
483.0511641753191157
 30
0.0
 40
0.0862457411728716
 50
225.7028385429325112
 51
259.0556749255616182
  0
ARC
  5
18A33
  8
0
 10
5225.8920132645698686
 20
483.0463573299689983
 30
0.0
 40
0.0819457006355453
 50
189.9330983068676915
 51
223.9973972096470902
  0
ARC
  5
18A34
  8
0
 10
5225.7917274224519133
 20
483.0280898989773846
 30
0.0
 40
0.0199999999999999
 50
11.92303036760309
 51
84.5716686036129488
  0
ARC
  5
18A35
  8
0
 10
5225.8020681651323684
 20
483.1382708196165936
 30
0.0
 40
0.0906651250044895
 50
223.819531261498696
 51
264.6530711419334807
  0
ARC
  5
18A36
  8
0
 10
5226.1019475938810501
 20
483.3543323658545887
 30
0.0
 40
0.4595559489703936
 50
199.4201268506733982
 51
217.3551151529894128
  0
ARC
  5
18A37
  8
0
 10
5225.607080170529116
 20
483.1785576691195274
 30
0.0
 40
0.0656118199593184
 50
20.4982019216142
 51
89.2532173126037094
  0
ARC
  5
18A38
  8
0
 10
5225.5609353187519446
 20
483.2641639160772797
 30
0.0
 40
0.02
 50
180.0
 51
270.0
  0
ARC
  5
18A39
  8
0
 10
5225.9649353187533052
 20
482.9751718949773931
 30
0.0
 40
0.02
 50
263.6749999928871944
 51
359.9999999999968168
  0
LINE
  5
18A3B
  8
0
 10
5223.7374845639760679
 20
484.4785398478171032
 30
0.0
 11
5223.7374845639760679
 21
483.590952385137598
 31
0.0
  0
LINE
  5
18A3C
  8
0
 10
5223.9767276574921198
 20
484.5335531937939777
 30
0.0
 11
5223.7543455804789119
 21
484.4982919814386264
 31
0.0
  0
ARC
  5
18A3D
  8
0
 10
5224.3186760678836436
 20
485.0449694933003002
 30
0.0
 40
0.5950293996877872
 50
241.1037050299626969
 51
262.3443944735575997
  0
ARC
  5
18A3E
  8
0
 10
5224.2732412491677678
 20
484.9313916950736143
 30
0.0
 40
0.4773485065106967
 50
265.9355240459956917
 51
297.7512332463776943
  0
ARC
  5
18A3F
  8
0
 10
5223.7927898967163856
 20
485.8789176684744007
 30
0.0
 40
1.5396853134122661
 50
297.1554029192303119
 51
308.1879087122551937
  0
ARC
  5
18A40
  8
0
 10
5224.4546253321141194
 20
502.4183580916845813
 30
0.0
 40
17.7479684885673805
 50
270.9746961425685186
 51
271.681737830568693
  0
ARC
  5
18A41
  8
0
 10
5224.7568682337523569
 20
484.6532604913887212
 30
0.0
 40
0.0197
 50
90.9746961425685043
 51
128.1879087122572116
  0
ARC
  5
18A42
  8
0
 10
5224.665373162603828
 20
495.2403704436051157
 30
0.0
 40
10.5668876977644004
 50
271.681737830568693
 51
273.4033227191886226
  0
ARC
  5
18A43
  8
0
 10
5225.1943490098828988
 20
486.3454072982747221
 30
0.0
 40
1.656209563986444
 50
273.4033227191886226
 51
276.7441206295043798
  0
ARC
  5
18A44
  8
0
 10
5225.3004551612239084
 20
485.4481321404679193
 30
0.0
 40
0.7526824619194085
 50
276.7441206295043798
 51
281.2267018131897771
  0
ARC
  5
18A45
  8
0
 10
5225.4163629148297332
 20
484.8641836347761114
 30
0.0
 40
0.157341832829034
 50
281.2267018131897771
 51
292.218652531577618
  0
ARC
  5
18A46
  8
0
 10
5225.5023304515989366
 20
484.6537224944773925
 30
0.0
 40
0.07
 50
90.0
 51
112.2186525315776038
  0
ARC
  5
18A47
  8
0
 10
5223.9900683373552965
 20
484.4496066259023905
 30
0.0
 40
0.085
 50
61.103705029917073
 51
99.0298595397155168
  0
ARC
  5
18A48
  8
0
 10
5223.7574845639755949
 20
484.4785398478171032
 30
0.0
 40
0.02
 50
99.0298595397155168
 51
180.0
  0
ARC
  5
18A49
  8
0
 10
5218.376359704546303
 20
484.0459895015164875
 30
0.0
 40
5.3785462311374603
 50
359.8802280483114941
 51
4.6127895965283541
  0
LINE
  5
18A4A
  8
0
 10
5225.5023304515989366
 20
483.3457697384773724
 30
0.0
 11
5225.5409353187524175
 21
483.3457697384773724
 31
0.0
  0
LINE
  5
18A4B
  8
0
 10
5223.9767276574921198
 20
483.5359390391607235
 30
0.0
 11
5223.7543455804789119
 21
483.5712002515160179
 31
0.0
  0
ARC
  5
18A4C
  8
0
 10
5224.3186760678836436
 20
483.0245227396542873
 30
0.0
 40
0.5950293996877872
 50
97.6556055264424003
 51
118.8962949700373031
  0
ARC
  5
18A4D
  8
0
 10
5224.2732412491677678
 20
483.1381005378809732
 30
0.0
 40
0.4773485065106967
 50
62.2487667536223128
 51
94.0644759540041946
  0
ARC
  5
18A4E
  8
0
 10
5223.7927898967163856
 20
482.1905745644801868
 30
0.0
 40
1.5396853134122661
 50
51.8120912877448632
 51
62.8445970807697378
  0
ARC
  5
18A4F
  8
0
 10
5224.4546253321141194
 20
465.6511341412698926
 30
0.0
 40
17.7479684885673805
 50
88.318262169431236
 51
89.0253038574314814
  0
ARC
  5
18A50
  8
0
 10
5224.7568682337523569
 20
483.4162317415659231
 30
0.0
 40
0.0197
 50
231.8120912877427884
 51
269.0253038574314814
  0
ARC
  5
18A51
  8
0
 10
5224.665373162603828
 20
472.8291217893495855
 30
0.0
 40
10.5668876977644004
 50
86.5966772808114058
 51
88.318262169431236
  0
ARC
  5
18A52
  8
0
 10
5225.1943490098828988
 20
481.7240849346799223
 30
0.0
 40
1.656209563986444
 50
83.2558793704956059
 51
86.5966772808114058
  0
ARC
  5
18A53
  8
0
 10
5225.3004551612239084
 20
482.6213600924867819
 30
0.0
 40
0.7526824619194085
 50
78.7732981868101945
 51
83.2558793704956059
  0
ARC
  5
18A54
  8
0
 10
5225.4163629148297332
 20
483.2053085981785898
 30
0.0
 40
0.157341832829034
 50
67.7813474684223962
 51
78.7732981868101945
  0
ARC
  5
18A55
  8
0
 10
5225.5023304515989366
 20
483.4157697384774224
 30
0.0
 40
0.07
 50
247.7813474684224104
 51
270.0
  0
ARC
  5
18A56
  8
0
 10
5223.9900683373552965
 20
483.6198856070523107
 30
0.0
 40
0.085
 50
260.9701404602844832
 51
298.8962949700829199
  0
ARC
  5
18A57
  8
0
 10
5223.7574845639755949
 20
483.590952385137598
 30
0.0
 40
0.02
 50
180.0
 51
260.9701404602844832
  0
ARC
  5
18A58
  8
0
 10
5218.376359704546303
 20
484.0235027314382137
 30
0.0
 40
5.3785462311374603
 50
355.3872104034716131
 51
0.1197719516884731
  0
LINE
  5
18A59
  8
0
 10
5225.4758604988455772
 20
484.7185248216056266
 30
0.0
 11
5225.4758604988455772
 21
483.3509674113490746
 31
0.0
  0
ENDSEC
  0
EOF
