  0
SECTION
  2
HEADER
  9
$ACADVER
  1
AC1009
  9
$INSBASE
 10
5220.2127577509791081
 20
483.7141982378248031
 30
0.0
  9
$EXTMIN
 10
5219.1331835294786288
 20
482.6346240163247785
 30
0.0
  9
$EXTMAX
 10
5221.2923319724777684
 20
484.7937724593248845
 30
0.0
  9
$LIMMIN
 10
0.0
 20
0.0
  9
$LIMMAX
 10
11.6929133858000007
 20
8.2677165353999982
  9
$ORTHOMODE
 70
     0
  9
$REGENMODE
 70
     1
  9
$FILLMODE
 70
     1
  9
$QTEXTMODE
 70
     0
  9
$MIRRTEXT
 70
     0
  9
$DRAGMODE
 70
     2
  9
$LTSCALE
 40
0.6431102362
  9
$OSMODE
 70
  4095
  9
$ATTMODE
 70
     1
  9
$TEXTSIZE
 40
0.2
  9
$TRACEWID
 40
0.05
  9
$TEXTSTYLE
  7
STANDARD
  9
$CLAYER
  8
0
  9
$CELTYPE
  6
BYLAYER
  9
$CECOLOR
 62
   256
  9
$DIMSCALE
 40
1.0
  9
$DIMASZ
 40
0.1875
  9
$DIMEXO
 40
0.0625
  9
$DIMDLI
 40
0.4443307087
  9
$DIMRND
 40
0.0
  9
$DIMDLE
 40
0.0
  9
$DIMEXE
 40
0.125
  9
$DIMTP
 40
0.01
  9
$DIMTM
 40
0.01
  9
$DIMTXT
 40
2.0
  9
$DIMCEN
 40
0.1052362205
  9
$DIMTSZ
 40
0.0
  9
$DIMTOL
 70
     1
  9
$DIMLIM
 70
     0
  9
$DIMTIH
 70
     1
  9
$DIMTOH
 70
     1
  9
$DIMSE1
 70
     0
  9
$DIMSE2
 70
     0
  9
$DIMTAD
 70
     0
  9
$DIMZIN
 70
     0
  9
$DIMBLK
  1

  9
$DIMASO
 70
     1
  9
$DIMSHO
 70
     1
  9
$DIMPOST
  1
\X
  9
$DIMAPOST
  1

  9
$DIMALT
 70
     1
  9
$DIMALTD
 70
     2
  9
$DIMALTF
 40
25.3999999999999986
  9
$DIMLFAC
 40
1.0
  9
$DIMTOFL
 70
     0
  9
$DIMTVP
 40
0.0
  9
$DIMTIX
 70
     0
  9
$DIMSOXD
 70
     0
  9
$DIMSAH
 70
     0
  9
$DIMBLK1
  1

  9
$DIMBLK2
  1

  9
$DIMSTYLE
  2
STANDARD
  9
$DIMCLRD
 70
     0
  9
$DIMCLRE
 70
     0
  9
$DIMCLRT
 70
     0
  9
$DIMTFAC
 40
1.0
  9
$DIMGAP
 40
0.09
  9
$LUNITS
 70
     2
  9
$LUPREC
 70
     4
  9
$SKETCHINC
 40
0.1
  9
$FILLETRAD
 40
0.0
  9
$AUNITS
 70
     0
  9
$AUPREC
 70
     0
  9
$MENU
  1
.
  9
$ELEVATION
 40
0.0
  9
$PELEVATION
 40
0.0
  9
$THICKNESS
 40
0.0
  9
$LIMCHECK
 70
     0
  9
$BLIPMODE
 70
     0
  9
$CHAMFERA
 40
0.0
  9
$CHAMFERB
 40
0.0
  9
$SKPOLY
 70
     0
  9
$TDCREATE
 40
2458060.468368056230247
  9
$TDUPDATE
 40
2460055.4527662037871778
  9
$TDINDWG
 40
0.6978427082999999
  9
$TDUSRTIMER
 40
0.6978427082999999
  9
$USRTIMER
 70
     1
  9
$ANGBASE
 50
0.0
  9
$ANGDIR
 70
     0
  9
$PDMODE
 70
     0
  9
$PDSIZE
 40
0.3125
  9
$PLINEWID
 40
0.0
  9
$COORDS
 70
     1
  9
$SPLFRAME
 70
     0
  9
$SPLINETYPE
 70
     6
  9
$SPLINESEGS
 70
     8
  9
$ATTDIA
 70
     1
  9
$ATTREQ
 70
     1
  9
$HANDLING
 70
     1
  9
$HANDSEED
  5
18AE2
  9
$SURFTAB1
 70
     6
  9
$SURFTAB2
 70
     6
  9
$SURFTYPE
 70
     6
  9
$SURFU
 70
     6
  9
$SURFV
 70
     6
  9
$UCSNAME
  2

  9
$UCSORG
 10
0.0
 20
0.0
 30
0.0
  9
$UCSXDIR
 10
1.0
 20
0.0
 30
0.0
  9
$UCSYDIR
 10
0.0
 20
1.0
 30
0.0
  9
$PUCSNAME
  2

  9
$PUCSORG
 10
0.0
 20
0.0
 30
0.0
  9
$PUCSXDIR
 10
1.0
 20
0.0
 30
0.0
  9
$PUCSYDIR
 10
0.0
 20
1.0
 30
0.0
  9
$USERI1
 70
     0
  9
$USERI2
 70
     0
  9
$USERI3
 70
     0
  9
$USERI4
 70
     0
  9
$USERI5
 70
     0
  9
$USERR1
 40
0.0
  9
$USERR2
 40
0.0
  9
$USERR3
 40
0.0
  9
$USERR4
 40
0.0
  9
$USERR5
 40
0.0
  9
$WORLDVIEW
 70
     1
  9
$SHADEDGE
 70
     3
  9
$SHADEDIF
 70
    70
  9
$TILEMODE
 70
     1
  9
$MAXACTVP
 70
    64
  9
$PLIMCHECK
 70
     0
  9
$PEXTMIN
 10
1.0000000000000000E+20
 20
1.0000000000000000E+20
 30
1.0000000000000000E+20
  9
$PEXTMAX
 10
-1.0000000000000000E+20
 20
-1.0000000000000000E+20
 30
-1.0000000000000000E+20
  9
$PLIMMIN
 10
0.0
 20
0.0
  9
$PLIMMAX
 10
12.0
 20
9.0
  9
$UNITMODE
 70
     0
  9
$VISRETAIN
 70
     1
  9
$PLINEGEN
 70
     0
  9
$PSLTSCALE
 70
     1
  0
ENDSEC
  0
SECTION
  2
TABLES
  0
TABLE
  2
VPORT
 70
     1
  0
VPORT
  2
*ACTIVE
 70
     0
 10
0.0
 20
0.0
 11
1.0
 21
1.0
 12
1416.668690368165926
 22
357.7189360410749259
 13
0.0
 23
0.0
 14
1.0
 24
1.0
 15
0.0
 25
0.0
 16
0.0
 26
0.0
 36
17.1152628219792007
 17
3803.5440673828129547
 27
125.9952621967499056
 37
0.0
 40
2.1761719524060932
 41
2.498684210526315
 42
50.0
 43
0.0
 44
0.0
 50
0.0
 51
0.0
 71
     0
 72
   100
 73
     1
 74
     1
 75
     0
 76
     0
 77
     0
 78
     0
  0
ENDTAB
  0
TABLE
  2
LTYPE
 70
     2
  0
LTYPE
  2
CONTINUOUS
 70
     0
  3
Solid line
 72
    65
 73
     0
 40
0.0
  0
LTYPE
  2
PHANTOM2
 70
     0
  3
___ _ _ ___ _ _ ___ _ _ ___ _ _
 72
    65
 73
     6
 40
1.25
 49
0.625
 49
-0.125
 49
0.125
 49
-0.125
 49
0.125
 49
-0.125
  0
ENDTAB
  0
TABLE
  2
LAYER
 70
     2
  0
LAYER
  2
0
 70
     0
 62
   255
  6
CONTINUOUS
  0
LAYER
  2
DEFPOINTS
 70
     0
 62
     7
  6
CONTINUOUS
  0
ENDTAB
  0
TABLE
  2
STYLE
 70
     1
  0
STYLE
  2
STANDARD
 70
     0
 40
0.0
 41
0.8
 50
0.0
 71
     0
 42
0.2
  3
txt
  4

  0
ENDTAB
  0
TABLE
  2
VIEW
 70
     0
  0
ENDTAB
  0
TABLE
  2
UCS
 70
     0
  0
ENDTAB
  0
TABLE
  2
APPID
 70
    10
  0
APPID
  2
ACAD
 70
     0
  0
APPID
  2
ACAD_MLEADERVER
 70
     0
  0
APPID
  2
ACAD_EXEMPT_FROM_CAD_STANDARDS
 70
     0
  0
APPID
  2
ACAD_NAV_VCDISPLAY
 70
     0
  0
APPID
  2
ACAECLAYERSTANDARD
 70
     0
  0
APPID
  2
ACCMTRANSPARENCY
 70
     0
  0
APPID
  2
ACAD_DSTYLE_DIMJAG
 70
     0
  0
APPID
  2
ACAD_DSTYLE_DIMTALN
 70
     0
  0
APPID
  2
ACDBATTR
 70
     0
  0
APPID
  2
ACADANNOTATIVE
 70
     0
  0
ENDTAB
  0
TABLE
  2
DIMSTYLE
 70
     2
  0
DIMSTYLE
  2
STANDARD
 70
     0
  3

  4

  5

  6

  7

 40
1.0
 41
0.1875
 42
0.0625
 43
0.38
 44
0.125
 45
0.0
 46
0.0
 47
0.01
 48
0.01
140
0.15625
141
0.09
142
0.0
143
25.3999999999999986
144
1.0
145
0.0
146
1.0
147
0.09
 71
     1
 72
     0
 73
     1
 74
     1
 75
     0
 76
     0
 77
     0
 78
     4
170
     0
171
     2
172
     0
173
     0
174
     0
175
     0
176
     0
177
     0
178
     0
  0
DIMSTYLE
  2
ANNOTATIVE
 70
     0
  3

  4

  5

  6

  7

 40
0.0
 41
0.18
 42
0.0625
 43
0.38
 44
0.18
 45
0.0
 46
0.0
 47
0.0
 48
0.0
140
0.18
141
0.09
142
0.0
143
25.3999999999999986
144
1.0
145
0.0
146
1.0
147
0.09
 71
     0
 72
     0
 73
     1
 74
     1
 75
     0
 76
     0
 77
     0
 78
     0
170
     0
171
     2
172
     0
173
     0
174
     0
175
     0
176
     0
177
     0
178
     0
  0
ENDTAB
  0
ENDSEC
  0
SECTION
  2
BLOCKS
  0
BLOCK
  8
0
  2
$MODEL_SPACE
 70
     0
 10
0.0
 20
0.0
 30
0.0
  3
$MODEL_SPACE
  1

  0
ENDBLK
  5
21
  8
0
  0
BLOCK
 67
     1
  8
0
  2
$PAPER_SPACE
 70
     0
 10
0.0
 20
0.0
 30
0.0
  3
$PAPER_SPACE
  1

  0
ENDBLK
  5
1D
 67
     1
  8
0
  0
BLOCK
  8
0
  2
_FILLED
 70
     0
 10
0.0
 20
0.0
 30
0.0
  3
_FILLED
  1

  0
SOLID
  5
13053
  8
0
  6
BYBLOCK
 62
     0
 10
0.0
 20
0.0
 30
0.0
 11
-1.0
 21
0.1666666667
 31
0.0
 12
-1.0
 22
-0.1666666667
 32
0.0
 13
-1.0
 23
-0.1666666667
 33
0.0
  0
ENDBLK
  5
13054
  8
0
  6
BYBLOCK
 62
     0
  0
ENDSEC
  0
SECTION
  2
ENTITIES
  0
ATTDEF
  5
3930
  8
DEFPOINTS
 10
5220.2104315385204245
 20
483.7191378355337861
 30
0.0
 40
0.001
  1
P29942-00
  3

  2
MODELNUMBER
 70
     0
1001
ACDBATTR
1070
     0
1070
     1
  0
ATTDEF
  5
3931
  8
DEFPOINTS
 10
5220.2104315385204245
 20
483.7174711688671209
 30
0.0
 40
0.001
  1

  3

  2
TRADENAME
 70
     0
1001
ACDBATTR
1070
     0
1070
     1
  0
ATTDEF
  5
3932
  8
DEFPOINTS
 10
5220.2104315385204245
 20
483.7158045022005126
 30
0.0
 40
0.001
  1
WALL BRACKET
  3

  2
PRODUCT
 70
     0
1001
ACDBATTR
1070
     0
1070
     1
  0
CIRCLE
  5
18973
  8
0
 10
5220.2127577509791081
 20
483.7141982378248031
 30
0.0
 40
0.7905822003999994
  0
ARC
  5
18974
  8
0
 10
5220.2127577509791081
 20
483.7141982378248031
 30
0.0
 40
0.688976378
 50
90.0
 51
270.0
  0
ARC
  5
18975
  8
0
 10
5220.2127628529824506
 20
483.7261517133507027
 30
0.0
 40
0.6262650131005654
 50
90.0004667724973615
 51
126.8100328474040026
  0
ARC
  5
18976
  8
0
 10
5220.1962632029426459
 20
483.748199200945578
 30
0.0
 40
0.5987272179696214
 50
126.8100328474040026
 51
153.0993626869044988
  0
ARC
  5
18977
  8
0
 10
5220.2122533387346266
 20
483.7141935690609102
 30
0.0
 40
0.6287969009847326
 50
150.9948158666175004
 51
198.6607410687875017
  0
ARC
  5
18978
  8
0
 10
5220.2792672459763708
 20
483.7489927443248234
 30
0.0
 40
0.7035168015210932
 50
199.5996249559161981
 51
230.8703053589879914
  0
ARC
  5
18979
  8
0
 10
5220.2243233851932018
 20
483.7370232080160122
 30
0.0
 40
0.660489511666783
 50
233.9137360664084042
 51
268.996659469040992
  0
ARC
  5
1897A
  8
0
 10
5219.7952875525179479
 20
484.157918887169501
 30
0.0
 40
0.0199520589295432
 50
1.470492442587682
 51
132.3563528684512107
  0
ARC
  5
1897B
  8
0
 10
5219.5766045900190875
 20
484.455664211128294
 30
0.0
 40
0.3495903723793259
 50
301.548373388420373
 51
305.9506667558986237
  0
LINE
  5
1897C
  8
0
 10
5219.815233040709245
 20
484.1584308992462979
 30
0.0
 11
5219.8310282159791313
 21
483.2563393569247978
 31
0.0
  0
ARC
  5
1897D
  8
0
 10
5219.8111516040271454
 20
483.2559913273126995
 30
0.0
 40
0.0198796586323135
 50
229.2283348667722009
 51
1.0031181634753199
  0
ARC
  5
1897E
  8
0
 10
5218.7311680700158831
 20
482.003566722254277
 30
0.0
 40
1.6338832702931321
 50
49.2283348667722294
 51
50.7211416511636486
  0
ARC
  5
1897F
  8
0
 10
5219.8274730391030971
 20
484.1880372260891932
 30
0.0
 40
0.0276972554939774
 50
12.9996101214670894
 51
102.636068581888793
  0
LINE
  5
18980
  8
0
 10
5219.8544604581293243
 20
484.1942675692748139
 30
0.0
 11
5219.8772215654789761
 21
483.2177035679247865
 31
0.0
  0
ARC
  5
18981
  8
0
 10
5219.8572312930164117
 20
483.2172376478858951
 30
0.0
 40
0.0199957014039932
 50
256.4167890646040746
 51
1.335170370396167
  0
ARC
  5
18982
  8
0
 10
5220.3577843237180787
 20
484.0099771289591217
 30
0.0
 40
0.9565074036451633
 50
234.6934486128417916
 51
238.1145345089927901
  0
ARC
  5
18985
  8
0
 10
5220.2117489264919641
 20
483.7141982378248031
 30
0.0
 40
0.688976378
 50
270.0
 51
90.0
  0
ARC
  5
18986
  8
0
 10
5220.2117438244877121
 20
483.7261517133507027
 30
0.0
 40
0.6262650131005654
 50
53.189967152595969
 51
89.9995332275026243
  0
ARC
  5
18987
  8
0
 10
5220.2282434745284263
 20
483.748199200945578
 30
0.0
 40
0.5987272179696214
 50
26.9006373130954692
 51
53.189967152595969
  0
ARC
  5
18988
  8
0
 10
5220.2122533387346266
 20
483.7141935690609102
 30
0.0
 40
0.6287969009847326
 50
341.3392589312124983
 51
29.0051841333824996
  0
ARC
  5
18989
  8
0
 10
5220.1452394314947014
 20
483.7489927443248234
 30
0.0
 40
0.7035168015210932
 50
309.1296946410121222
 51
340.4003750440836029
  0
ARC
  5
1898A
  8
0
 10
5220.2001832922769609
 20
483.7370232080160122
 30
0.0
 40
0.660489511666783
 50
271.003340530959008
 51
306.0862639335916242
  0
ARC
  5
1898B
  8
0
 10
5220.6292191249531243
 20
484.157918887169501
 30
0.0
 40
0.0199520589295432
 50
47.6436471315487822
 51
178.5295075574123018
  0
ARC
  5
1898C
  8
0
 10
5220.8479020874510752
 20
484.455664211128294
 30
0.0
 40
0.3495903723793259
 50
234.049333244101291
 51
238.4516266115795986
  0
LINE
  5
1898D
  8
0
 10
5220.6092736367618272
 20
484.1584308992462979
 30
0.0
 11
5220.5934784614910313
 21
483.2563393569247978
 31
0.0
  0
ARC
  5
1898E
  8
0
 10
5220.6133550734448363
 20
483.2559913273126995
 30
0.0
 40
0.0198796586323135
 50
178.9968818365246079
 51
310.7716651332278275
  0
ARC
  5
1898F
  8
0
 10
5221.693338607455189
 20
482.003566722254277
 30
0.0
 40
1.6338832702931321
 50
129.2788583488363088
 51
130.7716651332277991
  0
ARC
  5
18990
  8
0
 10
5220.5970336383679751
 20
484.1880372260891932
 30
0.0
 40
0.0276972554939774
 50
77.3639314181111786
 51
167.0003898785329
  0
LINE
  5
18991
  8
0
 10
5220.5700462193417479
 20
484.1942675692748139
 30
0.0
 11
5220.5472851119911866
 21
483.2177035679247865
 31
0.0
  0
ARC
  5
18992
  8
0
 10
5220.567275384453751
 20
483.2172376478858951
 30
0.0
 40
0.0199957014039932
 50
178.664829629603787
 51
283.5832109353959254
  0
ARC
  5
18993
  8
0
 10
5220.066722353752084
 20
484.0099771289591217
 30
0.0
 40
0.9565074036451633
 50
301.8854654910072099
 51
305.3065513871583221
  0
CIRCLE
  5
18996
  8
0
 10
5220.2127577509791081
 20
483.7141982378248031
 30
0.0
 40
1.0795742214999999
  0
CIRCLE
  5
18997
  8
0
 10
5220.2127577509791081
 20
483.7141982378248031
 30
0.0
 40
0.9867459112999998
  0
ENDSEC
  0
EOF
