  0
SECTION
  2
HEADER
  9
$ACADVER
  1
AC1009
  9
$INSBASE
 10
5228.0803386655352369
 20
487.3672871670099767
 30
0.0
  9
$EXTMIN
 10
5227.0007644440347576
 20
485.1997407719866828
 30
0.0
  9
$EXTMAX
 10
5229.1599128870357163
 20
487.372690376233777
 30
0.0
  9
$LIMMIN
 10
0.0
 20
0.0
  9
$LIMMAX
 10
11.6929133858000007
 20
8.2677165353999982
  9
$ORTHOMODE
 70
     0
  9
$REGENMODE
 70
     1
  9
$FILLMODE
 70
     1
  9
$QTEXTMODE
 70
     0
  9
$MIRRTEXT
 70
     0
  9
$DRAGMODE
 70
     2
  9
$LTSCALE
 40
0.6431102362
  9
$OSMODE
 70
  4095
  9
$ATTMODE
 70
     1
  9
$TEXTSIZE
 40
0.2
  9
$TRACEWID
 40
0.05
  9
$TEXTSTYLE
  7
STANDARD
  9
$CLAYER
  8
0
  9
$CELTYPE
  6
BYLAYER
  9
$CECOLOR
 62
   256
  9
$DIMSCALE
 40
1.0
  9
$DIMASZ
 40
0.1875
  9
$DIMEXO
 40
0.0625
  9
$DIMDLI
 40
0.4443307087
  9
$DIMRND
 40
0.0
  9
$DIMDLE
 40
0.0
  9
$DIMEXE
 40
0.125
  9
$DIMTP
 40
0.01
  9
$DIMTM
 40
0.01
  9
$DIMTXT
 40
2.0
  9
$DIMCEN
 40
0.1052362205
  9
$DIMTSZ
 40
0.0
  9
$DIMTOL
 70
     1
  9
$DIMLIM
 70
     0
  9
$DIMTIH
 70
     1
  9
$DIMTOH
 70
     1
  9
$DIMSE1
 70
     0
  9
$DIMSE2
 70
     0
  9
$DIMTAD
 70
     0
  9
$DIMZIN
 70
     0
  9
$DIMBLK
  1

  9
$DIMASO
 70
     1
  9
$DIMSHO
 70
     1
  9
$DIMPOST
  1
\X
  9
$DIMAPOST
  1

  9
$DIMALT
 70
     1
  9
$DIMALTD
 70
     2
  9
$DIMALTF
 40
25.3999999999999986
  9
$DIMLFAC
 40
1.0
  9
$DIMTOFL
 70
     0
  9
$DIMTVP
 40
0.0
  9
$DIMTIX
 70
     0
  9
$DIMSOXD
 70
     0
  9
$DIMSAH
 70
     0
  9
$DIMBLK1
  1

  9
$DIMBLK2
  1

  9
$DIMSTYLE
  2
STANDARD
  9
$DIMCLRD
 70
     0
  9
$DIMCLRE
 70
     0
  9
$DIMCLRT
 70
     0
  9
$DIMTFAC
 40
1.0
  9
$DIMGAP
 40
0.09
  9
$LUNITS
 70
     2
  9
$LUPREC
 70
     4
  9
$SKETCHINC
 40
0.1
  9
$FILLETRAD
 40
0.0
  9
$AUNITS
 70
     0
  9
$AUPREC
 70
     0
  9
$MENU
  1
.
  9
$ELEVATION
 40
0.0
  9
$PELEVATION
 40
0.0
  9
$THICKNESS
 40
0.0
  9
$LIMCHECK
 70
     0
  9
$BLIPMODE
 70
     0
  9
$CHAMFERA
 40
0.0
  9
$CHAMFERB
 40
0.0
  9
$SKPOLY
 70
     0
  9
$TDCREATE
 40
2458060.468368056230247
  9
$TDUPDATE
 40
2460054.6155902780592442
  9
$TDINDWG
 40
0.6961876157
  9
$TDUSRTIMER
 40
0.6961876157
  9
$USRTIMER
 70
     1
  9
$ANGBASE
 50
0.0
  9
$ANGDIR
 70
     0
  9
$PDMODE
 70
     0
  9
$PDSIZE
 40
0.3125
  9
$PLINEWID
 40
0.0
  9
$COORDS
 70
     1
  9
$SPLFRAME
 70
     0
  9
$SPLINETYPE
 70
     6
  9
$SPLINESEGS
 70
     8
  9
$ATTDIA
 70
     1
  9
$ATTREQ
 70
     1
  9
$HANDLING
 70
     1
  9
$HANDSEED
  5
18B7A
  9
$SURFTAB1
 70
     6
  9
$SURFTAB2
 70
     6
  9
$SURFTYPE
 70
     6
  9
$SURFU
 70
     6
  9
$SURFV
 70
     6
  9
$UCSNAME
  2

  9
$UCSORG
 10
0.0
 20
0.0
 30
0.0
  9
$UCSXDIR
 10
1.0
 20
0.0
 30
0.0
  9
$UCSYDIR
 10
0.0
 20
1.0
 30
0.0
  9
$PUCSNAME
  2

  9
$PUCSORG
 10
0.0
 20
0.0
 30
0.0
  9
$PUCSXDIR
 10
1.0
 20
0.0
 30
0.0
  9
$PUCSYDIR
 10
0.0
 20
1.0
 30
0.0
  9
$USERI1
 70
     0
  9
$USERI2
 70
     0
  9
$USERI3
 70
     0
  9
$USERI4
 70
     0
  9
$USERI5
 70
     0
  9
$USERR1
 40
0.0
  9
$USERR2
 40
0.0
  9
$USERR3
 40
0.0
  9
$USERR4
 40
0.0
  9
$USERR5
 40
0.0
  9
$WORLDVIEW
 70
     1
  9
$SHADEDGE
 70
     3
  9
$SHADEDIF
 70
    70
  9
$TILEMODE
 70
     1
  9
$MAXACTVP
 70
    64
  9
$PLIMCHECK
 70
     0
  9
$PEXTMIN
 10
1.0000000000000000E+20
 20
1.0000000000000000E+20
 30
1.0000000000000000E+20
  9
$PEXTMAX
 10
-1.0000000000000000E+20
 20
-1.0000000000000000E+20
 30
-1.0000000000000000E+20
  9
$PLIMMIN
 10
0.0
 20
0.0
  9
$PLIMMAX
 10
12.0
 20
9.0
  9
$UNITMODE
 70
     0
  9
$VISRETAIN
 70
     1
  9
$PLINEGEN
 70
     0
  9
$PSLTSCALE
 70
     1
  0
ENDSEC
  0
SECTION
  2
TABLES
  0
TABLE
  2
VPORT
 70
     1
  0
VPORT
  2
*ACTIVE
 70
     0
 10
0.0
 20
0.0
 11
1.0
 21
1.0
 12
1424.6213349552340333
 22
360.2909533773603243
 13
0.0
 23
0.0
 14
1.0
 24
1.0
 15
0.0
 25
0.0
 16
0.0
 26
0.0
 36
17.1152628219792007
 17
3803.5440673828129547
 27
125.9952621967499056
 37
0.0
 40
2.190263569559844
 41
2.5251322751322749
 42
50.0
 43
0.0
 44
0.0
 50
0.0
 51
0.0
 71
     0
 72
   100
 73
     1
 74
     1
 75
     0
 76
     0
 77
     0
 78
     0
  0
ENDTAB
  0
TABLE
  2
LTYPE
 70
     2
  0
LTYPE
  2
CONTINUOUS
 70
     0
  3
Solid line
 72
    65
 73
     0
 40
0.0
  0
LTYPE
  2
PHANTOM2
 70
     0
  3
___ _ _ ___ _ _ ___ _ _ ___ _ _
 72
    65
 73
     6
 40
1.25
 49
0.625
 49
-0.125
 49
0.125
 49
-0.125
 49
0.125
 49
-0.125
  0
ENDTAB
  0
TABLE
  2
LAYER
 70
     2
  0
LAYER
  2
0
 70
     0
 62
   255
  6
CONTINUOUS
  0
LAYER
  2
DEFPOINTS
 70
     0
 62
     7
  6
CONTINUOUS
  0
ENDTAB
  0
TABLE
  2
STYLE
 70
     1
  0
STYLE
  2
STANDARD
 70
     0
 40
0.0
 41
0.8
 50
0.0
 71
     0
 42
0.2
  3
txt
  4

  0
ENDTAB
  0
TABLE
  2
VIEW
 70
     0
  0
ENDTAB
  0
TABLE
  2
UCS
 70
     0
  0
ENDTAB
  0
TABLE
  2
APPID
 70
    10
  0
APPID
  2
ACAD
 70
     0
  0
APPID
  2
ACAD_MLEADERVER
 70
     0
  0
APPID
  2
ACAD_EXEMPT_FROM_CAD_STANDARDS
 70
     0
  0
APPID
  2
ACAD_NAV_VCDISPLAY
 70
     0
  0
APPID
  2
ACAECLAYERSTANDARD
 70
     0
  0
APPID
  2
ACCMTRANSPARENCY
 70
     0
  0
APPID
  2
ACAD_DSTYLE_DIMJAG
 70
     0
  0
APPID
  2
ACAD_DSTYLE_DIMTALN
 70
     0
  0
APPID
  2
ACDBATTR
 70
     0
  0
APPID
  2
ACADANNOTATIVE
 70
     0
  0
ENDTAB
  0
TABLE
  2
DIMSTYLE
 70
     2
  0
DIMSTYLE
  2
STANDARD
 70
     0
  3

  4

  5

  6

  7

 40
1.0
 41
0.1875
 42
0.0625
 43
0.38
 44
0.125
 45
0.0
 46
0.0
 47
0.01
 48
0.01
140
0.15625
141
0.09
142
0.0
143
25.3999999999999986
144
1.0
145
0.0
146
1.0
147
0.09
 71
     1
 72
     0
 73
     1
 74
     1
 75
     0
 76
     0
 77
     0
 78
     4
170
     0
171
     2
172
     0
173
     0
174
     0
175
     0
176
     0
177
     0
178
     0
  0
DIMSTYLE
  2
ANNOTATIVE
 70
     0
  3

  4

  5

  6

  7

 40
0.0
 41
0.18
 42
0.0625
 43
0.38
 44
0.18
 45
0.0
 46
0.0
 47
0.0
 48
0.0
140
0.18
141
0.09
142
0.0
143
25.3999999999999986
144
1.0
145
0.0
146
1.0
147
0.09
 71
     0
 72
     0
 73
     1
 74
     1
 75
     0
 76
     0
 77
     0
 78
     0
170
     0
171
     2
172
     0
173
     0
174
     0
175
     0
176
     0
177
     0
178
     0
  0
ENDTAB
  0
ENDSEC
  0
SECTION
  2
BLOCKS
  0
BLOCK
  8
0
  2
$MODEL_SPACE
 70
     0
 10
0.0
 20
0.0
 30
0.0
  3
$MODEL_SPACE
  1

  0
ENDBLK
  5
21
  8
0
  0
BLOCK
 67
     1
  8
0
  2
$PAPER_SPACE
 70
     0
 10
0.0
 20
0.0
 30
0.0
  3
$PAPER_SPACE
  1

  0
ENDBLK
  5
1D
 67
     1
  8
0
  0
BLOCK
  8
0
  2
_FILLED
 70
     0
 10
0.0
 20
0.0
 30
0.0
  3
_FILLED
  1

  0
SOLID
  5
13053
  8
0
  6
BYBLOCK
 62
     0
 10
0.0
 20
0.0
 30
0.0
 11
-1.0
 21
0.1666666667
 31
0.0
 12
-1.0
 22
-0.1666666667
 32
0.0
 13
-1.0
 23
-0.1666666667
 33
0.0
  0
ENDBLK
  5
13054
  8
0
  6
BYBLOCK
 62
     0
  0
ENDSEC
  0
SECTION
  2
ENTITIES
  0
ATTDEF
  5
3930
  8
DEFPOINTS
 10
5228.077766583549419
 20
487.3716903762336869
 30
0.0
 40
0.001
  1
P29941-00
  3

  2
MODELNUMBER
 70
     0
1001
ACDBATTR
1070
     0
1070
     1
  0
ATTDEF
  5
3931
  8
DEFPOINTS
 10
5228.077766583549419
 20
487.3700237095670786
 30
0.0
 40
0.001
  1

  3

  2
TRADENAME
 70
     0
1001
ACDBATTR
1070
     0
1070
     1
  0
ATTDEF
  5
3932
  8
DEFPOINTS
 10
5228.077766583549419
 20
487.3683570429005272
 30
0.0
 40
0.001
  1
SUPPLY ELBOW
  3

  2
PRODUCT
 70
     0
1001
ACDBATTR
1070
     0
1070
     1
  0
LINE
  5
18A02
  8
0
 10
5227.2897564651348148
 20
486.9432871670099985
 30
0.0
 11
5227.2897564651348148
 21
486.9902871670100239
 31
0.0
  0
LINE
  5
18A03
  8
0
 10
5227.3913622875352303
 20
486.8956342851938075
 30
0.0
 11
5227.3913622875352303
 21
486.923287167009903
 31
0.0
  0
LINE
  5
18A04
  8
0
 10
5227.647193845311449
 20
485.6328855922099024
 30
0.0
 11
5227.647193845311449
 21
486.2290120824363271
 31
0.0
  0
LINE
  5
18A05
  8
0
 10
5227.0207644440351942
 20
487.3672871670099767
 30
0.0
 11
5229.1399128870352797
 21
487.3672871670099767
 31
0.0
  0
LINE
  5
18A06
  8
0
 10
5227.09359275420411
 20
487.1759712824099893
 30
0.0
 11
5229.0670845768663639
 21
487.1759712824099893
 31
0.0
  0
LINE
  5
18A07
  8
0
 10
5227.0778143973102488
 20
487.1936477912099122
 30
0.0
 11
5229.0828629337602251
 21
487.1936477912099122
 31
0.0
  0
LINE
  5
18A08
  8
0
 10
5227.3097564651352513
 20
486.923287167009903
 30
0.0
 11
5228.8509208659352225
 21
486.923287167009903
 31
0.0
  0
LINE
  5
18A09
  8
0
 10
5227.4089217509308583
 20
486.8624213591099874
 30
0.0
 11
5228.7517555801396156
 21
486.8624213591099874
 31
0.0
  0
LINE
  5
18A0A
  8
0
 10
5227.000886184430783
 20
487.3450838070517079
 30
0.0
 11
5227.0058516272347333
 21
487.3002866051099886
 31
0.0
  0
ARC
  5
18A0B
  8
0
 10
5227.5173919593289611
 20
487.3569871165478844
 30
0.0
 40
0.5146731577961025
 50
186.3250000070972874
 51
190.9443250744523084
  0
ARC
  5
18A0C
  8
0
 10
5227.0967567243769736
 20
487.2756480089092861
 30
0.0
 40
0.0862457411728716
 50
190.9443250744490967
 51
224.297161457072292
  0
ARC
  5
18A0D
  8
0
 10
5227.0919498790271973
 20
487.2743651128287183
 30
0.0
 40
0.0819457006355453
 50
226.0026027903759882
 51
260.0669016931166198
  0
ARC
  5
18A0E
  8
0
 10
5227.0736824480363794
 20
487.1740792707099104
 30
0.0
 40
0.0199999999999999
 50
5.4283313964050901
 51
78.0769696324182263
  0
ARC
  5
18A0F
  8
0
 10
5227.1838633686747926
 20
487.184420013390195
 30
0.0
 40
0.0906651250044895
 50
185.3469288580429009
 51
226.1804687384714043
  0
ARC
  5
18A10
  8
0
 10
5227.399924914911935
 20
487.4842994421395019
 30
0.0
 40
0.4595559489703936
 50
232.6448848470186022
 51
250.5798731493163132
  0
ARC
  5
18A11
  8
0
 10
5227.2241502181768738
 20
486.9894320187884773
 30
0.0
 40
0.0656118199593184
 50
0.7467826873734101
 51
69.501798078373227
  0
ARC
  5
18A12
  8
0
 10
5227.3097564651352513
 20
486.9432871670099985
 30
0.0
 40
0.02
 50
180.0000000000065086
 51
270.0
  0
ARC
  5
18A13
  8
0
 10
5227.1447413144342136
 20
486.5231819340360175
 30
0.0
 40
0.4299705694020912
 50
23.8487173012053617
 51
52.4198929127563602
  0
ARC
  5
18A14
  8
0
 10
5227.4313622875361034
 20
486.8956342851938075
 30
0.0
 40
0.04
 50
179.9999999999934914
 51
232.4198929128056079
  0
ARC
  5
18A15
  8
0
 10
5226.2946478564135759
 20
486.147382298429477
 30
0.0
 40
1.3594243086972631
 50
12.6858546342143494
 51
23.8487173012053617
  0
ARC
  5
18A16
  8
0
 10
5226.5608760949289717
 20
486.2073103616448861
 30
0.0
 40
1.0865344999049571
 50
1.1444640718528449
 51
12.6858546342143494
  0
ARC
  5
18A17
  8
0
 10
5228.0803386655352369
 20
485.6328855922099024
 30
0.0
 40
0.4331448202232979
 50
180.0
 51
270.0
  0
ARC
  5
18A18
  8
0
 10
5227.0207644440351942
 20
487.3472871670101085
 30
0.0
 40
0.02
 50
90.0
 51
186.3250000070941041
  0
LINE
  5
18A19
  8
0
 10
5227.2897564651348148
 20
486.9902871670100239
 30
0.0
 11
5228.8709208659347496
 21
486.9902871670100239
 31
0.0
  0
LINE
  5
18A1A
  8
0
 10
5228.8709208659347496
 20
486.9432871670099985
 30
0.0
 11
5228.8709208659347496
 21
486.9902871670100239
 31
0.0
  0
LINE
  5
18A1B
  8
0
 10
5228.7693150435352436
 20
486.8956342851938075
 30
0.0
 11
5228.7693150435352436
 21
486.923287167009903
 31
0.0
  0
LINE
  5
18A1C
  8
0
 10
5228.5134834857581154
 20
485.6328855922099024
 30
0.0
 11
5228.5134834857581154
 21
486.2290120824363271
 31
0.0
  0
LINE
  5
18A1D
  8
0
 10
5229.1597911466387814
 20
487.3450838070517079
 30
0.0
 11
5229.1548257038348311
 21
487.3002866051099886
 31
0.0
  0
ARC
  5
18A1E
  8
0
 10
5228.6432853717424223
 20
487.3569871165478844
 30
0.0
 40
0.5146731577961025
 50
349.0556749255476916
 51
353.6749999929027126
  0
ARC
  5
18A1F
  8
0
 10
5229.0639206066944098
 20
487.2756480089092861
 30
0.0
 40
0.0862457411728716
 50
315.7028385429276227
 51
349.0556749255508748
  0
ARC
  5
18A20
  8
0
 10
5229.0687274520441861
 20
487.2743651128287183
 30
0.0
 40
0.0819457006355453
 50
279.9330983068833802
 51
313.9973972096240118
  0
ARC
  5
18A21
  8
0
 10
5229.086994883035004
 20
487.1740792707099104
 30
0.0
 40
0.0199999999999999
 50
101.9230303675818021
 51
174.571668603594901
  0
ARC
  5
18A22
  8
0
 10
5228.9768139623956813
 20
487.184420013390195
 30
0.0
 40
0.0906651250044895
 50
313.8195312615287094
 51
354.6530711419571276
  0
ARC
  5
18A23
  8
0
 10
5228.7607524161576293
 20
487.4842994421395019
 30
0.0
 40
0.4595559489703936
 50
289.4201268506836868
 51
307.3551151529813978
  0
ARC
  5
18A24
  8
0
 10
5228.9365271128917811
 20
486.9894320187884773
 30
0.0
 40
0.0656118199593184
 50
110.4982019216268014
 51
179.2532173126265889
  0
ARC
  5
18A25
  8
0
 10
5228.8509208659352225
 20
486.9432871670099985
 30
0.0
 40
0.02
 50
270.0
 51
359.9999999999935199
  0
ARC
  5
18A26
  8
0
 10
5229.0159360166362603
 20
486.5231819340360175
 30
0.0
 40
0.4299705694020912
 50
127.5801070872436043
 51
156.1512826987946028
  0
ARC
  5
18A27
  8
0
 10
5228.72931504353528
 20
486.8956342851938075
 30
0.0
 40
0.04
 50
307.5801070871943921
 51
0.0000000000065138
  0
ARC
  5
18A28
  8
0
 10
5229.866029474655079
 20
486.147382298429477
 30
0.0
 40
1.3594243086972631
 50
156.1512826987946028
 51
167.3141453657856061
  0
ARC
  5
18A29
  8
0
 10
5229.5998012361424117
 20
486.2073103616448861
 30
0.0
 40
1.0865344999049571
 50
167.3141453657856061
 51
178.8555359281471056
  0
ARC
  5
18A2A
  8
0
 10
5228.0803386655352369
 20
485.6328855922099024
 30
0.0
 40
0.4331448202232979
 50
270.0
 51
0.0
  0
ARC
  5
18A2B
  8
0
 10
5229.1399128870352797
 20
487.3472871670101085
 30
0.0
 40
0.02
 50
353.6749999929058959
 51
90.0
  0
ENDSEC
  0
EOF
