  0
SECTION
  2
HEADER
  9
$ACADVER
  1
AC1009
  9
$INSBASE
 10
4765.1184093930842209
 20
183.4726210548724907
 30
0.0
  9
$EXTMIN
 10
4754.4781340326717327
 20
170.3917278384762994
 30
0.0
  9
$EXTMAX
 10
4771.0489051991389715
 20
190.5163554157593921
 30
0.0
  9
$LIMMIN
 10
0.0
 20
0.0
  9
$LIMMAX
 10
11.6929133858000007
 20
8.2677165353999982
  9
$ORTHOMODE
 70
     0
  9
$REGENMODE
 70
     1
  9
$FILLMODE
 70
     1
  9
$QTEXTMODE
 70
     0
  9
$MIRRTEXT
 70
     0
  9
$DRAGMODE
 70
     2
  9
$LTSCALE
 40
0.6431102362
  9
$OSMODE
 70
  4095
  9
$ATTMODE
 70
     1
  9
$TEXTSIZE
 40
0.2
  9
$TRACEWID
 40
0.05
  9
$TEXTSTYLE
  7
STANDARD
  9
$CLAYER
  8
0
  9
$CELTYPE
  6
BYLAYER
  9
$CECOLOR
 62
   256
  9
$DIMSCALE
 40
1.0
  9
$DIMASZ
 40
0.1875
  9
$DIMEXO
 40
0.0625
  9
$DIMDLI
 40
0.4443307087
  9
$DIMRND
 40
0.0
  9
$DIMDLE
 40
0.0
  9
$DIMEXE
 40
0.125
  9
$DIMTP
 40
0.01
  9
$DIMTM
 40
0.01
  9
$DIMTXT
 40
2.0
  9
$DIMCEN
 40
0.1052362205
  9
$DIMTSZ
 40
0.0
  9
$DIMTOL
 70
     1
  9
$DIMLIM
 70
     0
  9
$DIMTIH
 70
     1
  9
$DIMTOH
 70
     1
  9
$DIMSE1
 70
     0
  9
$DIMSE2
 70
     0
  9
$DIMTAD
 70
     0
  9
$DIMZIN
 70
     0
  9
$DIMBLK
  1

  9
$DIMASO
 70
     1
  9
$DIMSHO
 70
     1
  9
$DIMPOST
  1
\X
  9
$DIMAPOST
  1

  9
$DIMALT
 70
     1
  9
$DIMALTD
 70
     2
  9
$DIMALTF
 40
25.3999999999999986
  9
$DIMLFAC
 40
1.0
  9
$DIMTOFL
 70
     0
  9
$DIMTVP
 40
0.0
  9
$DIMTIX
 70
     0
  9
$DIMSOXD
 70
     0
  9
$DIMSAH
 70
     0
  9
$DIMBLK1
  1

  9
$DIMBLK2
  1

  9
$DIMSTYLE
  2
STANDARD
  9
$DIMCLRD
 70
     0
  9
$DIMCLRE
 70
     0
  9
$DIMCLRT
 70
     0
  9
$DIMTFAC
 40
1.0
  9
$DIMGAP
 40
0.09
  9
$LUNITS
 70
     2
  9
$LUPREC
 70
     4
  9
$SKETCHINC
 40
0.1
  9
$FILLETRAD
 40
0.0
  9
$AUNITS
 70
     0
  9
$AUPREC
 70
     0
  9
$MENU
  1
.
  9
$ELEVATION
 40
0.0
  9
$PELEVATION
 40
0.0
  9
$THICKNESS
 40
0.0
  9
$LIMCHECK
 70
     0
  9
$BLIPMODE
 70
     0
  9
$CHAMFERA
 40
0.0
  9
$CHAMFERB
 40
0.0
  9
$SKPOLY
 70
     0
  9
$TDCREATE
 40
2458060.468368056230247
  9
$TDUPDATE
 40
2459894.6601851847954094
  9
$TDINDWG
 40
0.5564190972
  9
$TDUSRTIMER
 40
0.5564190972
  9
$USRTIMER
 70
     1
  9
$ANGBASE
 50
0.0
  9
$ANGDIR
 70
     0
  9
$PDMODE
 70
     0
  9
$PDSIZE
 40
0.3125
  9
$PLINEWID
 40
0.0
  9
$COORDS
 70
     1
  9
$SPLFRAME
 70
     0
  9
$SPLINETYPE
 70
     6
  9
$SPLINESEGS
 70
     8
  9
$ATTDIA
 70
     1
  9
$ATTREQ
 70
     1
  9
$HANDLING
 70
     1
  9
$HANDSEED
  5
D9FE
  9
$SURFTAB1
 70
     6
  9
$SURFTAB2
 70
     6
  9
$SURFTYPE
 70
     6
  9
$SURFU
 70
     6
  9
$SURFV
 70
     6
  9
$UCSNAME
  2

  9
$UCSORG
 10
0.0
 20
0.0
 30
0.0
  9
$UCSXDIR
 10
1.0
 20
0.0
 30
0.0
  9
$UCSYDIR
 10
0.0
 20
1.0
 30
0.0
  9
$PUCSNAME
  2

  9
$PUCSORG
 10
0.0
 20
0.0
 30
0.0
  9
$PUCSXDIR
 10
1.0
 20
0.0
 30
0.0
  9
$PUCSYDIR
 10
0.0
 20
1.0
 30
0.0
  9
$USERI1
 70
     0
  9
$USERI2
 70
     0
  9
$USERI3
 70
     0
  9
$USERI4
 70
     0
  9
$USERI5
 70
     0
  9
$USERR1
 40
0.0
  9
$USERR2
 40
0.0
  9
$USERR3
 40
0.0
  9
$USERR4
 40
0.0
  9
$USERR5
 40
0.0
  9
$WORLDVIEW
 70
     1
  9
$SHADEDGE
 70
     3
  9
$SHADEDIF
 70
    70
  9
$TILEMODE
 70
     1
  9
$MAXACTVP
 70
    64
  9
$PLIMCHECK
 70
     0
  9
$PEXTMIN
 10
1.0000000000000000E+20
 20
1.0000000000000000E+20
 30
1.0000000000000000E+20
  9
$PEXTMAX
 10
-1.0000000000000000E+20
 20
-1.0000000000000000E+20
 30
-1.0000000000000000E+20
  9
$PLIMMIN
 10
0.0
 20
0.0
  9
$PLIMMAX
 10
12.0
 20
9.0
  9
$UNITMODE
 70
     0
  9
$VISRETAIN
 70
     1
  9
$PLINEGEN
 70
     0
  9
$PSLTSCALE
 70
     1
  0
ENDSEC
  0
SECTION
  2
TABLES
  0
TABLE
  2
VPORT
 70
     1
  0
VPORT
  2
*ACTIVE
 70
     0
 10
0.0
 20
0.0
 11
1.0
 21
1.0
 12
961.5877578413603715
 22
57.472944967700208
 13
0.0
 23
0.0
 14
1.0
 24
1.0
 15
0.0
 25
0.0
 16
0.0
 26
0.0
 36
17.1152628219792007
 17
3803.5440673828129547
 27
125.9952621967499056
 37
0.0
 40
0.0286199640004625
 41
2.498684210526315
 42
50.0
 43
0.0
 44
0.0
 50
0.0
 51
0.0
 71
     0
 72
   100
 73
     1
 74
     1
 75
     0
 76
     0
 77
     0
 78
     0
  0
ENDTAB
  0
TABLE
  2
LTYPE
 70
     3
  0
LTYPE
  2
CONTINUOUS
 70
     0
  3
Solid line
 72
    65
 73
     0
 40
0.0
  0
LTYPE
  2
PHANTOM2
 70
     0
  3
___ _ _ ___ _ _ ___ _ _ ___ _ _
 72
    65
 73
     6
 40
1.25
 49
0.625
 49
-0.125
 49
0.125
 49
-0.125
 49
0.125
 49
-0.125
  0
ENDTAB
  0
TABLE
  2
LAYER
 70
     2
  0
LAYER
  2
0
 70
     0
 62
   255
  6
CONTINUOUS
  0
LAYER
  2
DEFPOINTS
 70
     0
 62
     7
  6
CONTINUOUS
  0
ENDTAB
  0
TABLE
  2
STYLE
 70
     1
  0
STYLE
  2
STANDARD
 70
     0
 40
0.0
 41
0.8
 50
0.0
 71
     0
 42
0.2
  3
txt
  4

  0
ENDTAB
  0
TABLE
  2
VIEW
 70
     0
  0
ENDTAB
  0
TABLE
  2
UCS
 70
     0
  0
ENDTAB
  0
TABLE
  2
APPID
 70
     9
  0
APPID
  2
ACAD
 70
     0
  0
APPID
  2
ACAD_MLEADERVER
 70
     0
  0
APPID
  2
ACAD_EXEMPT_FROM_CAD_STANDARDS
 70
     0
  0
APPID
  2
ACAD_NAV_VCDISPLAY
 70
     0
  0
APPID
  2
ACAECLAYERSTANDARD
 70
     0
  0
APPID
  2
ACCMTRANSPARENCY
 70
     0
  0
APPID
  2
ACAD_DSTYLE_DIMJAG
 70
     0
  0
APPID
  2
ACAD_DSTYLE_DIMTALN
 70
     0
  0
APPID
  2
ACDBATTR
 70
     0
  0
ENDTAB
  0
TABLE
  2
DIMSTYLE
 70
     2
  0
DIMSTYLE
  2
STANDARD
 70
     0
  3

  4

  5

  6

  7

 40
1.0
 41
0.1875
 42
0.0625
 43
0.38
 44
0.125
 45
0.0
 46
0.0
 47
0.01
 48
0.01
140
0.15625
141
0.09
142
0.0
143
25.3999999999999986
144
1.0
145
0.0
146
1.0
147
0.09
 71
     1
 72
     0
 73
     1
 74
     1
 75
     0
 76
     0
 77
     0
 78
     4
170
     0
171
     2
172
     0
173
     0
174
     0
175
     0
176
     0
177
     0
178
     0
  0
ENDTAB
  0
ENDSEC
  0
SECTION
  2
BLOCKS
  0
BLOCK
  8
0
  2
$MODEL_SPACE
 70
     0
 10
0.0
 20
0.0
 30
0.0
  3
$MODEL_SPACE
  1

  0
ENDBLK
  5
21
  8
0
  0
BLOCK
 67
     1
  8
0
  2
$PAPER_SPACE
 70
     0
 10
0.0
 20
0.0
 30
0.0
  3
$PAPER_SPACE
  1

  0
ENDBLK
  5
1D
 67
     1
  8
0
  0
BLOCK
  8
0
  2
_FILLED
 70
     0
 10
0.0
 20
0.0
 30
0.0
  3
_FILLED
  1

  0
SOLID
  5
CFCE
  8
0
  6
BYBLOCK
 62
     0
 10
0.0
 20
0.0
 30
0.0
 11
-1.0
 21
0.1666666667
 31
0.0
 12
-1.0
 22
-0.1666666667
 32
0.0
 13
-1.0
 23
-0.1666666667
 33
0.0
  0
ENDBLK
  5
CFCF
  8
0
  6
BYBLOCK
 62
     0
  0
ENDSEC
  0
SECTION
  2
ENTITIES
  0
ATTDEF
  5
3930
  8
DEFPOINTS
 10
4765.1107504033534497
 20
183.4767795329796911
 30
0.0
 40
0.001
  1
P26675-00
  3

  2
MODELNUMBER
 70
     0
1001
ACDBATTR
1070
     0
1070
     1
  0
ATTDEF
  5
3931
  8
DEFPOINTS
 10
4765.1107504033534497
 20
183.4751128663129975
 30
0.0
 40
0.001
  1
ONE
  3

  2
TRADENAME
 70
     0
1001
ACDBATTR
1070
     0
1070
     1
  0
ATTDEF
  5
3932
  8
DEFPOINTS
 10
4765.1107504033534497
 20
183.473446199646304
 30
0.0
 40
0.001
  1
BATHROOM SINK FAUCET
  3

  2
PRODUCT
 70
     0
1001
ACDBATTR
1070
     0
1070
     1
  0
LINE
  5
D90B
  8
0
 10
4763.9963771131160684
 20
183.4726210548724907
 30
0.0
 11
4766.2404416801164189
 21
183.4726210548724907
 31
0.0
  0
LINE
  5
D90C
  8
0
 10
4767.9766771131153291
 20
183.4726210548724907
 30
0.0
 11
4770.2601416801153391
 21
183.4726210548724907
 31
0.0
  0
LINE
  5
D90D
  8
0
 10
4766.2404416801164189
 20
183.1576604249725051
 30
0.0
 11
4763.9963771131160684
 21
183.1576604249725051
 31
0.0
  0
ARC
  5
D90E
  8
0
 10
4766.2404416801164189
 20
183.1773604249725054
 30
0.0
 40
0.0197
 50
270.0
 51
0.0
  0
ARC
  5
D90F
  8
0
 10
4763.9963771131160684
 20
183.1773604249725054
 30
0.0
 40
0.0197
 50
180.0
 51
270.0
  0
LINE
  5
D910
  8
0
 10
4767.9963771131151589
 20
183.1576604249725051
 30
0.0
 11
4770.2404416800145555
 21
183.1576604249725051
 31
0.0
  0
LINE
  5
D911
  8
0
 10
4768.3152377572159821
 20
181.8899438895724927
 30
0.0
 11
4769.9215810644145677
 21
181.8899438895724927
 31
0.0
  0
ARC
  5
D912
  8
0
 10
4769.9215810644145677
 20
181.9135438895725088
 30
0.0
 40
0.0236
 50
270.0
 51
0.0
  0
ARC
  5
D913
  8
0
 10
4768.3152377572159821
 20
181.9135438895725088
 30
0.0
 40
0.0236
 50
180.0
 51
270.0
  0
LINE
  5
D914
  8
0
 10
4768.3014377572153535
 20
182.26789664547249
 30
0.0
 11
4769.4355269930565555
 21
182.26789664547249
 31
0.0
  0
LINE
  5
D915
  8
0
 10
4769.4657540346752285
 20
182.26789664547249
 30
0.0
 11
4769.9353810644151963
 21
182.26789664547249
 31
0.0
  0
LINE
  5
D916
  8
0
 10
4768.3113377572153695
 20
182.3466368028724958
 30
0.0
 11
4769.9254810359143448
 21
182.3466368028724958
 31
0.0
  0
LINE
  5
D917
  8
0
 10
4768.5381327891182082
 20
182.26789664547249
 30
0.0
 11
4768.5297005308148073
 21
182.3291519858724996
 31
0.0
  0
ARC
  5
D918
  8
0
 10
4768.5101388385446626
 20
182.3269517633868873
 30
0.0
 40
0.0196850395855525
 50
6.4174334004412641
 51
89.9999997937999154
  0
LINE
  5
D919
  8
0
 10
4769.6986860040124157
 20
182.26789664547249
 30
0.0
 11
4769.7071182623158165
 21
182.3291519858724996
 31
0.0
  0
ARC
  5
D91A
  8
0
 10
4769.7266799545859612
 20
182.3269517633868873
 30
0.0
 40
0.0196850395855525
 50
90.0000002061479734
 51
173.582566599558703
  0
ARC
  5
D91B
  8
0
 10
4765.1182366606662981
 20
172.161691324625707
 30
0.0
 40
0.4012501081585462
 50
185.4670072031119901
 51
355.0778505868344155
  0
ARC
  5
D91C
  8
0
 10
4769.4281144817869063
 20
182.6014164496116905
 30
0.0
 40
0.3336021658748225
 50
271.2731948697954749
 51
274.3835932630619823
  0
ARC
  5
D91D
  8
0
 10
4769.4444503751519733
 20
182.3883148390563065
 30
0.0
 40
0.1198753359415059
 50
274.3835932630619823
 51
277.9530500141202083
  0
ARC
  5
D91E
  8
0
 10
4769.4612159270645861
 20
182.2626820352130892
 30
0.0
 40
0.0069127838714798
 50
48.967996079127353
 51
91.4871767287514359
  0
LINE
  5
D920
  8
0
 10
4764.7188117491787125
 20
183.1576604249725051
 30
0.0
 11
4764.7188117491787125
 21
172.1234632017288959
 31
0.0
  0
LINE
  5
D921
  8
0
 10
4765.5180070391779736
 20
183.1576604249725051
 30
0.0
 11
4765.5180070391779736
 21
172.1272632291017999
 31
0.0
  0
LINE
  5
D922
  8
0
 10
4763.9766771131162386
 20
183.4529210548724905
 30
0.0
 11
4763.9766771131162386
 21
183.1773604249725054
 31
0.0
  0
ARC
  5
D923
  8
0
 10
4763.9963771131160684
 20
183.4529210548724905
 30
0.0
 40
0.0197
 50
90.0
 51
180.0
  0
LINE
  5
D924
  8
0
 10
4766.2601416801153391
 20
183.1773604249725054
 30
0.0
 11
4766.2601416801153391
 21
183.4529210548724905
 31
0.0
  0
ARC
  5
D925
  8
0
 10
4766.2404416801164189
 20
183.4529210548724905
 30
0.0
 40
0.0197
 50
0.0
 51
90.0
  0
LINE
  5
D926
  8
0
 10
4768.2916377572146303
 20
183.1576604249725051
 30
0.0
 11
4768.2916377572146303
 21
181.9135438895725088
 31
0.0
  0
ARC
  5
D927
  8
0
 10
4768.3014377572153535
 20
182.2580966454725058
 30
0.0
 40
0.0098
 50
90.0
 51
180.0
  0
LINE
  5
D928
  8
0
 10
4767.9766771131153291
 20
183.4726210548724907
 30
0.0
 11
4767.9766771131153291
 21
183.1773604249725054
 31
0.0
  0
LINE
  5
D929
  8
0
 10
4769.9451810644159195
 20
183.1576604249725051
 30
0.0
 11
4769.9451810644159195
 21
181.9135438895725088
 31
0.0
  0
ARC
  5
D92A
  8
0
 10
4769.9353810644151963
 20
182.2580966454725058
 30
0.0
 40
0.0098
 50
0.0
 51
90.0
  0
LINE
  5
D92B
  8
0
 10
4770.2601416801153391
 20
183.4726210548724907
 30
0.0
 11
4770.2601416801153391
 21
183.1773604249725054
 31
0.0
  0
ARC
  5
D92C
  8
0
 10
4767.9963771131160684
 20
183.1773604249725054
 30
0.0
 40
0.0197
 50
180.0
 51
270.0
  0
ARC
  5
D92D
  8
0
 10
4770.2404416801145999
 20
183.1773604249725054
 30
0.0
 40
0.0197
 50
270.0
 51
359.9999999999902229
  0
ARC
  5
D92E
  8
0
 10
4768.3113377572153695
 20
182.366336802872496
 30
0.0
 40
0.0197
 50
179.9999999999901945
 51
270.0
  0
ARC
  5
D92F
  8
0
 10
4769.9254810644151803
 20
182.366336802872496
 30
0.0
 40
0.0197
 50
270.0
 51
0.0000000000097707
  0
ENDSEC
  0
EOF
