  0
SECTION
  2
HEADER
  9
$ACADVER
  1
AC1009
  9
$INSBASE
 10
2776.7004530280069048
 20
75.7196159931896489
 30
0.0
  9
$EXTMIN
 10
2775.3277922241099986
 20
75.7196159931896489
 30
0.0
  9
$EXTMAX
 10
2778.0731138319110869
 20
82.2121399897396543
 30
0.0
  9
$LIMMIN
 10
0.0
 20
0.0
  9
$LIMMAX
 10
11.6929133858000007
 20
8.2677165353999982
  9
$ORTHOMODE
 70
     1
  9
$REGENMODE
 70
     1
  9
$FILLMODE
 70
     1
  9
$QTEXTMODE
 70
     0
  9
$MIRRTEXT
 70
     0
  9
$DRAGMODE
 70
     2
  9
$LTSCALE
 40
0.6431102362
  9
$OSMODE
 70
  4095
  9
$ATTMODE
 70
     1
  9
$TEXTSIZE
 40
0.2
  9
$TRACEWID
 40
0.05
  9
$TEXTSTYLE
  7
STANDARD
  9
$CLAYER
  8
0
  9
$CELTYPE
  6
BYLAYER
  9
$CECOLOR
 62
   256
  9
$DIMSCALE
 40
1.0
  9
$DIMASZ
 40
0.1875
  9
$DIMEXO
 40
0.0625
  9
$DIMDLI
 40
0.4443307087
  9
$DIMRND
 40
0.0
  9
$DIMDLE
 40
0.0
  9
$DIMEXE
 40
0.125
  9
$DIMTP
 40
0.01
  9
$DIMTM
 40
0.01
  9
$DIMTXT
 40
2.0
  9
$DIMCEN
 40
0.1052362205
  9
$DIMTSZ
 40
0.0
  9
$DIMTOL
 70
     1
  9
$DIMLIM
 70
     0
  9
$DIMTIH
 70
     1
  9
$DIMTOH
 70
     1
  9
$DIMSE1
 70
     0
  9
$DIMSE2
 70
     0
  9
$DIMTAD
 70
     0
  9
$DIMZIN
 70
     0
  9
$DIMBLK
  1

  9
$DIMASO
 70
     1
  9
$DIMSHO
 70
     1
  9
$DIMPOST
  1
\X
  9
$DIMAPOST
  1

  9
$DIMALT
 70
     1
  9
$DIMALTD
 70
     2
  9
$DIMALTF
 40
25.3999999999999986
  9
$DIMLFAC
 40
1.0
  9
$DIMTOFL
 70
     0
  9
$DIMTVP
 40
0.0
  9
$DIMTIX
 70
     0
  9
$DIMSOXD
 70
     0
  9
$DIMSAH
 70
     0
  9
$DIMBLK1
  1

  9
$DIMBLK2
  1

  9
$DIMSTYLE
  2
STANDARD
  9
$DIMCLRD
 70
     0
  9
$DIMCLRE
 70
     0
  9
$DIMCLRT
 70
     0
  9
$DIMTFAC
 40
1.0
  9
$DIMGAP
 40
0.09
  9
$LUNITS
 70
     2
  9
$LUPREC
 70
     4
  9
$SKETCHINC
 40
0.1
  9
$FILLETRAD
 40
0.0
  9
$AUNITS
 70
     0
  9
$AUPREC
 70
     0
  9
$MENU
  1
.
  9
$ELEVATION
 40
0.0
  9
$PELEVATION
 40
0.0
  9
$THICKNESS
 40
0.0
  9
$LIMCHECK
 70
     0
  9
$BLIPMODE
 70
     0
  9
$CHAMFERA
 40
0.0
  9
$CHAMFERB
 40
0.0
  9
$SKPOLY
 70
     0
  9
$TDCREATE
 40
2458060.468368056230247
  9
$TDUPDATE
 40
2459710.5365972220897675
  9
$TDINDWG
 40
0.5330047454
  9
$TDUSRTIMER
 40
0.5330047454
  9
$USRTIMER
 70
     1
  9
$ANGBASE
 50
0.0
  9
$ANGDIR
 70
     0
  9
$PDMODE
 70
     0
  9
$PDSIZE
 40
0.3125
  9
$PLINEWID
 40
0.0
  9
$COORDS
 70
     1
  9
$SPLFRAME
 70
     0
  9
$SPLINETYPE
 70
     6
  9
$SPLINESEGS
 70
     8
  9
$ATTDIA
 70
     1
  9
$ATTREQ
 70
     1
  9
$HANDLING
 70
     1
  9
$HANDSEED
  5
42BE4
  9
$SURFTAB1
 70
     6
  9
$SURFTAB2
 70
     6
  9
$SURFTYPE
 70
     6
  9
$SURFU
 70
     6
  9
$SURFV
 70
     6
  9
$UCSNAME
  2

  9
$UCSORG
 10
0.0
 20
0.0
 30
0.0
  9
$UCSXDIR
 10
1.0
 20
0.0
 30
0.0
  9
$UCSYDIR
 10
0.0
 20
1.0
 30
0.0
  9
$PUCSNAME
  2

  9
$PUCSORG
 10
0.0
 20
0.0
 30
0.0
  9
$PUCSXDIR
 10
1.0
 20
0.0
 30
0.0
  9
$PUCSYDIR
 10
0.0
 20
1.0
 30
0.0
  9
$USERI1
 70
     0
  9
$USERI2
 70
     0
  9
$USERI3
 70
     0
  9
$USERI4
 70
     0
  9
$USERI5
 70
     0
  9
$USERR1
 40
0.0
  9
$USERR2
 40
0.0
  9
$USERR3
 40
0.0
  9
$USERR4
 40
0.0
  9
$USERR5
 40
0.0
  9
$WORLDVIEW
 70
     1
  9
$SHADEDGE
 70
     3
  9
$SHADEDIF
 70
    70
  9
$TILEMODE
 70
     1
  9
$MAXACTVP
 70
    64
  9
$PLIMCHECK
 70
     0
  9
$PEXTMIN
 10
1.0000000000000000E+20
 20
1.0000000000000000E+20
 30
1.0000000000000000E+20
  9
$PEXTMAX
 10
-1.0000000000000000E+20
 20
-1.0000000000000000E+20
 30
-1.0000000000000000E+20
  9
$PLIMMIN
 10
0.0
 20
0.0
  9
$PLIMMAX
 10
12.0
 20
9.0
  9
$UNITMODE
 70
     0
  9
$VISRETAIN
 70
     1
  9
$PLINEGEN
 70
     0
  9
$PSLTSCALE
 70
     1
  0
ENDSEC
  0
SECTION
  2
TABLES
  0
TABLE
  2
VPORT
 70
     1
  0
VPORT
  2
*ACTIVE
 70
     0
 10
0.0
 20
0.0
 11
1.0
 21
1.0
 12
-1026.8436143548019572
 22
-47.0293842052852682
 13
0.0
 23
0.0
 14
1.0
 24
1.0
 15
0.0
 25
0.0
 16
0.0
 26
0.0
 36
17.1152628219792007
 17
3803.5440673828129547
 27
125.9952621967499056
 37
0.0
 40
6.5390098485539454
 41
2.2831541218637992
 42
50.0
 43
0.0
 44
0.0
 50
0.0
 51
0.0
 71
     0
 72
   100
 73
     1
 74
     1
 75
     0
 76
     0
 77
     0
 78
     0
  0
ENDTAB
  0
TABLE
  2
LTYPE
 70
     2
  0
LTYPE
  2
CONTINUOUS
 70
     0
  3
Solid line
 72
    65
 73
     0
 40
0.0
  0
LTYPE
  2
PHANTOM2
 70
     0
  3
___ _ _ ___ _ _ ___ _ _ ___ _ _
 72
    65
 73
     6
 40
1.25
 49
0.625
 49
-0.125
 49
0.125
 49
-0.125
 49
0.125
 49
-0.125
  0
ENDTAB
  0
TABLE
  2
LAYER
 70
     2
  0
LAYER
  2
0
 70
     0
 62
   255
  6
CONTINUOUS
  0
LAYER
  2
DEFPOINTS
 70
     0
 62
     7
  6
CONTINUOUS
  0
ENDTAB
  0
TABLE
  2
STYLE
 70
     1
  0
STYLE
  2
STANDARD
 70
     0
 40
0.0
 41
0.8
 50
0.0
 71
     0
 42
0.2
  3
txt
  4

  0
ENDTAB
  0
TABLE
  2
VIEW
 70
     0
  0
ENDTAB
  0
TABLE
  2
UCS
 70
     0
  0
ENDTAB
  0
TABLE
  2
APPID
 70
     9
  0
APPID
  2
ACAD
 70
     0
  0
APPID
  2
ACAD_MLEADERVER
 70
     0
  0
APPID
  2
ACAD_EXEMPT_FROM_CAD_STANDARDS
 70
     0
  0
APPID
  2
ACAD_NAV_VCDISPLAY
 70
     0
  0
APPID
  2
ACAECLAYERSTANDARD
 70
     0
  0
APPID
  2
ACCMTRANSPARENCY
 70
     0
  0
APPID
  2
ACAD_DSTYLE_DIMJAG
 70
     0
  0
APPID
  2
ACAD_DSTYLE_DIMTALN
 70
     0
  0
APPID
  2
ACDBATTR
 70
     0
  0
ENDTAB
  0
TABLE
  2
DIMSTYLE
 70
     1
  0
DIMSTYLE
  2
STANDARD
 70
     0
  3

  4

  5

  6

  7

 40
1.0
 41
0.1875
 42
0.0625
 43
0.38
 44
0.125
 45
0.0
 46
0.0
 47
0.01
 48
0.01
140
0.15625
141
0.09
142
0.0
143
25.3999999999999986
144
1.0
145
0.0
146
1.0
147
0.09
 71
     1
 72
     0
 73
     1
 74
     1
 75
     0
 76
     0
 77
     0
 78
     4
170
     0
171
     2
172
     0
173
     0
174
     0
175
     0
176
     0
177
     0
178
     0
  0
ENDTAB
  0
ENDSEC
  0
SECTION
  2
BLOCKS
  0
BLOCK
  8
0
  2
$MODEL_SPACE
 70
     0
 10
0.0
 20
0.0
 30
0.0
  3
$MODEL_SPACE
  1

  0
ENDBLK
  5
21
  8
0
  0
BLOCK
 67
     1
  8
0
  2
$PAPER_SPACE
 70
     0
 10
0.0
 20
0.0
 30
0.0
  3
$PAPER_SPACE
  1

  0
ENDBLK
  5
1D
 67
     1
  8
0
  0
BLOCK
  8
0
  2
_FILLED
 70
     0
 10
0.0
 20
0.0
 30
0.0
  3
_FILLED
  1

  0
SOLID
  5
41008
  8
0
  6
BYBLOCK
 62
     0
 10
0.0
 20
0.0
 30
0.0
 11
-1.0
 21
0.1666666667
 31
0.0
 12
-1.0
 22
-0.1666666667
 32
0.0
 13
-1.0
 23
-0.1666666667
 33
0.0
  0
ENDBLK
  5
41009
  8
0
  6
BYBLOCK
 62
     0
  0
ENDSEC
  0
SECTION
  2
ENTITIES
  0
ATTDEF
  5
41CBD
  8
DEFPOINTS
 10
2776.7013819623098243
 20
75.7237744709722165
 30
0.0
 40
0.001
  1
P26625-00
  3

  2
MODELNUMBER
 70
     0
1001
ACDBATTR
1070
     0
1070
     1
  0
ATTDEF
  5
41CBE
  8
DEFPOINTS
 10
2776.7013819623098243
 20
75.7221078043055513
 30
0.0
 40
0.001
  1
PER SE
  3

  2
TRADENAME
 70
     0
1001
ACDBATTR
1070
     0
1070
     1
  0
ATTDEF
  5
41CBF
  8
DEFPOINTS
 10
2776.7013819623098243
 20
75.7204411376388862
 30
0.0
 40
0.001
  1
BATHROOM SINK FAUCET
  3

  2
PRODUCT
 70
     0
1001
ACDBATTR
1070
     0
1070
     1
  0
LINE
  5
422EF
  8
0
 10
2775.4019907176029847
 20
75.7196159931896489
 30
0.0
 11
2777.9989153384108249
 21
75.7196159931896489
 31
0.0
  0
LINE
  5
422F1
  8
0
 10
2776.0773649584898521
 20
76.5386159931896515
 30
0.0
 11
2777.3216538154101727
 21
76.5386159931896515
 31
0.0
  0
LINE
  5
422F4
  8
0
 10
2776.0924322026758091
 20
81.0792411951922247
 30
0.0
 11
2777.3053531728319285
 21
81.0792411951922247
 31
0.0
  0
LINE
  5
422F5
  8
0
 10
2776.0842522406101125
 20
81.0192411951922367
 30
0.0
 11
2777.3166538154100635
 21
81.0192411951922367
 31
0.0
  0
ARC
  5
422F6
  8
0
 10
2776.0842521612298697
 20
80.9992412689149859
 30
0.0
 40
0.0199999262773888
 50
89.9997725895415073
 51
180.0002112009520943
  0
ARC
  5
422F7
  8
0
 10
2776.0955697236390733
 20
81.1092420977571464
 30
0.0
 40
0.0301645187680223
 50
179.1532112638618059
 51
264.0296596995926279
  0
ARC
  5
422F8
  8
0
 10
2773.7812239274289823
 20
81.1888039941156023
 30
0.0
 40
2.285554312554575
 50
358.016269151779909
 51
1.0844612132486049
  0
ARC
  5
422F9
  8
0
 10
2777.7808635187830077
 20
81.2645158890425847
 30
0.0
 40
1.714801815562192
 50
164.2645996789555909
 51
181.084461213248602
  0
ARC
  5
422FA
  8
0
 10
2777.5616427951449623
 20
81.3262822284199558
 30
0.0
 40
1.4870457918163771
 50
146.8679162452231992
 51
164.2645996789555909
  0
ARC
  5
422FB
  8
0
 10
2776.6950335912529226
 20
84.150963833735986
 30
0.0
 40
1.960525468819756
 50
263.1917870941015281
 51
270.1583816451002917
  0
ARC
  5
422FC
  8
0
 10
2775.016511907387212
 20
70.0915995417666124
 30
0.0
 40
12.1986821127333798
 50
83.1917870941015138
 51
83.4566135076228335
  0
ARC
  5
422FD
  8
0
 10
2776.392845950400897
 20
82.1397491707033112
 30
0.0
 40
0.072390819036338
 50
79.0317048143855487
 51
137.4229986611142067
  0
ARC
  5
422FE
  8
0
 10
2776.4086502892641874
 20
82.1306048948048755
 30
0.0
 40
0.0903023196728252
 50
139.9359647426354911
 51
163.4408554062171959
  0
ARC
  5
422FF
  8
0
 10
2777.0373792370028241
 20
81.909960679483774
 30
0.0
 40
0.7565300235012219
 50
160.9936928900308999
 51
162.3725298293070125
  0
ARC
  5
42300
  8
0
 10
2776.8481899682537914
 20
81.9454912120109213
 30
0.0
 40
0.5659496025647107
 50
159.9999015730840881
 51
174.5034114987448106
  0
ARC
  5
42301
  8
0
 10
2776.7003819842511803
 20
86.7986819757706627
 30
0.0
 40
4.8811134396954436
 50
265.7558334813339229
 51
270.0008339301311935
  0
ARC
  5
42302
  8
0
 10
2776.3435460411878921
 20
81.9902501942476363
 30
0.0
 40
0.0594593575549152
 50
170.8537751197301873
 51
265.7558334813339229
  0
ARC
  5
42303
  8
0
 10
2779.0302386813450539
 20
80.7232855022091655
 30
0.0
 40
3.0275980689439641
 50
155.0658541281852933
 51
160.3089709094992941
  0
ARC
  5
42304
  8
0
 10
2778.0086205511847766
 20
81.0888972976164268
 30
0.0
 40
1.9425286753967299
 50
160.3089709094992941
 51
173.0704484594913879
  0
ARC
  5
42305
  8
0
 10
2778.5740790345071218
 20
81.0428700100184329
 30
0.0
 40
2.509510908833346
 50
173.5848674328186121
 51
178.1892065299030037
  0
LINE
  5
42306
  8
0
 10
2776.0642522349521641
 20
80.9992411951922264
 30
0.0
 11
2776.0642522349521641
 21
76.553615993189652
 31
0.0
  0
ARC
  5
42307
  8
0
 10
2776.6579105598339083
 20
80.9754975784200042
 30
0.0
 40
0.5281274268853937
 50
168.6713352919281022
 51
175.2479777507028018
  0
ARC
  5
42308
  8
0
 10
2775.4019907176029847
 20
75.7396159931621469
 30
0.0
 40
0.0199999999725001
 50
205.5029378383121923
 51
270.0000000227722126
  0
ARC
  5
42309
  8
0
 10
2775.3469343619572101
 20
75.7133519932515782
 30
0.0
 40
0.0409999999317573
 50
25.5029378383122314
 51
81.2033743419795258
  0
ARC
  5
4230A
  8
0
 10
2775.3577922240929183
 20
75.7835168478275847
 30
0.0
 40
0.0299999999826927
 50
179.9999998814843138
 51
261.2033743419794973
  0
ARC
  5
4230B
  8
0
 10
2790.474671322226186
 20
74.671137911527623
 30
0.0
 40
15.1876704372661706
 50
175.2726034319007056
 51
175.7997679895468934
  0
ARC
  5
4230C
  8
0
 10
2775.3778320620040176
 20
75.9146855944400158
 30
0.0
 40
0.0400021250387664
 50
92.7174704030879724
 51
168.2516699960426934
  0
ARC
  5
4230D
  8
0
 10
2775.3775392344177817
 20
76.8447419388358242
 30
0.0
 40
0.8901006478711964
 50
269.8967688591683896
 51
275.5801386306544032
  0
ARC
  5
4230E
  8
0
 10
2775.4039878200710518
 20
76.9206034151863633
 30
0.0
 40
0.9636202827453004
 50
273.5759740773721092
 51
290.1875324908215816
  0
ARC
  5
4230F
  8
0
 10
2775.5807395803158215
 20
76.4647129880409295
 30
0.0
 40
0.4748174060983507
 50
289.153519683851016
 51
344.5549167550424841
  0
ARC
  5
42310
  8
0
 10
2775.246235172516208
 20
76.5427626376514922
 30
0.0
 40
0.8181446166666425
 50
345.525068501354383
 51
358.6757650959759758
  0
ARC
  5
42311
  8
0
 10
2776.0794079598490498
 20
76.5235027027542287
 30
0.0
 40
0.0152507508779404
 50
97.6985268753940233
 51
178.6757650959752084
  0
ARC
  5
42312
  8
0
 10
2776.079345598413056
 20
76.5535788827250201
 30
0.0
 40
0.0150934090832903
 50
179.8591255872356953
 51
262.4595858759955149
  0
LINE
  5
42313
  8
0
 10
2775.4176833976421221
 20
75.9560541636203368
 30
0.0
 11
2777.9732349801920464
 21
75.9560541636203368
 31
0.0
  0
ARC
  5
42315
  8
0
 10
2776.6905667198770971
 20
76.4120344091433594
 30
0.0
 40
4.4328916714535618
 50
89.872217901414146
 51
94.4928004063952329
  0
ARC
  5
42316
  8
0
 10
2776.4548015018058322
 20
79.4125358216250419
 30
0.0
 40
1.423141853884657
 50
94.4928004063952329
 51
99.2037281758255602
  0
ARC
  5
42317
  8
0
 10
2776.2468859971318125
 20
80.6957158728847901
 30
0.0
 40
0.1232265100890688
 50
99.2037281758255602
 51
127.201602251514899
  0
ARC
  5
42318
  8
0
 10
2776.2299631643832072
 20
80.7292935418624751
 30
0.0
 40
0.086518970287028
 50
131.7244009060707981
 51
167.2247785895941092
  0
ARC
  5
42319
  8
0
 10
2780.7773765912888848
 20
78.6555684921506213
 30
0.0
 40
5.0826699295938731
 50
155.6843521166927076
 51
158.0167030226378984
  0
ARC
  5
4231A
  8
0
 10
2770.3277834920868372
 20
80.8766743445168856
 30
0.0
 40
5.7632155065075112
 50
354.4777616788041996
 51
355.2088309229436049
  0
ARC
  5
4231B
  8
0
 10
2776.9191422794688151
 20
80.2678753723562863
 30
0.0
 40
0.8577994888561553
 50
159.5233154694747952
 51
171.4567842958228141
  0
ARC
  5
4231C
  8
0
 10
2775.6686099513949557
 20
80.7285075505778735
 30
0.0
 40
0.4748958570533972
 50
340.2402314761066009
 51
348.6593339851156088
  0
ARC
  5
4231D
  8
0
 10
2778.2697417326021423
 20
80.4783750996432445
 30
0.0
 40
2.141253087286684
 50
172.7546888388484092
 51
175.8019741438675112
  0
ARC
  5
4231E
  8
0
 10
2776.6954575023660254
 20
92.0292903061162235
 30
0.0
 40
11.4943842857327692
 50
268.6670175030401992
 51
270.0249010767080904
  0
ARC
  5
4231F
  8
0
 10
2776.4027998145447782
 20
79.4522122066548633
 30
0.0
 40
1.0860982981028491
 50
88.6670175030402135
 51
100.2624462868043054
  0
ARC
  5
42320
  8
0
 10
2776.217735956911838
 20
80.4810281500538451
 30
0.0
 40
0.0407881544374668
 50
101.9312942295756983
 51
205.5027112391927062
  0
ARC
  5
42321
  8
0
 10
2776.3151889007481259
 20
80.5615144202032951
 30
0.0
 40
0.166255721534954
 50
216.1386095239766973
 51
237.8861936389490097
  0
ARC
  5
42322
  8
0
 10
2776.0183479126008024
 20
80.268238261248456
 30
0.0
 40
0.2582610590462086
 50
17.8310567256806003
 51
36.1802466405470469
  0
ARC
  5
42323
  8
0
 10
2776.245765198396839
 20
80.6266761223753576
 30
0.0
 40
0.11185086616281
 50
175.668642587290492
 51
250.9747243643909087
  0
LINE
  5
42324
  8
0
 10
2776.2642030280098879
 20
80.3473210341978756
 30
0.0
 11
2776.2642030401098054
 21
80.1548486055922353
 31
0.0
  0
ARC
  5
42325
  8
0
 10
2776.3114939734241489
 20
80.1548486085653593
 30
0.0
 40
0.0472909333140831
 50
180.0000036021432948
 51
207.295248412062989
  0
ARC
  5
42326
  8
0
 10
2776.3138942648120064
 20
80.1560872392556973
 30
0.0
 40
0.0499919710283195
 50
207.2952484120638132
 51
241.6975397440440929
  0
ARC
  5
42327
  8
0
 10
2776.334674671159064
 20
80.1946766722833075
 30
0.0
 40
0.0938208385623777
 50
241.6975397440440929
 51
257.1147839690823957
  0
ARC
  5
42328
  8
0
 10
2776.4138332039638044
 20
80.5407112487234258
 30
0.0
 40
0.4487940789733426
 50
257.1147839690823957
 51
268.2813421906994904
  0
ARC
  5
42329
  8
0
 10
2777.4932058506051362
 20
147.4310241337360878
 30
0.0
 40
67.3477721962697871
 50
269.0702372023995963
 51
269.325553935541393
  0
ARC
  5
4232A
  8
0
 10
2776.7044226017392248
 20
76.1725097159610272
 30
0.0
 40
3.9907871516674258
 50
90.0569912272168978
 51
91.4278713019795646
  0
ARC
  5
4232B
  8
0
 10
2776.6856379294649741
 20
76.9261207861618885
 30
0.0
 40
3.2369420024214191
 50
91.4278713019795646
 51
93.1980189908796035
  0
ARC
  5
4232C
  8
0
 10
2776.6069359032130706
 20
78.3346834618750165
 30
0.0
 40
1.826182341689516
 50
93.1980189908796035
 51
95.6029459875888392
  0
ARC
  5
4232D
  8
0
 10
2776.5132564658920273
 20
79.2895947067540305
 30
0.0
 40
0.8666869938253251
 50
95.6029459875888392
 51
100.3385140310270032
  0
ARC
  5
4232E
  8
0
 10
2776.3833853018682021
 20
80.0015089920348856
 30
0.0
 40
0.143023764946044
 50
100.3385140310270032
 51
112.6019534371758937
  0
ARC
  5
4232F
  8
0
 10
2776.3352959943690621
 20
80.1176920286395955
 30
0.0
 40
0.0172838123117257
 50
113.451765928245095
 51
140.4864660209134968
  0
ARC
  5
42330
  8
0
 10
2776.3263300636790518
 20
80.1267340271943738
 30
0.0
 40
0.0047856280808161
 50
155.8883229331947859
 51
221.0116678256111129
  0
ARC
  5
42331
  8
0
 10
2776.7001226046240845
 20
83.9122612085306514
 30
0.0
 40
3.8226021781192099
 50
268.7018937253229751
 51
270.004952612033378
  0
ARC
  5
42332
  8
0
 10
2776.6848487787451631
 20
83.288888864901736
 30
0.0
 40
3.199044005864661
 50
267.1072008596127034
 51
268.7224520055934818
  0
ARC
  5
42333
  8
0
 10
2776.5798209286440397
 20
81.4984791235895472
 30
0.0
 40
1.4056904508360739
 50
261.2470709548559853
 51
267.699723590852102
  0
ARC
  5
42334
  8
0
 10
2776.4074930850479177
 20
80.350210736769796
 30
0.0
 40
0.2446111605559102
 50
253.6281925830805903
 51
260.2127336307348173
  0
ARC
  5
42335
  8
0
 10
2776.347219657093774
 20
80.1520622863504144
 30
0.0
 40
0.0375599379120668
 50
229.2840264146668119
 51
256.6462031122478038
  0
ARC
  5
42336
  8
0
 10
2776.4458230903169351
 20
80.2016774909865404
 30
0.0
 40
0.0567534250295563
 50
242.7340521211982036
 51
255.871312796376003
  0
ARC
  5
42337
  8
0
 10
2776.5101013896578479
 20
80.4570389280170133
 30
0.0
 40
0.3200805282463206
 50
255.871312796376003
 51
264.6642728351898768
  0
ARC
  5
42338
  8
0
 10
2776.7136503328970321
 20
82.6364535337500143
 30
0.0
 40
2.50897983976706
 50
264.6642728351898768
 51
267.4673403520927764
  0
ARC
  5
42339
  8
0
 10
2776.6993612221572221
 20
82.9110421028064764
 30
0.0
 40
2.7827940839946939
 50
268.0110894144480085
 51
270.0224795177712735
  0
ARC
  5
4233A
  8
0
 10
2776.6968254868597796
 20
82.747198540197914
 30
0.0
 40
2.629852462068683
 50
266.2788765496326846
 51
270.079032138424509
  0
ARC
  5
4233B
  8
0
 10
2776.5802840797778117
 20
80.9552827478897683
 30
0.0
 40
0.8341508982536032
 50
259.3723654209043161
 51
266.2788765496326846
  0
ARC
  5
4233C
  8
0
 10
2776.4373774650848645
 20
80.1936997018111981
 30
0.0
 40
0.0592760460372469
 50
242.0541280935767929
 51
259.3723654209043161
  0
ARC
  5
4233D
  8
0
 10
2776.4140611291768437
 20
80.1497479333087739
 30
0.0
 40
0.0095225589767322
 50
212.4187329872025884
 51
242.054128093576395
  0
ARC
  5
4233E
  8
0
 10
2776.408638151804098
 20
80.1459686410023835
 30
0.0
 40
0.0029323394275895
 50
164.5904190771414903
 51
206.8799824092693029
  0
ARC
  5
4233F
  8
0
 10
2776.4117934894497921
 20
80.1444576265306239
 30
0.0
 40
0.0064056555803774
 50
121.4659413179193024
 51
159.0516684992093985
  0
LINE
  5
42340
  8
0
 10
2776.3834478033099913
 20
80.1428691917922293
 30
0.0
 11
2776.3613716462141383
 21
80.1428691917922293
 31
0.0
  0
ARC
  5
42341
  8
0
 10
2776.4068924952312045
 20
80.0888513113284546
 30
0.0
 40
0.0588862037241573
 50
107.8373808974669004
 51
113.4616751984816005
  0
ARC
  5
42342
  8
0
 10
2776.4398443903451152
 20
79.9864477626644401
 30
0.0
 40
0.1664608948490482
 50
100.8711192623705983
 51
107.8373808974669004
  0
LINE
  5
42343
  8
0
 10
2776.4264454558101534
 20
80.1354404466922148
 30
0.0
 11
2776.4264454558101534
 21
80.1190935071922326
 31
0.0
  0
LINE
  5
42344
  8
0
 10
2776.4264454558101534
 20
80.1190935071922326
 30
0.0
 11
2776.3979640275101701
 21
80.1163273707922343
 31
0.0
  0
ARC
  5
42345
  8
0
 10
2776.4241969671288643
 20
80.3514817456987203
 30
0.0
 40
0.2366130747839736
 50
249.9738297937869049
 51
263.6346160867291815
  0
LINE
  5
42346
  8
0
 10
2776.3431689810108765
 20
80.1291751721922338
 30
0.0
 11
2776.3431767402271362
 21
80.138764479757711
 31
0.0
  0
LINE
  5
42347
  8
0
 10
2776.3431689810108765
 20
80.1291751721922338
 30
0.0
 11
2776.3834478033099913
 21
80.1291751721922338
 31
0.0
  0
LINE
  5
42348
  8
0
 10
2776.3834478033099913
 20
80.1291751721922338
 30
0.0
 11
2776.3834478033099913
 21
80.1428691917922293
 31
0.0
  0
ARC
  5
42349
  8
0
 10
2776.445460475119944
 20
80.2969232840593463
 30
0.0
 40
0.1788435084087452
 50
249.7117901262026862
 51
263.8966556396600254
  0
ARC
  5
4234A
  8
0
 10
2776.3442223570500573
 20
80.1435593093347762
 30
0.0
 40
0.0152656163076399
 50
214.7452555006701971
 51
248.2590374545573866
  0
ARC
  5
4234B
  8
0
 10
2776.3958526203919064
 20
80.2730309184364472
 30
0.0
 40
0.1546520634829626
 50
248.2590374545573866
 51
257.3524465460333204
  0
ARC
  5
4234C
  8
0
 10
2776.4538429406620708
 20
80.5314570195138089
 30
0.0
 40
0.4195047149008749
 50
257.3524465460333204
 51
264.4056907668049803
  0
ARC
  5
4234D
  8
0
 10
2776.5913685144919327
 20
81.6536707212933095
 30
0.0
 40
1.55002344217316
 50
263.3901272444409187
 51
266.4906579656989152
  0
ARC
  5
4234E
  8
0
 10
2776.6821692907128636
 20
83.0932995695628591
 30
0.0
 40
2.9925118272698241
 50
266.4426200787543735
 51
268.9979094793454806
  0
ARC
  5
4234F
  8
0
 10
2776.7002622280720061
 20
83.8447339733451145
 30
0.0
 40
3.744151000314409
 50
268.9221850812028833
 51
270.0029197623599089
  0
LINE
  5
42350
  8
0
 10
2776.4976660836100564
 20
80.1252333591384485
 30
0.0
 11
2776.4976660836100564
 21
80.1064809271074978
 31
0.0
  0
LINE
  5
42351
  8
0
 10
2776.4976660836100564
 20
80.1064809271074978
 30
0.0
 11
2776.526147512010084
 21
80.1094103730922313
 31
0.0
  0
LINE
  5
42352
  8
0
 10
2776.526147512010084
 20
80.1094103730922313
 30
0.0
 11
2776.526147512010084
 21
80.1228904406886642
 31
0.0
  0
ARC
  5
42353
  8
0
 10
2776.6764254831000471
 20
82.5527203093584063
 30
0.0
 40
2.4479270645286322
 50
266.4804053559589079
 51
268.912207987598606
  0
LINE
  5
42354
  8
0
 10
2776.6299530280098224
 20
80.118178264450691
 30
0.0
 11
2776.6299530280098224
 21
80.1012431787067669
 31
0.0
  0
LINE
  5
42355
  8
0
 10
2776.4484993849109742
 20
80.1484054531922254
 30
0.0
 11
2776.4583419046111885
 21
80.1500611420922269
 31
0.0
  0
LINE
  5
42356
  8
0
 10
2776.4583419046111885
 20
80.1500611420922269
 30
0.0
 11
2776.4780269440111624
 21
80.1500611420922269
 31
0.0
  0
LINE
  5
42357
  8
0
 10
2776.4780269440111624
 20
80.1500611420922269
 30
0.0
 11
2776.4878694637100125
 21
80.1484054531922254
 31
0.0
  0
LINE
  5
42358
  8
0
 10
2776.4878694637100125
 20
80.1484054531922254
 30
0.0
 11
2776.4780269440111624
 21
80.1467497641922364
 31
0.0
  0
LINE
  5
42359
  8
0
 10
2776.4780269440111624
 20
80.1467497641922364
 30
0.0
 11
2776.4583419046111885
 21
80.1467497641922364
 31
0.0
  0
LINE
  5
4235A
  8
0
 10
2776.4583419046111885
 20
80.1467497641922364
 30
0.0
 11
2776.4484993849109742
 21
80.1484054531922254
 31
0.0
  0
LINE
  5
4235B
  8
0
 10
2776.4583419046111885
 20
80.1500611420922269
 30
0.0
 11
2776.4583419046111885
 21
80.1467497641922364
 31
0.0
  0
LINE
  5
4235C
  8
0
 10
2776.4780269440111624
 20
80.1500611420922269
 30
0.0
 11
2776.4780269440111624
 21
80.1467497641922364
 31
0.0
  0
LINE
  5
4235D
  8
0
 10
2776.4765751004110825
 20
80.1403341120922335
 30
0.0
 11
2776.4864176201108421
 21
80.1419898009922349
 31
0.0
  0
LINE
  5
4235E
  8
0
 10
2776.4864176201108421
 20
80.1419898009922349
 30
0.0
 11
2776.506102659510816
 21
80.1419898009922349
 31
0.0
  0
LINE
  5
4235F
  8
0
 10
2776.506102659510816
 20
80.1419898009922349
 30
0.0
 11
2776.5159451792101208
 21
80.1403341120922335
 31
0.0
  0
LINE
  5
42360
  8
0
 10
2776.5159451792101208
 20
80.1403341120922335
 30
0.0
 11
2776.506102659510816
 21
80.138678423092216
 31
0.0
  0
LINE
  5
42361
  8
0
 10
2776.506102659510816
 20
80.138678423092216
 30
0.0
 11
2776.4864176201108421
 21
80.138678423092216
 31
0.0
  0
LINE
  5
42362
  8
0
 10
2776.4864176201108421
 20
80.138678423092216
 30
0.0
 11
2776.4765751004110825
 21
80.1403341120922335
 31
0.0
  0
LINE
  5
42363
  8
0
 10
2776.4864176201108421
 20
80.1419898009922349
 30
0.0
 11
2776.4864176201108421
 21
80.138678423092216
 31
0.0
  0
LINE
  5
42364
  8
0
 10
2776.506102659510816
 20
80.1419898009922349
 30
0.0
 11
2776.506102659510816
 21
80.138678423092216
 31
0.0
  0
LINE
  5
42365
  8
0
 10
2776.4763382346100116
 20
80.145701724492227
 30
0.0
 11
2776.4861807543102259
 21
80.1473574133922142
 31
0.0
  0
LINE
  5
42366
  8
0
 10
2776.4861807543102259
 20
80.1473574133922142
 30
0.0
 11
2776.5058657937111093
 21
80.1473574133922142
 31
0.0
  0
LINE
  5
42367
  8
0
 10
2776.5058657937111093
 20
80.1473574133922142
 30
0.0
 11
2776.5157083134108689
 21
80.145701724492227
 31
0.0
  0
LINE
  5
42368
  8
0
 10
2776.5157083134108689
 20
80.145701724492227
 30
0.0
 11
2776.5058657937111093
 21
80.1440460354922237
 31
0.0
  0
LINE
  5
42369
  8
0
 10
2776.5058657937111093
 20
80.1440460354922237
 30
0.0
 11
2776.4861807543102259
 21
80.1440460354922237
 31
0.0
  0
LINE
  5
4236A
  8
0
 10
2776.4861807543102259
 20
80.1440460354922237
 30
0.0
 11
2776.4763382346100116
 21
80.145701724492227
 31
0.0
  0
LINE
  5
4236B
  8
0
 10
2776.4861807543102259
 20
80.1473574133922142
 30
0.0
 11
2776.4861807543102259
 21
80.1440460354922237
 31
0.0
  0
LINE
  5
4236C
  8
0
 10
2776.5058657937111093
 20
80.1473574133922142
 30
0.0
 11
2776.5058657937111093
 21
80.1440460354922237
 31
0.0
  0
LINE
  5
4236D
  8
0
 10
2776.4763382346100116
 20
80.1511091818922239
 30
0.0
 11
2776.4861807543102259
 21
80.1527648707922253
 31
0.0
  0
LINE
  5
4236E
  8
0
 10
2776.4861807543102259
 20
80.1527648707922253
 30
0.0
 11
2776.5058657937111093
 21
80.1527648707922253
 31
0.0
  0
LINE
  5
4236F
  8
0
 10
2776.5058657937111093
 20
80.1527648707922253
 30
0.0
 11
2776.5157083134108689
 21
80.1511091818922239
 31
0.0
  0
LINE
  5
42370
  8
0
 10
2776.5157083134108689
 20
80.1511091818922239
 30
0.0
 11
2776.5058657937111093
 21
80.1494534928922349
 31
0.0
  0
LINE
  5
42371
  8
0
 10
2776.5058657937111093
 20
80.1494534928922349
 30
0.0
 11
2776.4861807543102259
 21
80.1494534928922349
 31
0.0
  0
LINE
  5
42372
  8
0
 10
2776.4861807543102259
 20
80.1494534928922349
 30
0.0
 11
2776.4763382346100116
 21
80.1511091818922239
 31
0.0
  0
LINE
  5
42373
  8
0
 10
2776.4861807543102259
 20
80.1527648707922253
 30
0.0
 11
2776.4861807543102259
 21
80.1494534928922349
 31
0.0
  0
LINE
  5
42374
  8
0
 10
2776.5058657937111093
 20
80.1527648707922253
 30
0.0
 11
2776.5058657937111093
 21
80.1494534928922349
 31
0.0
  0
LINE
  5
42375
  8
0
 10
2776.504177084209914
 20
80.1538129106922241
 30
0.0
 11
2776.5140196039101284
 21
80.1554685995922256
 31
0.0
  0
LINE
  5
42376
  8
0
 10
2776.5140196039101284
 20
80.1554685995922256
 30
0.0
 11
2776.5337046433101023
 21
80.1554685995922256
 31
0.0
  0
LINE
  5
42377
  8
0
 10
2776.5337046433101023
 20
80.1554685995922256
 30
0.0
 11
2776.5435471630098618
 21
80.1538129106922241
 31
0.0
  0
LINE
  5
42378
  8
0
 10
2776.5435471630098618
 20
80.1538129106922241
 30
0.0
 11
2776.5337046433101023
 21
80.1521572216922351
 31
0.0
  0
LINE
  5
42379
  8
0
 10
2776.5337046433101023
 20
80.1521572216922351
 30
0.0
 11
2776.5140196039101284
 21
80.1521572216922351
 31
0.0
  0
LINE
  5
4237A
  8
0
 10
2776.5140196039101284
 20
80.1521572216922351
 30
0.0
 11
2776.504177084209914
 21
80.1538129106922241
 31
0.0
  0
LINE
  5
4237B
  8
0
 10
2776.5140196039101284
 20
80.1554685995922256
 30
0.0
 11
2776.5140196039101284
 21
80.1521572216922351
 31
0.0
  0
LINE
  5
4237C
  8
0
 10
2776.5337046433101023
 20
80.1554685995922256
 30
0.0
 11
2776.5337046433101023
 21
80.1521572216922351
 31
0.0
  0
LINE
  5
4237D
  8
0
 10
2776.504177084209914
 20
80.1484054531922254
 30
0.0
 11
2776.5140196039101284
 21
80.1500611420922269
 31
0.0
  0
LINE
  5
4237E
  8
0
 10
2776.5140196039101284
 20
80.1500611420922269
 30
0.0
 11
2776.5337046433101023
 21
80.1500611420922269
 31
0.0
  0
LINE
  5
4237F
  8
0
 10
2776.5337046433101023
 20
80.1500611420922269
 30
0.0
 11
2776.5435471630098618
 21
80.1484054531922254
 31
0.0
  0
LINE
  5
42380
  8
0
 10
2776.5435471630098618
 20
80.1484054531922254
 30
0.0
 11
2776.5337046433101023
 21
80.1467497641922364
 31
0.0
  0
LINE
  5
42381
  8
0
 10
2776.5337046433101023
 20
80.1467497641922364
 30
0.0
 11
2776.5140196039101284
 21
80.1467497641922364
 31
0.0
  0
LINE
  5
42382
  8
0
 10
2776.5140196039101284
 20
80.1467497641922364
 30
0.0
 11
2776.504177084209914
 21
80.1484054531922254
 31
0.0
  0
LINE
  5
42383
  8
0
 10
2776.5140196039101284
 20
80.1500611420922269
 30
0.0
 11
2776.5140196039101284
 21
80.1467497641922364
 31
0.0
  0
LINE
  5
42384
  8
0
 10
2776.5337046433101023
 20
80.1500611420922269
 30
0.0
 11
2776.5337046433101023
 21
80.1467497641922364
 31
0.0
  0
LINE
  5
42385
  8
0
 10
2776.504177084209914
 20
80.1429979956922267
 30
0.0
 11
2776.5140196039101284
 21
80.1446536845922282
 31
0.0
  0
LINE
  5
42386
  8
0
 10
2776.5140196039101284
 20
80.1446536845922282
 30
0.0
 11
2776.5337046433101023
 21
80.1446536845922282
 31
0.0
  0
LINE
  5
42387
  8
0
 10
2776.5337046433101023
 20
80.1446536845922282
 30
0.0
 11
2776.5435471630098618
 21
80.1429979956922267
 31
0.0
  0
LINE
  5
42388
  8
0
 10
2776.5435471630098618
 20
80.1429979956922267
 30
0.0
 11
2776.5337046433101023
 21
80.1413423066922235
 31
0.0
  0
LINE
  5
42389
  8
0
 10
2776.5337046433101023
 20
80.1413423066922235
 30
0.0
 11
2776.5140196039101284
 21
80.1413423066922235
 31
0.0
  0
LINE
  5
4238A
  8
0
 10
2776.5140196039101284
 20
80.1413423066922235
 30
0.0
 11
2776.504177084209914
 21
80.1429979956922267
 31
0.0
  0
LINE
  5
4238B
  8
0
 10
2776.5140196039101284
 20
80.1446536845922282
 30
0.0
 11
2776.5140196039101284
 21
80.1413423066922235
 31
0.0
  0
LINE
  5
4238C
  8
0
 10
2776.5337046433101023
 20
80.1446536845922282
 30
0.0
 11
2776.5337046433101023
 21
80.1413423066922235
 31
0.0
  0
LINE
  5
4238D
  8
0
 10
2776.504177084209914
 20
80.137590538192228
 30
0.0
 11
2776.5140196039101284
 21
80.1392462270922437
 31
0.0
  0
LINE
  5
4238E
  8
0
 10
2776.5140196039101284
 20
80.1392462270922437
 30
0.0
 11
2776.5337046433101023
 21
80.1392462270922437
 31
0.0
  0
LINE
  5
4238F
  8
0
 10
2776.5337046433101023
 20
80.1392462270922437
 30
0.0
 11
2776.5435471630098618
 21
80.137590538192228
 31
0.0
  0
LINE
  5
42390
  8
0
 10
2776.5435471630098618
 20
80.137590538192228
 30
0.0
 11
2776.5337046433101023
 21
80.1359348491922248
 31
0.0
  0
LINE
  5
42391
  8
0
 10
2776.5337046433101023
 20
80.1359348491922248
 30
0.0
 11
2776.5140196039101284
 21
80.1359348491922248
 31
0.0
  0
LINE
  5
42392
  8
0
 10
2776.5140196039101284
 20
80.1359348491922248
 30
0.0
 11
2776.504177084209914
 21
80.137590538192228
 31
0.0
  0
LINE
  5
42393
  8
0
 10
2776.5140196039101284
 20
80.1392462270922437
 30
0.0
 11
2776.5140196039101284
 21
80.1359348491922248
 31
0.0
  0
LINE
  5
42394
  8
0
 10
2776.5337046433101023
 20
80.1392462270922437
 30
0.0
 11
2776.5337046433101023
 21
80.1359348491922248
 31
0.0
  0
LINE
  5
42395
  8
0
 10
2776.5320159339112251
 20
80.1565166393922368
 30
0.0
 11
2776.5418584536100752
 21
80.1581723282922383
 31
0.0
  0
LINE
  5
42396
  8
0
 10
2776.5418584536100752
 20
80.1581723282922383
 30
0.0
 11
2776.5615434930100491
 21
80.1581723282922383
 31
0.0
  0
LINE
  5
42397
  8
0
 10
2776.5615434930100491
 20
80.1581723282922383
 30
0.0
 11
2776.5713860127098087
 21
80.1565166393922368
 31
0.0
  0
LINE
  5
42398
  8
0
 10
2776.5713860127098087
 20
80.1565166393922368
 30
0.0
 11
2776.5615434930100491
 21
80.1548609503922336
 31
0.0
  0
LINE
  5
42399
  8
0
 10
2776.5615434930100491
 20
80.1548609503922336
 30
0.0
 11
2776.5418584536100752
 21
80.1548609503922336
 31
0.0
  0
LINE
  5
4239A
  8
0
 10
2776.5418584536100752
 20
80.1548609503922336
 30
0.0
 11
2776.5320159339112251
 21
80.1565166393922368
 31
0.0
  0
LINE
  5
4239B
  8
0
 10
2776.5418584536100752
 20
80.1581723282922383
 30
0.0
 11
2776.5418584536100752
 21
80.1548609503922336
 31
0.0
  0
LINE
  5
4239C
  8
0
 10
2776.5615434930100491
 20
80.1581723282922383
 30
0.0
 11
2776.5615434930100491
 21
80.1548609503922336
 31
0.0
  0
LINE
  5
4239D
  8
0
 10
2776.5320159339112251
 20
80.1511091818922239
 30
0.0
 11
2776.5418584536100752
 21
80.1527648707922253
 31
0.0
  0
LINE
  5
4239E
  8
0
 10
2776.5418584536100752
 20
80.1527648707922253
 30
0.0
 11
2776.5615434930100491
 21
80.1527648707922253
 31
0.0
  0
LINE
  5
4239F
  8
0
 10
2776.5615434930100491
 20
80.1527648707922253
 30
0.0
 11
2776.5713860127098087
 21
80.1511091818922239
 31
0.0
  0
LINE
  5
423A0
  8
0
 10
2776.5713860127098087
 20
80.1511091818922239
 30
0.0
 11
2776.5615434930100491
 21
80.1494534928922349
 31
0.0
  0
LINE
  5
423A1
  8
0
 10
2776.5615434930100491
 20
80.1494534928922349
 30
0.0
 11
2776.5418584536100752
 21
80.1494534928922349
 31
0.0
  0
LINE
  5
423A2
  8
0
 10
2776.5418584536100752
 20
80.1494534928922349
 30
0.0
 11
2776.5320159339112251
 21
80.1511091818922239
 31
0.0
  0
LINE
  5
423A3
  8
0
 10
2776.5418584536100752
 20
80.1527648707922253
 30
0.0
 11
2776.5418584536100752
 21
80.1494534928922349
 31
0.0
  0
LINE
  5
423A4
  8
0
 10
2776.5615434930100491
 20
80.1527648707922253
 30
0.0
 11
2776.5615434930100491
 21
80.1494534928922349
 31
0.0
  0
LINE
  5
423A5
  8
0
 10
2776.5320159339112251
 20
80.145701724492227
 30
0.0
 11
2776.5418584536100752
 21
80.1473574133922142
 31
0.0
  0
LINE
  5
423A6
  8
0
 10
2776.5418584536100752
 20
80.1473574133922142
 30
0.0
 11
2776.5615434930100491
 21
80.1473574133922142
 31
0.0
  0
LINE
  5
423A7
  8
0
 10
2776.5615434930100491
 20
80.1473574133922142
 30
0.0
 11
2776.5713860127098087
 21
80.145701724492227
 31
0.0
  0
LINE
  5
423A8
  8
0
 10
2776.5713860127098087
 20
80.145701724492227
 30
0.0
 11
2776.5615434930100491
 21
80.1440460354922237
 31
0.0
  0
LINE
  5
423A9
  8
0
 10
2776.5615434930100491
 20
80.1440460354922237
 30
0.0
 11
2776.5418584536100752
 21
80.1440460354922237
 31
0.0
  0
LINE
  5
423AA
  8
0
 10
2776.5418584536100752
 20
80.1440460354922237
 30
0.0
 11
2776.5320159339112251
 21
80.145701724492227
 31
0.0
  0
LINE
  5
423AB
  8
0
 10
2776.5418584536100752
 20
80.1473574133922142
 30
0.0
 11
2776.5418584536100752
 21
80.1440460354922237
 31
0.0
  0
LINE
  5
423AC
  8
0
 10
2776.5615434930100491
 20
80.1473574133922142
 30
0.0
 11
2776.5615434930100491
 21
80.1440460354922237
 31
0.0
  0
LINE
  5
423AD
  8
0
 10
2776.5320159339112251
 20
80.140294266992214
 30
0.0
 11
2776.5418584536100752
 21
80.1419499558922297
 31
0.0
  0
LINE
  5
423AE
  8
0
 10
2776.5418584536100752
 20
80.1419499558922297
 30
0.0
 11
2776.5615434930100491
 21
80.1419499558922297
 31
0.0
  0
LINE
  5
423AF
  8
0
 10
2776.5615434930100491
 20
80.1419499558922297
 30
0.0
 11
2776.5713860127098087
 21
80.140294266992214
 31
0.0
  0
LINE
  5
423B0
  8
0
 10
2776.5713860127098087
 20
80.140294266992214
 30
0.0
 11
2776.5615434930100491
 21
80.138638577992225
 31
0.0
  0
LINE
  5
423B1
  8
0
 10
2776.5615434930100491
 20
80.138638577992225
 30
0.0
 11
2776.5418584536100752
 21
80.138638577992225
 31
0.0
  0
LINE
  5
423B2
  8
0
 10
2776.5418584536100752
 20
80.138638577992225
 30
0.0
 11
2776.5320159339112251
 21
80.140294266992214
 31
0.0
  0
LINE
  5
423B3
  8
0
 10
2776.5418584536100752
 20
80.1419499558922297
 30
0.0
 11
2776.5418584536100752
 21
80.138638577992225
 31
0.0
  0
LINE
  5
423B4
  8
0
 10
2776.5615434930100491
 20
80.1419499558922297
 30
0.0
 11
2776.5615434930100491
 21
80.138638577992225
 31
0.0
  0
LINE
  5
423B5
  8
0
 10
2776.5320159339112251
 20
80.1348868094922153
 30
0.0
 11
2776.5418584536100752
 21
80.136542498392231
 31
0.0
  0
LINE
  5
423B6
  8
0
 10
2776.5418584536100752
 20
80.136542498392231
 30
0.0
 11
2776.5615434930100491
 21
80.136542498392231
 31
0.0
  0
LINE
  5
423B7
  8
0
 10
2776.5615434930100491
 20
80.136542498392231
 30
0.0
 11
2776.5713860127098087
 21
80.1348868094922153
 31
0.0
  0
LINE
  5
423B8
  8
0
 10
2776.5713860127098087
 20
80.1348868094922153
 30
0.0
 11
2776.5615434930100491
 21
80.1332311204922263
 31
0.0
  0
LINE
  5
423B9
  8
0
 10
2776.5615434930100491
 20
80.1332311204922263
 30
0.0
 11
2776.5418584536100752
 21
80.1332311204922263
 31
0.0
  0
LINE
  5
423BA
  8
0
 10
2776.5418584536100752
 20
80.1332311204922263
 30
0.0
 11
2776.5320159339112251
 21
80.1348868094922153
 31
0.0
  0
LINE
  5
423BB
  8
0
 10
2776.5418584536100752
 20
80.136542498392231
 30
0.0
 11
2776.5418584536100752
 21
80.1332311204922263
 31
0.0
  0
LINE
  5
423BC
  8
0
 10
2776.5615434930100491
 20
80.136542498392231
 30
0.0
 11
2776.5615434930100491
 21
80.1332311204922263
 31
0.0
  0
LINE
  5
423BD
  8
0
 10
2776.5598547835102181
 20
80.137590538192228
 30
0.0
 11
2776.5696973032108872
 21
80.1392462270922437
 31
0.0
  0
LINE
  5
423BE
  8
0
 10
2776.5696973032108872
 20
80.1392462270922437
 30
0.0
 11
2776.5893823426099516
 21
80.1392462270922437
 31
0.0
  0
LINE
  5
423BF
  8
0
 10
2776.5893823426099516
 20
80.1392462270922437
 30
0.0
 11
2776.5992248623110754
 21
80.137590538192228
 31
0.0
  0
LINE
  5
423C0
  8
0
 10
2776.5992248623110754
 20
80.137590538192228
 30
0.0
 11
2776.5893823426099516
 21
80.1359348491922248
 31
0.0
  0
LINE
  5
423C1
  8
0
 10
2776.5893823426099516
 20
80.1359348491922248
 30
0.0
 11
2776.5696973032108872
 21
80.1359348491922248
 31
0.0
  0
LINE
  5
423C2
  8
0
 10
2776.5696973032108872
 20
80.1359348491922248
 30
0.0
 11
2776.5598547835102181
 21
80.137590538192228
 31
0.0
  0
LINE
  5
423C3
  8
0
 10
2776.5696973032108872
 20
80.1392462270922437
 30
0.0
 11
2776.5696973032108872
 21
80.1359348491922248
 31
0.0
  0
LINE
  5
423C4
  8
0
 10
2776.5893823426099516
 20
80.1392462270922437
 30
0.0
 11
2776.5893823426099516
 21
80.1359348491922248
 31
0.0
  0
LINE
  5
423C5
  8
0
 10
2776.5598547835102181
 20
80.1429979956922267
 30
0.0
 11
2776.5696973032108872
 21
80.1446536845922282
 31
0.0
  0
LINE
  5
423C6
  8
0
 10
2776.5696973032108872
 20
80.1446536845922282
 30
0.0
 11
2776.5893823426099516
 21
80.1446536845922282
 31
0.0
  0
LINE
  5
423C7
  8
0
 10
2776.5893823426099516
 20
80.1446536845922282
 30
0.0
 11
2776.5992248623110754
 21
80.1429979956922267
 31
0.0
  0
LINE
  5
423C8
  8
0
 10
2776.5992248623110754
 20
80.1429979956922267
 30
0.0
 11
2776.5893823426099516
 21
80.1413423066922235
 31
0.0
  0
LINE
  5
423C9
  8
0
 10
2776.5893823426099516
 20
80.1413423066922235
 30
0.0
 11
2776.5696973032108872
 21
80.1413423066922235
 31
0.0
  0
LINE
  5
423CA
  8
0
 10
2776.5696973032108872
 20
80.1413423066922235
 30
0.0
 11
2776.5598547835102181
 21
80.1429979956922267
 31
0.0
  0
LINE
  5
423CB
  8
0
 10
2776.5696973032108872
 20
80.1446536845922282
 30
0.0
 11
2776.5696973032108872
 21
80.1413423066922235
 31
0.0
  0
LINE
  5
423CC
  8
0
 10
2776.5893823426099516
 20
80.1446536845922282
 30
0.0
 11
2776.5893823426099516
 21
80.1413423066922235
 31
0.0
  0
LINE
  5
423CD
  8
0
 10
2776.5598547835102181
 20
80.1484054531922254
 30
0.0
 11
2776.5696973032108872
 21
80.1500611420922269
 31
0.0
  0
LINE
  5
423CE
  8
0
 10
2776.5696973032108872
 20
80.1500611420922269
 30
0.0
 11
2776.5893823426099516
 21
80.1500611420922269
 31
0.0
  0
LINE
  5
423CF
  8
0
 10
2776.5893823426099516
 20
80.1500611420922269
 30
0.0
 11
2776.5992248623110754
 21
80.1484054531922254
 31
0.0
  0
LINE
  5
423D0
  8
0
 10
2776.5992248623110754
 20
80.1484054531922254
 30
0.0
 11
2776.5893823426099516
 21
80.1467497641922364
 31
0.0
  0
LINE
  5
423D1
  8
0
 10
2776.5893823426099516
 20
80.1467497641922364
 30
0.0
 11
2776.5696973032108872
 21
80.1467497641922364
 31
0.0
  0
LINE
  5
423D2
  8
0
 10
2776.5696973032108872
 20
80.1467497641922364
 30
0.0
 11
2776.5598547835102181
 21
80.1484054531922254
 31
0.0
  0
LINE
  5
423D3
  8
0
 10
2776.5696973032108872
 20
80.1500611420922269
 30
0.0
 11
2776.5696973032108872
 21
80.1467497641922364
 31
0.0
  0
LINE
  5
423D4
  8
0
 10
2776.5893823426099516
 20
80.1500611420922269
 30
0.0
 11
2776.5893823426099516
 21
80.1467497641922364
 31
0.0
  0
LINE
  5
423D5
  8
0
 10
2776.5598547835102181
 20
80.1538129106922241
 30
0.0
 11
2776.5696973032108872
 21
80.1554685995922256
 31
0.0
  0
LINE
  5
423D6
  8
0
 10
2776.5696973032108872
 20
80.1554685995922256
 30
0.0
 11
2776.5893823426099516
 21
80.1554685995922256
 31
0.0
  0
LINE
  5
423D7
  8
0
 10
2776.5893823426099516
 20
80.1554685995922256
 30
0.0
 11
2776.5992248623110754
 21
80.1538129106922241
 31
0.0
  0
LINE
  5
423D8
  8
0
 10
2776.5992248623110754
 20
80.1538129106922241
 30
0.0
 11
2776.5893823426099516
 21
80.1521572216922351
 31
0.0
  0
LINE
  5
423D9
  8
0
 10
2776.5893823426099516
 20
80.1521572216922351
 30
0.0
 11
2776.5696973032108872
 21
80.1521572216922351
 31
0.0
  0
LINE
  5
423DA
  8
0
 10
2776.5696973032108872
 20
80.1521572216922351
 30
0.0
 11
2776.5598547835102181
 21
80.1538129106922241
 31
0.0
  0
LINE
  5
423DB
  8
0
 10
2776.5696973032108872
 20
80.1554685995922256
 30
0.0
 11
2776.5696973032108872
 21
80.1521572216922351
 31
0.0
  0
LINE
  5
423DC
  8
0
 10
2776.5893823426099516
 20
80.1554685995922256
 30
0.0
 11
2776.5893823426099516
 21
80.1521572216922351
 31
0.0
  0
LINE
  5
423DD
  8
0
 10
2776.5598547835102181
 20
80.1592203680922353
 30
0.0
 11
2776.5696973032108872
 21
80.1608760569922367
 31
0.0
  0
LINE
  5
423DE
  8
0
 10
2776.5696973032108872
 20
80.1608760569922367
 30
0.0
 11
2776.5893823426099516
 21
80.1608760569922367
 31
0.0
  0
LINE
  5
423DF
  8
0
 10
2776.5893823426099516
 20
80.1608760569922367
 30
0.0
 11
2776.5992248623110754
 21
80.1592203680922353
 31
0.0
  0
LINE
  5
423E0
  8
0
 10
2776.5992248623110754
 20
80.1592203680922353
 30
0.0
 11
2776.5893823426099516
 21
80.157564679092232
 31
0.0
  0
LINE
  5
423E1
  8
0
 10
2776.5893823426099516
 20
80.157564679092232
 30
0.0
 11
2776.5696973032108872
 21
80.157564679092232
 31
0.0
  0
LINE
  5
423E2
  8
0
 10
2776.5696973032108872
 20
80.157564679092232
 30
0.0
 11
2776.5598547835102181
 21
80.1592203680922353
 31
0.0
  0
LINE
  5
423E3
  8
0
 10
2776.5696973032108872
 20
80.1608760569922367
 30
0.0
 11
2776.5696973032108872
 21
80.157564679092232
 31
0.0
  0
LINE
  5
423E4
  8
0
 10
2776.5893823426099516
 20
80.1608760569922367
 30
0.0
 11
2776.5893823426099516
 21
80.157564679092232
 31
0.0
  0
LINE
  5
423E5
  8
0
 10
2776.5876936332110745
 20
80.1565166393922368
 30
0.0
 11
2776.5975361529108341
 21
80.1581723282922383
 31
0.0
  0
LINE
  5
423E6
  8
0
 10
2776.5975361529108341
 20
80.1581723282922383
 30
0.0
 11
2776.617221192310808
 21
80.1581723282922383
 31
0.0
  0
LINE
  5
423E7
  8
0
 10
2776.617221192310808
 20
80.1581723282922383
 30
0.0
 11
2776.6270637120101128
 21
80.1565166393922368
 31
0.0
  0
LINE
  5
423E8
  8
0
 10
2776.6270637120101128
 20
80.1565166393922368
 30
0.0
 11
2776.617221192310808
 21
80.1548609503922336
 31
0.0
  0
LINE
  5
423E9
  8
0
 10
2776.617221192310808
 20
80.1548609503922336
 30
0.0
 11
2776.5975361529108341
 21
80.1548609503922336
 31
0.0
  0
LINE
  5
423EA
  8
0
 10
2776.5975361529108341
 20
80.1548609503922336
 30
0.0
 11
2776.5876936332110745
 21
80.1565166393922368
 31
0.0
  0
LINE
  5
423EB
  8
0
 10
2776.5975361529108341
 20
80.1581723282922383
 30
0.0
 11
2776.5975361529108341
 21
80.1548609503922336
 31
0.0
  0
LINE
  5
423EC
  8
0
 10
2776.617221192310808
 20
80.1581723282922383
 30
0.0
 11
2776.617221192310808
 21
80.1548609503922336
 31
0.0
  0
LINE
  5
423ED
  8
0
 10
2776.5876936332110745
 20
80.1511091818922239
 30
0.0
 11
2776.5975361529108341
 21
80.1527648707922253
 31
0.0
  0
LINE
  5
423EE
  8
0
 10
2776.5975361529108341
 20
80.1527648707922253
 30
0.0
 11
2776.617221192310808
 21
80.1527648707922253
 31
0.0
  0
LINE
  5
423EF
  8
0
 10
2776.617221192310808
 20
80.1527648707922253
 30
0.0
 11
2776.6270637120101128
 21
80.1511091818922239
 31
0.0
  0
LINE
  5
423F0
  8
0
 10
2776.6270637120101128
 20
80.1511091818922239
 30
0.0
 11
2776.617221192310808
 21
80.1494534928922349
 31
0.0
  0
LINE
  5
423F1
  8
0
 10
2776.617221192310808
 20
80.1494534928922349
 30
0.0
 11
2776.5975361529108341
 21
80.1494534928922349
 31
0.0
  0
LINE
  5
423F2
  8
0
 10
2776.5975361529108341
 20
80.1494534928922349
 30
0.0
 11
2776.5876936332110745
 21
80.1511091818922239
 31
0.0
  0
LINE
  5
423F3
  8
0
 10
2776.5975361529108341
 20
80.1527648707922253
 30
0.0
 11
2776.5975361529108341
 21
80.1494534928922349
 31
0.0
  0
LINE
  5
423F4
  8
0
 10
2776.617221192310808
 20
80.1527648707922253
 30
0.0
 11
2776.617221192310808
 21
80.1494534928922349
 31
0.0
  0
LINE
  5
423F5
  8
0
 10
2776.5876936332110745
 20
80.145701724492227
 30
0.0
 11
2776.5975361529108341
 21
80.1473574133922142
 31
0.0
  0
LINE
  5
423F6
  8
0
 10
2776.5975361529108341
 20
80.1473574133922142
 30
0.0
 11
2776.617221192310808
 21
80.1473574133922142
 31
0.0
  0
LINE
  5
423F7
  8
0
 10
2776.617221192310808
 20
80.1473574133922142
 30
0.0
 11
2776.6270637120101128
 21
80.145701724492227
 31
0.0
  0
LINE
  5
423F8
  8
0
 10
2776.6270637120101128
 20
80.145701724492227
 30
0.0
 11
2776.617221192310808
 21
80.1440460354922237
 31
0.0
  0
LINE
  5
423F9
  8
0
 10
2776.617221192310808
 20
80.1440460354922237
 30
0.0
 11
2776.5975361529108341
 21
80.1440460354922237
 31
0.0
  0
LINE
  5
423FA
  8
0
 10
2776.5975361529108341
 20
80.1440460354922237
 30
0.0
 11
2776.5876936332110745
 21
80.145701724492227
 31
0.0
  0
LINE
  5
423FB
  8
0
 10
2776.5975361529108341
 20
80.1473574133922142
 30
0.0
 11
2776.5975361529108341
 21
80.1440460354922237
 31
0.0
  0
LINE
  5
423FC
  8
0
 10
2776.617221192310808
 20
80.1473574133922142
 30
0.0
 11
2776.617221192310808
 21
80.1440460354922237
 31
0.0
  0
LINE
  5
423FD
  8
0
 10
2776.5884067854249224
 20
80.1404142320257478
 30
0.0
 11
2776.5982493051251367
 21
80.1420699209257634
 31
0.0
  0
LINE
  5
423FE
  8
0
 10
2776.5982493051251367
 20
80.1420699209257634
 30
0.0
 11
2776.6179343445251106
 21
80.1420699209257634
 31
0.0
  0
LINE
  5
423FF
  8
0
 10
2776.6179343445251106
 20
80.1420699209257634
 30
0.0
 11
2776.6277768642248702
 21
80.1404142320257478
 31
0.0
  0
LINE
  5
42400
  8
0
 10
2776.6277768642248702
 20
80.1404142320257478
 30
0.0
 11
2776.6179343445251106
 21
80.1387585430257445
 31
0.0
  0
LINE
  5
42401
  8
0
 10
2776.6179343445251106
 20
80.1387585430257445
 30
0.0
 11
2776.5982493051251367
 21
80.1387585430257445
 31
0.0
  0
LINE
  5
42402
  8
0
 10
2776.5982493051251367
 20
80.1387585430257445
 30
0.0
 11
2776.5884067854249224
 21
80.1404142320257478
 31
0.0
  0
LINE
  5
42403
  8
0
 10
2776.5982493051251367
 20
80.1420699209257634
 30
0.0
 11
2776.5982493051251367
 21
80.1387585430257445
 31
0.0
  0
LINE
  5
42404
  8
0
 10
2776.6179343445251106
 20
80.1420699209257634
 30
0.0
 11
2776.6179343445251106
 21
80.1387585430257445
 31
0.0
  0
LINE
  5
42405
  8
0
 10
2776.5876936332110745
 20
80.1348868094922153
 30
0.0
 11
2776.5975361529108341
 21
80.136542498392231
 31
0.0
  0
LINE
  5
42406
  8
0
 10
2776.5975361529108341
 20
80.136542498392231
 30
0.0
 11
2776.617221192310808
 21
80.136542498392231
 31
0.0
  0
LINE
  5
42407
  8
0
 10
2776.617221192310808
 20
80.136542498392231
 30
0.0
 11
2776.6270637120101128
 21
80.1348868094922153
 31
0.0
  0
LINE
  5
42408
  8
0
 10
2776.6270637120101128
 20
80.1348868094922153
 30
0.0
 11
2776.617221192310808
 21
80.1332311204922263
 31
0.0
  0
LINE
  5
42409
  8
0
 10
2776.617221192310808
 20
80.1332311204922263
 30
0.0
 11
2776.5975361529108341
 21
80.1332311204922263
 31
0.0
  0
LINE
  5
4240A
  8
0
 10
2776.5975361529108341
 20
80.1332311204922263
 30
0.0
 11
2776.5876936332110745
 21
80.1348868094922153
 31
0.0
  0
LINE
  5
4240B
  8
0
 10
2776.5975361529108341
 20
80.136542498392231
 30
0.0
 11
2776.5975361529108341
 21
80.1332311204922263
 31
0.0
  0
LINE
  5
4240C
  8
0
 10
2776.617221192310808
 20
80.136542498392231
 30
0.0
 11
2776.617221192310808
 21
80.1332311204922263
 31
0.0
  0
LINE
  5
4240D
  8
0
 10
2776.6155324828100674
 20
80.1592203680922353
 30
0.0
 11
2776.625375002509827
 21
80.1608760569922367
 31
0.0
  0
LINE
  5
4240E
  8
0
 10
2776.625375002509827
 20
80.1608760569922367
 30
0.0
 11
2776.6450600419098009
 21
80.1608760569922367
 31
0.0
  0
LINE
  5
4240F
  8
0
 10
2776.6450600419098009
 20
80.1608760569922367
 30
0.0
 11
2776.6549025616100153
 21
80.1592203680922353
 31
0.0
  0
LINE
  5
42410
  8
0
 10
2776.6549025616100153
 20
80.1592203680922353
 30
0.0
 11
2776.6450600419098009
 21
80.157564679092232
 31
0.0
  0
LINE
  5
42411
  8
0
 10
2776.6450600419098009
 20
80.157564679092232
 30
0.0
 11
2776.625375002509827
 21
80.157564679092232
 31
0.0
  0
LINE
  5
42412
  8
0
 10
2776.625375002509827
 20
80.157564679092232
 30
0.0
 11
2776.6155324828100674
 21
80.1592203680922353
 31
0.0
  0
LINE
  5
42413
  8
0
 10
2776.625375002509827
 20
80.1608760569922367
 30
0.0
 11
2776.625375002509827
 21
80.157564679092232
 31
0.0
  0
LINE
  5
42414
  8
0
 10
2776.6450600419098009
 20
80.1608760569922367
 30
0.0
 11
2776.6450600419098009
 21
80.157564679092232
 31
0.0
  0
LINE
  5
42415
  8
0
 10
2776.6155324828100674
 20
80.1538129106922241
 30
0.0
 11
2776.625375002509827
 21
80.1554685995922256
 31
0.0
  0
LINE
  5
42416
  8
0
 10
2776.625375002509827
 20
80.1554685995922256
 30
0.0
 11
2776.6450600419098009
 21
80.1554685995922256
 31
0.0
  0
LINE
  5
42417
  8
0
 10
2776.6450600419098009
 20
80.1554685995922256
 30
0.0
 11
2776.6549025616100153
 21
80.1538129106922241
 31
0.0
  0
LINE
  5
42418
  8
0
 10
2776.6549025616100153
 20
80.1538129106922241
 30
0.0
 11
2776.6450600419098009
 21
80.1521572216922351
 31
0.0
  0
LINE
  5
42419
  8
0
 10
2776.6450600419098009
 20
80.1521572216922351
 30
0.0
 11
2776.625375002509827
 21
80.1521572216922351
 31
0.0
  0
LINE
  5
4241A
  8
0
 10
2776.625375002509827
 20
80.1521572216922351
 30
0.0
 11
2776.6155324828100674
 21
80.1538129106922241
 31
0.0
  0
LINE
  5
4241B
  8
0
 10
2776.625375002509827
 20
80.1554685995922256
 30
0.0
 11
2776.625375002509827
 21
80.1521572216922351
 31
0.0
  0
LINE
  5
4241C
  8
0
 10
2776.6450600419098009
 20
80.1554685995922256
 30
0.0
 11
2776.6450600419098009
 21
80.1521572216922351
 31
0.0
  0
LINE
  5
4241D
  8
0
 10
2776.6155324828100674
 20
80.1484054531922254
 30
0.0
 11
2776.625375002509827
 21
80.1500611420922269
 31
0.0
  0
LINE
  5
4241E
  8
0
 10
2776.625375002509827
 20
80.1500611420922269
 30
0.0
 11
2776.6450600419098009
 21
80.1500611420922269
 31
0.0
  0
LINE
  5
4241F
  8
0
 10
2776.6450600419098009
 20
80.1500611420922269
 30
0.0
 11
2776.6549025616100153
 21
80.1484054531922254
 31
0.0
  0
LINE
  5
42420
  8
0
 10
2776.6549025616100153
 20
80.1484054531922254
 30
0.0
 11
2776.6450600419098009
 21
80.1467497641922364
 31
0.0
  0
LINE
  5
42421
  8
0
 10
2776.6450600419098009
 20
80.1467497641922364
 30
0.0
 11
2776.625375002509827
 21
80.1467497641922364
 31
0.0
  0
LINE
  5
42422
  8
0
 10
2776.625375002509827
 20
80.1467497641922364
 30
0.0
 11
2776.6155324828100674
 21
80.1484054531922254
 31
0.0
  0
LINE
  5
42423
  8
0
 10
2776.625375002509827
 20
80.1500611420922269
 30
0.0
 11
2776.625375002509827
 21
80.1467497641922364
 31
0.0
  0
LINE
  5
42424
  8
0
 10
2776.6450600419098009
 20
80.1500611420922269
 30
0.0
 11
2776.6450600419098009
 21
80.1467497641922364
 31
0.0
  0
LINE
  5
42425
  8
0
 10
2776.6155324828100674
 20
80.1429979956922267
 30
0.0
 11
2776.625375002509827
 21
80.1446536845922282
 31
0.0
  0
LINE
  5
42426
  8
0
 10
2776.625375002509827
 20
80.1446536845922282
 30
0.0
 11
2776.6450600419098009
 21
80.1446536845922282
 31
0.0
  0
LINE
  5
42427
  8
0
 10
2776.6450600419098009
 20
80.1446536845922282
 30
0.0
 11
2776.6549025616100153
 21
80.1429979956922267
 31
0.0
  0
LINE
  5
42428
  8
0
 10
2776.6549025616100153
 20
80.1429979956922267
 30
0.0
 11
2776.6450600419098009
 21
80.1413423066922235
 31
0.0
  0
LINE
  5
42429
  8
0
 10
2776.6450600419098009
 20
80.1413423066922235
 30
0.0
 11
2776.625375002509827
 21
80.1413423066922235
 31
0.0
  0
LINE
  5
4242A
  8
0
 10
2776.625375002509827
 20
80.1413423066922235
 30
0.0
 11
2776.6155324828100674
 21
80.1429979956922267
 31
0.0
  0
LINE
  5
4242B
  8
0
 10
2776.625375002509827
 20
80.1446536845922282
 30
0.0
 11
2776.625375002509827
 21
80.1413423066922235
 31
0.0
  0
LINE
  5
4242C
  8
0
 10
2776.6450600419098009
 20
80.1446536845922282
 30
0.0
 11
2776.6450600419098009
 21
80.1413423066922235
 31
0.0
  0
LINE
  5
4242D
  8
0
 10
2776.6155324828100674
 20
80.137590538192228
 30
0.0
 11
2776.625375002509827
 21
80.1392462270922437
 31
0.0
  0
LINE
  5
4242E
  8
0
 10
2776.625375002509827
 20
80.1392462270922437
 30
0.0
 11
2776.6450600419098009
 21
80.1392462270922437
 31
0.0
  0
LINE
  5
4242F
  8
0
 10
2776.6450600419098009
 20
80.1392462270922437
 30
0.0
 11
2776.6549025616100153
 21
80.137590538192228
 31
0.0
  0
LINE
  5
42430
  8
0
 10
2776.6549025616100153
 20
80.137590538192228
 30
0.0
 11
2776.6450600419098009
 21
80.1359348491922248
 31
0.0
  0
LINE
  5
42431
  8
0
 10
2776.6450600419098009
 20
80.1359348491922248
 30
0.0
 11
2776.625375002509827
 21
80.1359348491922248
 31
0.0
  0
LINE
  5
42432
  8
0
 10
2776.625375002509827
 20
80.1359348491922248
 30
0.0
 11
2776.6155324828100674
 21
80.137590538192228
 31
0.0
  0
LINE
  5
42433
  8
0
 10
2776.625375002509827
 20
80.1392462270922437
 30
0.0
 11
2776.625375002509827
 21
80.1359348491922248
 31
0.0
  0
LINE
  5
42434
  8
0
 10
2776.6450600419098009
 20
80.1392462270922437
 30
0.0
 11
2776.6450600419098009
 21
80.1359348491922248
 31
0.0
  0
LINE
  5
42435
  8
0
 10
2776.6155324828100674
 20
80.1321830807922169
 30
0.0
 11
2776.625375002509827
 21
80.1338387696922325
 31
0.0
  0
LINE
  5
42436
  8
0
 10
2776.625375002509827
 20
80.1338387696922325
 30
0.0
 11
2776.6450600419098009
 21
80.1338387696922325
 31
0.0
  0
LINE
  5
42437
  8
0
 10
2776.6450600419098009
 20
80.1338387696922325
 30
0.0
 11
2776.6549025616100153
 21
80.1321830807922169
 31
0.0
  0
LINE
  5
42438
  8
0
 10
2776.6549025616100153
 20
80.1321830807922169
 30
0.0
 11
2776.6450600419098009
 21
80.1305273917922136
 31
0.0
  0
LINE
  5
42439
  8
0
 10
2776.6450600419098009
 20
80.1305273917922136
 30
0.0
 11
2776.625375002509827
 21
80.1305273917922136
 31
0.0
  0
LINE
  5
4243A
  8
0
 10
2776.625375002509827
 20
80.1305273917922136
 30
0.0
 11
2776.6155324828100674
 21
80.1321830807922169
 31
0.0
  0
LINE
  5
4243B
  8
0
 10
2776.625375002509827
 20
80.1338387696922325
 30
0.0
 11
2776.625375002509827
 21
80.1305273917922136
 31
0.0
  0
LINE
  5
4243C
  8
0
 10
2776.6450600419098009
 20
80.1338387696922325
 30
0.0
 11
2776.6450600419098009
 21
80.1305273917922136
 31
0.0
  0
LINE
  5
4243D
  8
0
 10
2776.6433713325100143
 20
80.1348868094922153
 30
0.0
 11
2776.6532138522097739
 21
80.136542498392231
 31
0.0
  0
LINE
  5
4243E
  8
0
 10
2776.6532138522097739
 20
80.136542498392231
 30
0.0
 11
2776.6728988916102026
 21
80.136542498392231
 31
0.0
  0
LINE
  5
4243F
  8
0
 10
2776.6728988916102026
 20
80.136542498392231
 30
0.0
 11
2776.6827414113108716
 21
80.1348868094922153
 31
0.0
  0
LINE
  5
42440
  8
0
 10
2776.6827414113108716
 20
80.1348868094922153
 30
0.0
 11
2776.6728988916102026
 21
80.1332311204922263
 31
0.0
  0
LINE
  5
42441
  8
0
 10
2776.6728988916102026
 20
80.1332311204922263
 30
0.0
 11
2776.6532138522097739
 21
80.1332311204922263
 31
0.0
  0
LINE
  5
42442
  8
0
 10
2776.6532138522097739
 20
80.1332311204922263
 30
0.0
 11
2776.6433713325100143
 21
80.1348868094922153
 31
0.0
  0
LINE
  5
42443
  8
0
 10
2776.6532138522097739
 20
80.136542498392231
 30
0.0
 11
2776.6532138522097739
 21
80.1332311204922263
 31
0.0
  0
LINE
  5
42444
  8
0
 10
2776.6728988916102026
 20
80.136542498392231
 30
0.0
 11
2776.6728988916102026
 21
80.1332311204922263
 31
0.0
  0
LINE
  5
42445
  8
0
 10
2776.6433713325100143
 20
80.140294266992214
 30
0.0
 11
2776.6532138522097739
 21
80.1419499558922297
 31
0.0
  0
LINE
  5
42446
  8
0
 10
2776.6532138522097739
 20
80.1419499558922297
 30
0.0
 11
2776.6728988916102026
 21
80.1419499558922297
 31
0.0
  0
LINE
  5
42447
  8
0
 10
2776.6728988916102026
 20
80.1419499558922297
 30
0.0
 11
2776.6827414113108716
 21
80.140294266992214
 31
0.0
  0
LINE
  5
42448
  8
0
 10
2776.6827414113108716
 20
80.140294266992214
 30
0.0
 11
2776.6728988916102026
 21
80.138638577992225
 31
0.0
  0
LINE
  5
42449
  8
0
 10
2776.6728988916102026
 20
80.138638577992225
 30
0.0
 11
2776.6532138522097739
 21
80.138638577992225
 31
0.0
  0
LINE
  5
4244A
  8
0
 10
2776.6532138522097739
 20
80.138638577992225
 30
0.0
 11
2776.6433713325100143
 21
80.140294266992214
 31
0.0
  0
LINE
  5
4244B
  8
0
 10
2776.6532138522097739
 20
80.1419499558922297
 30
0.0
 11
2776.6532138522097739
 21
80.138638577992225
 31
0.0
  0
LINE
  5
4244C
  8
0
 10
2776.6728988916102026
 20
80.1419499558922297
 30
0.0
 11
2776.6728988916102026
 21
80.138638577992225
 31
0.0
  0
LINE
  5
4244D
  8
0
 10
2776.6433713325100143
 20
80.145701724492227
 30
0.0
 11
2776.6532138522097739
 21
80.1473574133922142
 31
0.0
  0
LINE
  5
4244E
  8
0
 10
2776.6532138522097739
 20
80.1473574133922142
 30
0.0
 11
2776.6728988916102026
 21
80.1473574133922142
 31
0.0
  0
LINE
  5
4244F
  8
0
 10
2776.6728988916102026
 20
80.1473574133922142
 30
0.0
 11
2776.6827414113108716
 21
80.145701724492227
 31
0.0
  0
LINE
  5
42450
  8
0
 10
2776.6827414113108716
 20
80.145701724492227
 30
0.0
 11
2776.6728988916102026
 21
80.1440460354922237
 31
0.0
  0
LINE
  5
42451
  8
0
 10
2776.6728988916102026
 20
80.1440460354922237
 30
0.0
 11
2776.6532138522097739
 21
80.1440460354922237
 31
0.0
  0
LINE
  5
42452
  8
0
 10
2776.6532138522097739
 20
80.1440460354922237
 30
0.0
 11
2776.6433713325100143
 21
80.145701724492227
 31
0.0
  0
LINE
  5
42453
  8
0
 10
2776.6532138522097739
 20
80.1473574133922142
 30
0.0
 11
2776.6532138522097739
 21
80.1440460354922237
 31
0.0
  0
LINE
  5
42454
  8
0
 10
2776.6728988916102026
 20
80.1473574133922142
 30
0.0
 11
2776.6728988916102026
 21
80.1440460354922237
 31
0.0
  0
LINE
  5
42455
  8
0
 10
2776.6433713325100143
 20
80.1511091818922239
 30
0.0
 11
2776.6532138522097739
 21
80.1527648707922253
 31
0.0
  0
LINE
  5
42456
  8
0
 10
2776.6532138522097739
 20
80.1527648707922253
 30
0.0
 11
2776.6728988916102026
 21
80.1527648707922253
 31
0.0
  0
LINE
  5
42457
  8
0
 10
2776.6728988916102026
 20
80.1527648707922253
 30
0.0
 11
2776.6827414113108716
 21
80.1511091818922239
 31
0.0
  0
LINE
  5
42458
  8
0
 10
2776.6827414113108716
 20
80.1511091818922239
 30
0.0
 11
2776.6728988916102026
 21
80.1494534928922349
 31
0.0
  0
LINE
  5
42459
  8
0
 10
2776.6728988916102026
 20
80.1494534928922349
 30
0.0
 11
2776.6532138522097739
 21
80.1494534928922349
 31
0.0
  0
LINE
  5
4245A
  8
0
 10
2776.6532138522097739
 20
80.1494534928922349
 30
0.0
 11
2776.6433713325100143
 21
80.1511091818922239
 31
0.0
  0
LINE
  5
4245B
  8
0
 10
2776.6532138522097739
 20
80.1527648707922253
 30
0.0
 11
2776.6532138522097739
 21
80.1494534928922349
 31
0.0
  0
LINE
  5
4245C
  8
0
 10
2776.6728988916102026
 20
80.1527648707922253
 30
0.0
 11
2776.6728988916102026
 21
80.1494534928922349
 31
0.0
  0
LINE
  5
4245D
  8
0
 10
2776.6433713325100143
 20
80.1565166393922368
 30
0.0
 11
2776.6532138522097739
 21
80.1581723282922383
 31
0.0
  0
LINE
  5
4245E
  8
0
 10
2776.6532138522097739
 20
80.1581723282922383
 30
0.0
 11
2776.6728988916102026
 21
80.1581723282922383
 31
0.0
  0
LINE
  5
4245F
  8
0
 10
2776.6728988916102026
 20
80.1581723282922383
 30
0.0
 11
2776.6827414113108716
 21
80.1565166393922368
 31
0.0
  0
LINE
  5
42460
  8
0
 10
2776.6827414113108716
 20
80.1565166393922368
 30
0.0
 11
2776.6728988916102026
 21
80.1548609503922336
 31
0.0
  0
LINE
  5
42461
  8
0
 10
2776.6728988916102026
 20
80.1548609503922336
 30
0.0
 11
2776.6532138522097739
 21
80.1548609503922336
 31
0.0
  0
LINE
  5
42462
  8
0
 10
2776.6532138522097739
 20
80.1548609503922336
 30
0.0
 11
2776.6433713325100143
 21
80.1565166393922368
 31
0.0
  0
LINE
  5
42463
  8
0
 10
2776.6532138522097739
 20
80.1581723282922383
 30
0.0
 11
2776.6532138522097739
 21
80.1548609503922336
 31
0.0
  0
LINE
  5
42464
  8
0
 10
2776.6728988916102026
 20
80.1581723282922383
 30
0.0
 11
2776.6728988916102026
 21
80.1548609503922336
 31
0.0
  0
LINE
  5
42465
  8
0
 10
2776.6712101821099168
 20
80.1321830807922169
 30
0.0
 11
2776.6810527018101311
 21
80.1338387696922325
 31
0.0
  0
LINE
  5
42466
  8
0
 10
2776.6810527018101311
 20
80.1338387696922325
 30
0.0
 11
2776.700737741210105
 21
80.1338387696922325
 31
0.0
  0
LINE
  5
42467
  8
0
 10
2776.700737741210105
 20
80.1338387696922325
 30
0.0
 11
2776.7105802609107741
 21
80.1321830807922169
 31
0.0
  0
LINE
  5
42468
  8
0
 10
2776.7105802609107741
 20
80.1321830807922169
 30
0.0
 11
2776.700737741210105
 21
80.1305273917922136
 31
0.0
  0
LINE
  5
42469
  8
0
 10
2776.700737741210105
 20
80.1305273917922136
 30
0.0
 11
2776.6810527018101311
 21
80.1305273917922136
 31
0.0
  0
LINE
  5
4246A
  8
0
 10
2776.6810527018101311
 20
80.1305273917922136
 30
0.0
 11
2776.6712101821099168
 21
80.1321830807922169
 31
0.0
  0
LINE
  5
4246B
  8
0
 10
2776.6810527018101311
 20
80.1338387696922325
 30
0.0
 11
2776.6810527018101311
 21
80.1305273917922136
 31
0.0
  0
LINE
  5
4246C
  8
0
 10
2776.700737741210105
 20
80.1338387696922325
 30
0.0
 11
2776.700737741210105
 21
80.1305273917922136
 31
0.0
  0
LINE
  5
4246D
  8
0
 10
2776.6712101821099168
 20
80.137590538192228
 30
0.0
 11
2776.6810527018101311
 21
80.1392462270922437
 31
0.0
  0
LINE
  5
4246E
  8
0
 10
2776.6810527018101311
 20
80.1392462270922437
 30
0.0
 11
2776.700737741210105
 21
80.1392462270922437
 31
0.0
  0
LINE
  5
4246F
  8
0
 10
2776.700737741210105
 20
80.1392462270922437
 30
0.0
 11
2776.7105802609107741
 21
80.137590538192228
 31
0.0
  0
LINE
  5
42470
  8
0
 10
2776.7105802609107741
 20
80.137590538192228
 30
0.0
 11
2776.700737741210105
 21
80.1359348491922248
 31
0.0
  0
LINE
  5
42471
  8
0
 10
2776.700737741210105
 20
80.1359348491922248
 30
0.0
 11
2776.6810527018101311
 21
80.1359348491922248
 31
0.0
  0
LINE
  5
42472
  8
0
 10
2776.6810527018101311
 20
80.1359348491922248
 30
0.0
 11
2776.6712101821099168
 21
80.137590538192228
 31
0.0
  0
LINE
  5
42473
  8
0
 10
2776.6810527018101311
 20
80.1392462270922437
 30
0.0
 11
2776.6810527018101311
 21
80.1359348491922248
 31
0.0
  0
LINE
  5
42474
  8
0
 10
2776.700737741210105
 20
80.1392462270922437
 30
0.0
 11
2776.700737741210105
 21
80.1359348491922248
 31
0.0
  0
LINE
  5
42475
  8
0
 10
2776.6712101821099168
 20
80.1429979956922267
 30
0.0
 11
2776.6810527018101311
 21
80.1446536845922282
 31
0.0
  0
LINE
  5
42476
  8
0
 10
2776.6810527018101311
 20
80.1446536845922282
 30
0.0
 11
2776.700737741210105
 21
80.1446536845922282
 31
0.0
  0
LINE
  5
42477
  8
0
 10
2776.700737741210105
 20
80.1446536845922282
 30
0.0
 11
2776.7105802609107741
 21
80.1429979956922267
 31
0.0
  0
LINE
  5
42478
  8
0
 10
2776.7105802609107741
 20
80.1429979956922267
 30
0.0
 11
2776.700737741210105
 21
80.1413423066922235
 31
0.0
  0
LINE
  5
42479
  8
0
 10
2776.700737741210105
 20
80.1413423066922235
 30
0.0
 11
2776.6810527018101311
 21
80.1413423066922235
 31
0.0
  0
LINE
  5
4247A
  8
0
 10
2776.6810527018101311
 20
80.1413423066922235
 30
0.0
 11
2776.6712101821099168
 21
80.1429979956922267
 31
0.0
  0
LINE
  5
4247B
  8
0
 10
2776.6810527018101311
 20
80.1446536845922282
 30
0.0
 11
2776.6810527018101311
 21
80.1413423066922235
 31
0.0
  0
LINE
  5
4247C
  8
0
 10
2776.700737741210105
 20
80.1446536845922282
 30
0.0
 11
2776.700737741210105
 21
80.1413423066922235
 31
0.0
  0
LINE
  5
4247D
  8
0
 10
2776.6712101821099168
 20
80.1484054531922254
 30
0.0
 11
2776.6810527018101311
 21
80.1500611420922269
 31
0.0
  0
LINE
  5
4247E
  8
0
 10
2776.6810527018101311
 20
80.1500611420922269
 30
0.0
 11
2776.700737741210105
 21
80.1500611420922269
 31
0.0
  0
LINE
  5
4247F
  8
0
 10
2776.700737741210105
 20
80.1500611420922269
 30
0.0
 11
2776.7105802609107741
 21
80.1484054531922254
 31
0.0
  0
LINE
  5
42480
  8
0
 10
2776.7105802609107741
 20
80.1484054531922254
 30
0.0
 11
2776.700737741210105
 21
80.1467497641922364
 31
0.0
  0
LINE
  5
42481
  8
0
 10
2776.700737741210105
 20
80.1467497641922364
 30
0.0
 11
2776.6810527018101311
 21
80.1467497641922364
 31
0.0
  0
LINE
  5
42482
  8
0
 10
2776.6810527018101311
 20
80.1467497641922364
 30
0.0
 11
2776.6712101821099168
 21
80.1484054531922254
 31
0.0
  0
LINE
  5
42483
  8
0
 10
2776.6810527018101311
 20
80.1500611420922269
 30
0.0
 11
2776.6810527018101311
 21
80.1467497641922364
 31
0.0
  0
LINE
  5
42484
  8
0
 10
2776.700737741210105
 20
80.1500611420922269
 30
0.0
 11
2776.700737741210105
 21
80.1467497641922364
 31
0.0
  0
LINE
  5
42485
  8
0
 10
2776.6712101821099168
 20
80.1538129106922241
 30
0.0
 11
2776.6810527018101311
 21
80.1554685995922256
 31
0.0
  0
LINE
  5
42486
  8
0
 10
2776.6810527018101311
 20
80.1554685995922256
 30
0.0
 11
2776.700737741210105
 21
80.1554685995922256
 31
0.0
  0
LINE
  5
42487
  8
0
 10
2776.700737741210105
 20
80.1554685995922256
 30
0.0
 11
2776.7105802609107741
 21
80.1538129106922241
 31
0.0
  0
LINE
  5
42488
  8
0
 10
2776.7105802609107741
 20
80.1538129106922241
 30
0.0
 11
2776.700737741210105
 21
80.1521572216922351
 31
0.0
  0
LINE
  5
42489
  8
0
 10
2776.700737741210105
 20
80.1521572216922351
 30
0.0
 11
2776.6810527018101311
 21
80.1521572216922351
 31
0.0
  0
LINE
  5
4248A
  8
0
 10
2776.6810527018101311
 20
80.1521572216922351
 30
0.0
 11
2776.6712101821099168
 21
80.1538129106922241
 31
0.0
  0
LINE
  5
4248B
  8
0
 10
2776.6810527018101311
 20
80.1554685995922256
 30
0.0
 11
2776.6810527018101311
 21
80.1521572216922351
 31
0.0
  0
LINE
  5
4248C
  8
0
 10
2776.700737741210105
 20
80.1554685995922256
 30
0.0
 11
2776.700737741210105
 21
80.1521572216922351
 31
0.0
  0
LINE
  5
4248D
  8
0
 10
2776.6712101821099168
 20
80.1592203680922353
 30
0.0
 11
2776.6810527018101311
 21
80.1608760569922367
 31
0.0
  0
LINE
  5
4248E
  8
0
 10
2776.6810527018101311
 20
80.1608760569922367
 30
0.0
 11
2776.700737741210105
 21
80.1608760569922367
 31
0.0
  0
LINE
  5
4248F
  8
0
 10
2776.700737741210105
 20
80.1608760569922367
 30
0.0
 11
2776.7105802609107741
 21
80.1592203680922353
 31
0.0
  0
LINE
  5
42490
  8
0
 10
2776.7105802609107741
 20
80.1592203680922353
 30
0.0
 11
2776.700737741210105
 21
80.157564679092232
 31
0.0
  0
LINE
  5
42491
  8
0
 10
2776.700737741210105
 20
80.157564679092232
 30
0.0
 11
2776.6810527018101311
 21
80.157564679092232
 31
0.0
  0
LINE
  5
42492
  8
0
 10
2776.6810527018101311
 20
80.157564679092232
 30
0.0
 11
2776.6712101821099168
 21
80.1592203680922353
 31
0.0
  0
LINE
  5
42493
  8
0
 10
2776.6810527018101311
 20
80.1608760569922367
 30
0.0
 11
2776.6810527018101311
 21
80.157564679092232
 31
0.0
  0
LINE
  5
42494
  8
0
 10
2776.700737741210105
 20
80.1608760569922367
 30
0.0
 11
2776.700737741210105
 21
80.157564679092232
 31
0.0
  0
LINE
  5
42495
  8
0
 10
2776.6990490318098637
 20
80.1619240968922355
 30
0.0
 11
2776.7088915515109875
 21
80.1632384171787322
 31
0.0
  0
LINE
  5
42496
  8
0
 10
2776.7088915515109875
 20
80.1632384171787322
 30
0.0
 11
2776.7285765908100075
 21
80.1631422480922282
 31
0.0
  0
LINE
  5
42497
  8
0
 10
2776.7285765908100075
 20
80.1631422480922282
 30
0.0
 11
2776.7384191106111757
 21
80.1619240968922355
 31
0.0
  0
LINE
  5
42498
  8
0
 10
2776.7384191106111757
 20
80.1619240968922355
 30
0.0
 11
2776.7285765909100519
 21
80.1602684078922323
 31
0.0
  0
LINE
  5
42499
  8
0
 10
2776.7285765909100519
 20
80.1602684078922323
 30
0.0
 11
2776.7088915515109875
 21
80.1602684078922323
 31
0.0
  0
LINE
  5
4249A
  8
0
 10
2776.7088915515109875
 20
80.1602684078922323
 30
0.0
 11
2776.6990490318098637
 21
80.1619240968922355
 31
0.0
  0
LINE
  5
4249B
  8
0
 10
2776.7088915515109875
 20
80.1632384171787322
 30
0.0
 11
2776.7088915515109875
 21
80.1602684078922323
 31
0.0
  0
LINE
  5
4249C
  8
0
 10
2776.7285765908100075
 20
80.1631422480922282
 30
0.0
 11
2776.7285765909100519
 21
80.1602684078922323
 31
0.0
  0
LINE
  5
4249D
  8
0
 10
2776.6990490318098637
 20
80.1565166393922368
 30
0.0
 11
2776.7088915515109875
 21
80.1581723282922383
 31
0.0
  0
LINE
  5
4249E
  8
0
 10
2776.7088915515109875
 20
80.1581723282922383
 30
0.0
 11
2776.7285765909100519
 21
80.1581723282922383
 31
0.0
  0
LINE
  5
4249F
  8
0
 10
2776.7285765909100519
 20
80.1581723282922383
 30
0.0
 11
2776.7384191106111757
 21
80.1565166393922368
 31
0.0
  0
LINE
  5
424A0
  8
0
 10
2776.7384191106111757
 20
80.1565166393922368
 30
0.0
 11
2776.7285765909100519
 21
80.1548609503922336
 31
0.0
  0
LINE
  5
424A1
  8
0
 10
2776.7285765909100519
 20
80.1548609503922336
 30
0.0
 11
2776.7088915515109875
 21
80.1548609503922336
 31
0.0
  0
LINE
  5
424A2
  8
0
 10
2776.7088915515109875
 20
80.1548609503922336
 30
0.0
 11
2776.6990490318098637
 21
80.1565166393922368
 31
0.0
  0
LINE
  5
424A3
  8
0
 10
2776.7088915515109875
 20
80.1581723282922383
 30
0.0
 11
2776.7088915515109875
 21
80.1548609503922336
 31
0.0
  0
LINE
  5
424A4
  8
0
 10
2776.7285765909100519
 20
80.1581723282922383
 30
0.0
 11
2776.7285765909100519
 21
80.1548609503922336
 31
0.0
  0
LINE
  5
424A5
  8
0
 10
2776.6990490318098637
 20
80.1511091818922239
 30
0.0
 11
2776.7088915515109875
 21
80.1527648707922253
 31
0.0
  0
LINE
  5
424A6
  8
0
 10
2776.7088915515109875
 20
80.1527648707922253
 30
0.0
 11
2776.7285765909100519
 21
80.1527648707922253
 31
0.0
  0
LINE
  5
424A7
  8
0
 10
2776.7285765909100519
 20
80.1527648707922253
 30
0.0
 11
2776.7384191106111757
 21
80.1511091818922239
 31
0.0
  0
LINE
  5
424A8
  8
0
 10
2776.7384191106111757
 20
80.1511091818922239
 30
0.0
 11
2776.7285765909100519
 21
80.1494534928922349
 31
0.0
  0
LINE
  5
424A9
  8
0
 10
2776.7285765909100519
 20
80.1494534928922349
 30
0.0
 11
2776.7088915515109875
 21
80.1494534928922349
 31
0.0
  0
LINE
  5
424AA
  8
0
 10
2776.7088915515109875
 20
80.1494534928922349
 30
0.0
 11
2776.6990490318098637
 21
80.1511091818922239
 31
0.0
  0
LINE
  5
424AB
  8
0
 10
2776.7088915515109875
 20
80.1527648707922253
 30
0.0
 11
2776.7088915515109875
 21
80.1494534928922349
 31
0.0
  0
LINE
  5
424AC
  8
0
 10
2776.7285765909100519
 20
80.1527648707922253
 30
0.0
 11
2776.7285765909100519
 21
80.1494534928922349
 31
0.0
  0
LINE
  5
424AD
  8
0
 10
2776.6990490318098637
 20
80.145701724492227
 30
0.0
 11
2776.7088915515109875
 21
80.1473574133922142
 31
0.0
  0
LINE
  5
424AE
  8
0
 10
2776.7088915515109875
 20
80.1473574133922142
 30
0.0
 11
2776.7285765909100519
 21
80.1473574133922142
 31
0.0
  0
LINE
  5
424AF
  8
0
 10
2776.7285765909100519
 20
80.1473574133922142
 30
0.0
 11
2776.7384191106111757
 21
80.145701724492227
 31
0.0
  0
LINE
  5
424B0
  8
0
 10
2776.7384191106111757
 20
80.145701724492227
 30
0.0
 11
2776.7285765909100519
 21
80.1440460354922237
 31
0.0
  0
LINE
  5
424B1
  8
0
 10
2776.7285765909100519
 20
80.1440460354922237
 30
0.0
 11
2776.7088915515109875
 21
80.1440460354922237
 31
0.0
  0
LINE
  5
424B2
  8
0
 10
2776.7088915515109875
 20
80.1440460354922237
 30
0.0
 11
2776.6990490318098637
 21
80.145701724492227
 31
0.0
  0
LINE
  5
424B3
  8
0
 10
2776.7088915515109875
 20
80.1473574133922142
 30
0.0
 11
2776.7088915515109875
 21
80.1440460354922237
 31
0.0
  0
LINE
  5
424B4
  8
0
 10
2776.7285765909100519
 20
80.1473574133922142
 30
0.0
 11
2776.7285765909100519
 21
80.1440460354922237
 31
0.0
  0
LINE
  5
424B5
  8
0
 10
2776.6990490318098637
 20
80.140294266992214
 30
0.0
 11
2776.7088915515109875
 21
80.1419499558922297
 31
0.0
  0
LINE
  5
424B6
  8
0
 10
2776.7088915515109875
 20
80.1419499558922297
 30
0.0
 11
2776.7285765909100519
 21
80.1419499558922297
 31
0.0
  0
LINE
  5
424B7
  8
0
 10
2776.7285765909100519
 20
80.1419499558922297
 30
0.0
 11
2776.7384191106111757
 21
80.140294266992214
 31
0.0
  0
LINE
  5
424B8
  8
0
 10
2776.7384191106111757
 20
80.140294266992214
 30
0.0
 11
2776.7285765909100519
 21
80.138638577992225
 31
0.0
  0
LINE
  5
424B9
  8
0
 10
2776.7285765909100519
 20
80.138638577992225
 30
0.0
 11
2776.7088915515109875
 21
80.138638577992225
 31
0.0
  0
LINE
  5
424BA
  8
0
 10
2776.7088915515109875
 20
80.138638577992225
 30
0.0
 11
2776.6990490318098637
 21
80.140294266992214
 31
0.0
  0
LINE
  5
424BB
  8
0
 10
2776.7088915515109875
 20
80.1419499558922297
 30
0.0
 11
2776.7088915515109875
 21
80.138638577992225
 31
0.0
  0
LINE
  5
424BC
  8
0
 10
2776.7285765909100519
 20
80.1419499558922297
 30
0.0
 11
2776.7285765909100519
 21
80.138638577992225
 31
0.0
  0
LINE
  5
424BD
  8
0
 10
2776.6990490318098637
 20
80.1348868094922153
 30
0.0
 11
2776.7088915515109875
 21
80.136542498392231
 31
0.0
  0
LINE
  5
424BE
  8
0
 10
2776.7088915515109875
 20
80.136542498392231
 30
0.0
 11
2776.7285765909100519
 21
80.136542498392231
 31
0.0
  0
LINE
  5
424BF
  8
0
 10
2776.7285765909100519
 20
80.136542498392231
 30
0.0
 11
2776.7384191106111757
 21
80.1348868094922153
 31
0.0
  0
LINE
  5
424C0
  8
0
 10
2776.7384191106111757
 20
80.1348868094922153
 30
0.0
 11
2776.7285765909100519
 21
80.1332311204922263
 31
0.0
  0
LINE
  5
424C1
  8
0
 10
2776.7285765909100519
 20
80.1332311204922263
 30
0.0
 11
2776.7088915515109875
 21
80.1332311204922263
 31
0.0
  0
LINE
  5
424C2
  8
0
 10
2776.7088915515109875
 20
80.1332311204922263
 30
0.0
 11
2776.6990490318098637
 21
80.1348868094922153
 31
0.0
  0
LINE
  5
424C3
  8
0
 10
2776.7088915515109875
 20
80.136542498392231
 30
0.0
 11
2776.7088915515109875
 21
80.1332311204922263
 31
0.0
  0
LINE
  5
424C4
  8
0
 10
2776.7285765909100519
 20
80.136542498392231
 30
0.0
 11
2776.7285765909100519
 21
80.1332311204922263
 31
0.0
  0
LINE
  5
424C5
  8
0
 10
2776.7268878814111304
 20
80.1321830807922169
 30
0.0
 11
2776.7367304011108899
 21
80.1338387696922325
 31
0.0
  0
LINE
  5
424C6
  8
0
 10
2776.7367304011108899
 20
80.1338387696922325
 30
0.0
 11
2776.7564154405108638
 21
80.1338387696922325
 31
0.0
  0
LINE
  5
424C7
  8
0
 10
2776.7564154405108638
 20
80.1338387696922325
 30
0.0
 11
2776.7662579602101687
 21
80.1321830807922169
 31
0.0
  0
LINE
  5
424C8
  8
0
 10
2776.7662579602101687
 20
80.1321830807922169
 30
0.0
 11
2776.7564154405108638
 21
80.1305273917922136
 31
0.0
  0
LINE
  5
424C9
  8
0
 10
2776.7564154405108638
 20
80.1305273917922136
 30
0.0
 11
2776.7367304011108899
 21
80.1305273917922136
 31
0.0
  0
LINE
  5
424CA
  8
0
 10
2776.7367304011108899
 20
80.1305273917922136
 30
0.0
 11
2776.7268878814111304
 21
80.1321830807922169
 31
0.0
  0
LINE
  5
424CB
  8
0
 10
2776.7367304011108899
 20
80.1338387696922325
 30
0.0
 11
2776.7367304011108899
 21
80.1305273917922136
 31
0.0
  0
LINE
  5
424CC
  8
0
 10
2776.7564154405108638
 20
80.1338387696922325
 30
0.0
 11
2776.7564154405108638
 21
80.1305273917922136
 31
0.0
  0
LINE
  5
424CD
  8
0
 10
2776.7268878814111304
 20
80.137590538192228
 30
0.0
 11
2776.7367304011108899
 21
80.1392462270922437
 31
0.0
  0
LINE
  5
424CE
  8
0
 10
2776.7367304011108899
 20
80.1392462270922437
 30
0.0
 11
2776.7564154405108638
 21
80.1392462270922437
 31
0.0
  0
LINE
  5
424CF
  8
0
 10
2776.7564154405108638
 20
80.1392462270922437
 30
0.0
 11
2776.7662579602101687
 21
80.137590538192228
 31
0.0
  0
LINE
  5
424D0
  8
0
 10
2776.7662579602101687
 20
80.137590538192228
 30
0.0
 11
2776.7564154405108638
 21
80.1359348491922248
 31
0.0
  0
LINE
  5
424D1
  8
0
 10
2776.7564154405108638
 20
80.1359348491922248
 30
0.0
 11
2776.7367304011108899
 21
80.1359348491922248
 31
0.0
  0
LINE
  5
424D2
  8
0
 10
2776.7367304011108899
 20
80.1359348491922248
 30
0.0
 11
2776.7268878814111304
 21
80.137590538192228
 31
0.0
  0
LINE
  5
424D3
  8
0
 10
2776.7367304011108899
 20
80.1392462270922437
 30
0.0
 11
2776.7367304011108899
 21
80.1359348491922248
 31
0.0
  0
LINE
  5
424D4
  8
0
 10
2776.7564154405108638
 20
80.1392462270922437
 30
0.0
 11
2776.7564154405108638
 21
80.1359348491922248
 31
0.0
  0
LINE
  5
424D5
  8
0
 10
2776.7268878814111304
 20
80.1429979956922267
 30
0.0
 11
2776.7367304011108899
 21
80.1446536845922282
 31
0.0
  0
LINE
  5
424D6
  8
0
 10
2776.7367304011108899
 20
80.1446536845922282
 30
0.0
 11
2776.7564154405108638
 21
80.1446536845922282
 31
0.0
  0
LINE
  5
424D7
  8
0
 10
2776.7564154405108638
 20
80.1446536845922282
 30
0.0
 11
2776.7662579602101687
 21
80.1429979956922267
 31
0.0
  0
LINE
  5
424D8
  8
0
 10
2776.7662579602101687
 20
80.1429979956922267
 30
0.0
 11
2776.7564154405108638
 21
80.1413423066922235
 31
0.0
  0
LINE
  5
424D9
  8
0
 10
2776.7564154405108638
 20
80.1413423066922235
 30
0.0
 11
2776.7367304011108899
 21
80.1413423066922235
 31
0.0
  0
LINE
  5
424DA
  8
0
 10
2776.7367304011108899
 20
80.1413423066922235
 30
0.0
 11
2776.7268878814111304
 21
80.1429979956922267
 31
0.0
  0
LINE
  5
424DB
  8
0
 10
2776.7367304011108899
 20
80.1446536845922282
 30
0.0
 11
2776.7367304011108899
 21
80.1413423066922235
 31
0.0
  0
LINE
  5
424DC
  8
0
 10
2776.7564154405108638
 20
80.1446536845922282
 30
0.0
 11
2776.7564154405108638
 21
80.1413423066922235
 31
0.0
  0
LINE
  5
424DD
  8
0
 10
2776.7268878814111304
 20
80.1484054531922254
 30
0.0
 11
2776.7367304011108899
 21
80.1500611420922269
 31
0.0
  0
LINE
  5
424DE
  8
0
 10
2776.7367304011108899
 20
80.1500611420922269
 30
0.0
 11
2776.7564154405108638
 21
80.1500611420922269
 31
0.0
  0
LINE
  5
424DF
  8
0
 10
2776.7564154405108638
 20
80.1500611420922269
 30
0.0
 11
2776.7662579602101687
 21
80.1484054531922254
 31
0.0
  0
LINE
  5
424E0
  8
0
 10
2776.7662579602101687
 20
80.1484054531922254
 30
0.0
 11
2776.7564154405108638
 21
80.1467497641922364
 31
0.0
  0
LINE
  5
424E1
  8
0
 10
2776.7564154405108638
 20
80.1467497641922364
 30
0.0
 11
2776.7367304011108899
 21
80.1467497641922364
 31
0.0
  0
LINE
  5
424E2
  8
0
 10
2776.7367304011108899
 20
80.1467497641922364
 30
0.0
 11
2776.7268878814111304
 21
80.1484054531922254
 31
0.0
  0
LINE
  5
424E3
  8
0
 10
2776.7367304011108899
 20
80.1500611420922269
 30
0.0
 11
2776.7367304011108899
 21
80.1467497641922364
 31
0.0
  0
LINE
  5
424E4
  8
0
 10
2776.7564154405108638
 20
80.1500611420922269
 30
0.0
 11
2776.7564154405108638
 21
80.1467497641922364
 31
0.0
  0
LINE
  5
424E5
  8
0
 10
2776.7268878814111304
 20
80.1538129106922241
 30
0.0
 11
2776.7367304011108899
 21
80.1554685995922256
 31
0.0
  0
LINE
  5
424E6
  8
0
 10
2776.7367304011108899
 20
80.1554685995922256
 30
0.0
 11
2776.7564154405108638
 21
80.1554685995922256
 31
0.0
  0
LINE
  5
424E7
  8
0
 10
2776.7564154405108638
 20
80.1554685995922256
 30
0.0
 11
2776.7662579602101687
 21
80.1538129106922241
 31
0.0
  0
LINE
  5
424E8
  8
0
 10
2776.7662579602101687
 20
80.1538129106922241
 30
0.0
 11
2776.7564154405108638
 21
80.1521572216922351
 31
0.0
  0
LINE
  5
424E9
  8
0
 10
2776.7564154405108638
 20
80.1521572216922351
 30
0.0
 11
2776.7367304011108899
 21
80.1521572216922351
 31
0.0
  0
LINE
  5
424EA
  8
0
 10
2776.7367304011108899
 20
80.1521572216922351
 30
0.0
 11
2776.7268878814111304
 21
80.1538129106922241
 31
0.0
  0
LINE
  5
424EB
  8
0
 10
2776.7367304011108899
 20
80.1554685995922256
 30
0.0
 11
2776.7367304011108899
 21
80.1521572216922351
 31
0.0
  0
LINE
  5
424EC
  8
0
 10
2776.7564154405108638
 20
80.1554685995922256
 30
0.0
 11
2776.7564154405108638
 21
80.1521572216922351
 31
0.0
  0
LINE
  5
424ED
  8
0
 10
2776.7268878814111304
 20
80.1592203680922353
 30
0.0
 11
2776.7367304011108899
 21
80.1608760569922367
 31
0.0
  0
LINE
  5
424EE
  8
0
 10
2776.7367304011108899
 20
80.1608760569922367
 30
0.0
 11
2776.7564154405108638
 21
80.1608760569922367
 31
0.0
  0
LINE
  5
424EF
  8
0
 10
2776.7564154405108638
 20
80.1608760569922367
 30
0.0
 11
2776.7662579602101687
 21
80.1592203680922353
 31
0.0
  0
LINE
  5
424F0
  8
0
 10
2776.7662579602101687
 20
80.1592203680922353
 30
0.0
 11
2776.7564154405108638
 21
80.157564679092232
 31
0.0
  0
LINE
  5
424F1
  8
0
 10
2776.7564154405108638
 20
80.157564679092232
 30
0.0
 11
2776.7367304011108899
 21
80.157564679092232
 31
0.0
  0
LINE
  5
424F2
  8
0
 10
2776.7367304011108899
 20
80.157564679092232
 30
0.0
 11
2776.7268878814111304
 21
80.1592203680922353
 31
0.0
  0
LINE
  5
424F3
  8
0
 10
2776.7367304011108899
 20
80.1608760569922367
 30
0.0
 11
2776.7367304011108899
 21
80.157564679092232
 31
0.0
  0
LINE
  5
424F4
  8
0
 10
2776.7564154405108638
 20
80.1608760569922367
 30
0.0
 11
2776.7564154405108638
 21
80.157564679092232
 31
0.0
  0
LINE
  5
424F5
  8
0
 10
2776.7547267311101677
 20
80.1565166393922368
 30
0.0
 11
2776.7645692508099273
 21
80.1581723282922383
 31
0.0
  0
LINE
  5
424F6
  8
0
 10
2776.7645692508099273
 20
80.1581723282922383
 30
0.0
 11
2776.7842542902108107
 21
80.1581723282922383
 31
0.0
  0
LINE
  5
424F7
  8
0
 10
2776.7842542902108107
 20
80.1581723282922383
 30
0.0
 11
2776.7940968099101156
 21
80.1565166393922368
 31
0.0
  0
LINE
  5
424F8
  8
0
 10
2776.7940968099101156
 20
80.1565166393922368
 30
0.0
 11
2776.7842542902108107
 21
80.1548609503922336
 31
0.0
  0
LINE
  5
424F9
  8
0
 10
2776.7842542902108107
 20
80.1548609503922336
 30
0.0
 11
2776.7645692508099273
 21
80.1548609503922336
 31
0.0
  0
LINE
  5
424FA
  8
0
 10
2776.7645692508099273
 20
80.1548609503922336
 30
0.0
 11
2776.7547267311101677
 21
80.1565166393922368
 31
0.0
  0
LINE
  5
424FB
  8
0
 10
2776.7645692508099273
 20
80.1581723282922383
 30
0.0
 11
2776.7645692508099273
 21
80.1548609503922336
 31
0.0
  0
LINE
  5
424FC
  8
0
 10
2776.7842542902108107
 20
80.1581723282922383
 30
0.0
 11
2776.7842542902108107
 21
80.1548609503922336
 31
0.0
  0
LINE
  5
424FD
  8
0
 10
2776.7547267311101677
 20
80.1511091818922239
 30
0.0
 11
2776.7645692508099273
 21
80.1527648707922253
 31
0.0
  0
LINE
  5
424FE
  8
0
 10
2776.7645692508099273
 20
80.1527648707922253
 30
0.0
 11
2776.7842542902108107
 21
80.1527648707922253
 31
0.0
  0
LINE
  5
424FF
  8
0
 10
2776.7842542902108107
 20
80.1527648707922253
 30
0.0
 11
2776.7940968099101156
 21
80.1511091818922239
 31
0.0
  0
LINE
  5
42500
  8
0
 10
2776.7940968099101156
 20
80.1511091818922239
 30
0.0
 11
2776.7842542902108107
 21
80.1494534928922349
 31
0.0
  0
LINE
  5
42501
  8
0
 10
2776.7842542902108107
 20
80.1494534928922349
 30
0.0
 11
2776.7645692508099273
 21
80.1494534928922349
 31
0.0
  0
LINE
  5
42502
  8
0
 10
2776.7645692508099273
 20
80.1494534928922349
 30
0.0
 11
2776.7547267311101677
 21
80.1511091818922239
 31
0.0
  0
LINE
  5
42503
  8
0
 10
2776.7645692508099273
 20
80.1527648707922253
 30
0.0
 11
2776.7645692508099273
 21
80.1494534928922349
 31
0.0
  0
LINE
  5
42504
  8
0
 10
2776.7842542902108107
 20
80.1527648707922253
 30
0.0
 11
2776.7842542902108107
 21
80.1494534928922349
 31
0.0
  0
LINE
  5
42505
  8
0
 10
2776.7547267311101677
 20
80.145701724492227
 30
0.0
 11
2776.7645692508099273
 21
80.1473574133922142
 31
0.0
  0
LINE
  5
42506
  8
0
 10
2776.7645692508099273
 20
80.1473574133922142
 30
0.0
 11
2776.7842542902108107
 21
80.1473574133922142
 31
0.0
  0
LINE
  5
42507
  8
0
 10
2776.7842542902108107
 20
80.1473574133922142
 30
0.0
 11
2776.7940968099101156
 21
80.145701724492227
 31
0.0
  0
LINE
  5
42508
  8
0
 10
2776.7940968099101156
 20
80.145701724492227
 30
0.0
 11
2776.7842542902108107
 21
80.1440460354922237
 31
0.0
  0
LINE
  5
42509
  8
0
 10
2776.7842542902108107
 20
80.1440460354922237
 30
0.0
 11
2776.7645692508099273
 21
80.1440460354922237
 31
0.0
  0
LINE
  5
4250A
  8
0
 10
2776.7645692508099273
 20
80.1440460354922237
 30
0.0
 11
2776.7547267311101677
 21
80.145701724492227
 31
0.0
  0
LINE
  5
4250B
  8
0
 10
2776.7645692508099273
 20
80.1473574133922142
 30
0.0
 11
2776.7645692508099273
 21
80.1440460354922237
 31
0.0
  0
LINE
  5
4250C
  8
0
 10
2776.7842542902108107
 20
80.1473574133922142
 30
0.0
 11
2776.7842542902108107
 21
80.1440460354922237
 31
0.0
  0
LINE
  5
4250D
  8
0
 10
2776.7547267311101677
 20
80.140294266992214
 30
0.0
 11
2776.7645692508099273
 21
80.1419499558922297
 31
0.0
  0
LINE
  5
4250E
  8
0
 10
2776.7645692508099273
 20
80.1419499558922297
 30
0.0
 11
2776.7842542902108107
 21
80.1419499558922297
 31
0.0
  0
LINE
  5
4250F
  8
0
 10
2776.7842542902108107
 20
80.1419499558922297
 30
0.0
 11
2776.7940968099101156
 21
80.140294266992214
 31
0.0
  0
LINE
  5
42510
  8
0
 10
2776.7940968099101156
 20
80.140294266992214
 30
0.0
 11
2776.7842542902108107
 21
80.138638577992225
 31
0.0
  0
LINE
  5
42511
  8
0
 10
2776.7842542902108107
 20
80.138638577992225
 30
0.0
 11
2776.7645692508099273
 21
80.138638577992225
 31
0.0
  0
LINE
  5
42512
  8
0
 10
2776.7645692508099273
 20
80.138638577992225
 30
0.0
 11
2776.7547267311101677
 21
80.140294266992214
 31
0.0
  0
LINE
  5
42513
  8
0
 10
2776.7645692508099273
 20
80.1419499558922297
 30
0.0
 11
2776.7645692508099273
 21
80.138638577992225
 31
0.0
  0
LINE
  5
42514
  8
0
 10
2776.7842542902108107
 20
80.1419499558922297
 30
0.0
 11
2776.7842542902108107
 21
80.138638577992225
 31
0.0
  0
LINE
  5
42515
  8
0
 10
2776.7547267311101677
 20
80.1348868094922153
 30
0.0
 11
2776.7645692508099273
 21
80.136542498392231
 31
0.0
  0
LINE
  5
42516
  8
0
 10
2776.7645692508099273
 20
80.136542498392231
 30
0.0
 11
2776.7842542902108107
 21
80.136542498392231
 31
0.0
  0
LINE
  5
42517
  8
0
 10
2776.7842542902108107
 20
80.136542498392231
 30
0.0
 11
2776.7940968099101156
 21
80.1348868094922153
 31
0.0
  0
LINE
  5
42518
  8
0
 10
2776.7940968099101156
 20
80.1348868094922153
 30
0.0
 11
2776.7842542902108107
 21
80.1332311204922263
 31
0.0
  0
LINE
  5
42519
  8
0
 10
2776.7842542902108107
 20
80.1332311204922263
 30
0.0
 11
2776.7645692508099273
 21
80.1332311204922263
 31
0.0
  0
LINE
  5
4251A
  8
0
 10
2776.7645692508099273
 20
80.1332311204922263
 30
0.0
 11
2776.7547267311101677
 21
80.1348868094922153
 31
0.0
  0
LINE
  5
4251B
  8
0
 10
2776.7645692508099273
 20
80.136542498392231
 30
0.0
 11
2776.7645692508099273
 21
80.1332311204922263
 31
0.0
  0
LINE
  5
4251C
  8
0
 10
2776.7842542902108107
 20
80.136542498392231
 30
0.0
 11
2776.7842542902108107
 21
80.1332311204922263
 31
0.0
  0
LINE
  5
4251D
  8
0
 10
2776.7825655808101146
 20
80.1592203680922353
 30
0.0
 11
2776.7924081005107837
 21
80.1608760569922367
 31
0.0
  0
LINE
  5
4251E
  8
0
 10
2776.7924081005107837
 20
80.1608760569922367
 30
0.0
 11
2776.8120931399098481
 21
80.1608760569922367
 31
0.0
  0
LINE
  5
4251F
  8
0
 10
2776.8120931399098481
 20
80.1608760569922367
 30
0.0
 11
2776.8219356596100624
 21
80.1592203680922353
 31
0.0
  0
LINE
  5
42520
  8
0
 10
2776.8219356596100624
 20
80.1592203680922353
 30
0.0
 11
2776.8120931399098481
 21
80.157564679092232
 31
0.0
  0
LINE
  5
42521
  8
0
 10
2776.8120931399098481
 20
80.157564679092232
 30
0.0
 11
2776.7924081005107837
 21
80.157564679092232
 31
0.0
  0
LINE
  5
42522
  8
0
 10
2776.7924081005107837
 20
80.157564679092232
 30
0.0
 11
2776.7825655808101146
 21
80.1592203680922353
 31
0.0
  0
LINE
  5
42523
  8
0
 10
2776.7924081005107837
 20
80.1608760569922367
 30
0.0
 11
2776.7924081005107837
 21
80.157564679092232
 31
0.0
  0
LINE
  5
42524
  8
0
 10
2776.8120931399098481
 20
80.1608760569922367
 30
0.0
 11
2776.8120931399098481
 21
80.157564679092232
 31
0.0
  0
LINE
  5
42525
  8
0
 10
2776.7825655808101146
 20
80.1538129106922241
 30
0.0
 11
2776.7924081005107837
 21
80.1554685995922256
 31
0.0
  0
LINE
  5
42526
  8
0
 10
2776.7924081005107837
 20
80.1554685995922256
 30
0.0
 11
2776.8120931399098481
 21
80.1554685995922256
 31
0.0
  0
LINE
  5
42527
  8
0
 10
2776.8120931399098481
 20
80.1554685995922256
 30
0.0
 11
2776.8219356596100624
 21
80.1538129106922241
 31
0.0
  0
LINE
  5
42528
  8
0
 10
2776.8219356596100624
 20
80.1538129106922241
 30
0.0
 11
2776.8120931399098481
 21
80.1521572216922351
 31
0.0
  0
LINE
  5
42529
  8
0
 10
2776.8120931399098481
 20
80.1521572216922351
 30
0.0
 11
2776.7924081005107837
 21
80.1521572216922351
 31
0.0
  0
LINE
  5
4252A
  8
0
 10
2776.7924081005107837
 20
80.1521572216922351
 30
0.0
 11
2776.7825655808101146
 21
80.1538129106922241
 31
0.0
  0
LINE
  5
4252B
  8
0
 10
2776.7924081005107837
 20
80.1554685995922256
 30
0.0
 11
2776.7924081005107837
 21
80.1521572216922351
 31
0.0
  0
LINE
  5
4252C
  8
0
 10
2776.8120931399098481
 20
80.1554685995922256
 30
0.0
 11
2776.8120931399098481
 21
80.1521572216922351
 31
0.0
  0
LINE
  5
4252D
  8
0
 10
2776.7825655808101146
 20
80.1484054531922254
 30
0.0
 11
2776.7924081005107837
 21
80.1500611420922269
 31
0.0
  0
LINE
  5
4252E
  8
0
 10
2776.7924081005107837
 20
80.1500611420922269
 30
0.0
 11
2776.8120931399098481
 21
80.1500611420922269
 31
0.0
  0
LINE
  5
4252F
  8
0
 10
2776.8120931399098481
 20
80.1500611420922269
 30
0.0
 11
2776.8219356596100624
 21
80.1484054531922254
 31
0.0
  0
LINE
  5
42530
  8
0
 10
2776.8219356596100624
 20
80.1484054531922254
 30
0.0
 11
2776.8120931399098481
 21
80.1467497641922364
 31
0.0
  0
LINE
  5
42531
  8
0
 10
2776.8120931399098481
 20
80.1467497641922364
 30
0.0
 11
2776.7924081005107837
 21
80.1467497641922364
 31
0.0
  0
LINE
  5
42532
  8
0
 10
2776.7924081005107837
 20
80.1467497641922364
 30
0.0
 11
2776.7825655808101146
 21
80.1484054531922254
 31
0.0
  0
LINE
  5
42533
  8
0
 10
2776.7924081005107837
 20
80.1500611420922269
 30
0.0
 11
2776.7924081005107837
 21
80.1467497641922364
 31
0.0
  0
LINE
  5
42534
  8
0
 10
2776.8120931399098481
 20
80.1500611420922269
 30
0.0
 11
2776.8120931399098481
 21
80.1467497641922364
 31
0.0
  0
LINE
  5
42535
  8
0
 10
2776.7825655808101146
 20
80.1429979956922267
 30
0.0
 11
2776.7924081005107837
 21
80.1446536845922282
 31
0.0
  0
LINE
  5
42536
  8
0
 10
2776.7924081005107837
 20
80.1446536845922282
 30
0.0
 11
2776.8120931399098481
 21
80.1446536845922282
 31
0.0
  0
LINE
  5
42537
  8
0
 10
2776.8120931399098481
 20
80.1446536845922282
 30
0.0
 11
2776.8219356596100624
 21
80.1429979956922267
 31
0.0
  0
LINE
  5
42538
  8
0
 10
2776.8219356596100624
 20
80.1429979956922267
 30
0.0
 11
2776.8120931399098481
 21
80.1413423066922235
 31
0.0
  0
LINE
  5
42539
  8
0
 10
2776.8120931399098481
 20
80.1413423066922235
 30
0.0
 11
2776.7924081005107837
 21
80.1413423066922235
 31
0.0
  0
LINE
  5
4253A
  8
0
 10
2776.7924081005107837
 20
80.1413423066922235
 30
0.0
 11
2776.7825655808101146
 21
80.1429979956922267
 31
0.0
  0
LINE
  5
4253B
  8
0
 10
2776.7924081005107837
 20
80.1446536845922282
 30
0.0
 11
2776.7924081005107837
 21
80.1413423066922235
 31
0.0
  0
LINE
  5
4253C
  8
0
 10
2776.8120931399098481
 20
80.1446536845922282
 30
0.0
 11
2776.8120931399098481
 21
80.1413423066922235
 31
0.0
  0
LINE
  5
4253D
  8
0
 10
2776.782565580787832
 20
80.1375905381885048
 30
0.0
 11
2776.7924081004880463
 21
80.139246227088492
 31
0.0
  0
LINE
  5
4253E
  8
0
 10
2776.7924081004880463
 20
80.139246227088492
 30
0.0
 11
2776.8120931398880202
 21
80.139246227088492
 31
0.0
  0
LINE
  5
4253F
  8
0
 10
2776.8120931398880202
 20
80.139246227088492
 30
0.0
 11
2776.8219356595877798
 21
80.1375905381885048
 31
0.0
  0
LINE
  5
42540
  8
0
 10
2776.8219356595877798
 20
80.1375905381885048
 30
0.0
 11
2776.8120931398880202
 21
80.1359348491884731
 31
0.0
  0
LINE
  5
42541
  8
0
 10
2776.8120931398880202
 20
80.1359348491884731
 30
0.0
 11
2776.7924081004880463
 21
80.1359348491884731
 31
0.0
  0
LINE
  5
42542
  8
0
 10
2776.7924081004880463
 20
80.1359348491884731
 30
0.0
 11
2776.782565580787832
 21
80.1375905381885048
 31
0.0
  0
LINE
  5
42543
  8
0
 10
2776.7924081004880463
 20
80.139246227088492
 30
0.0
 11
2776.7924081004880463
 21
80.1359348491884731
 31
0.0
  0
LINE
  5
42544
  8
0
 10
2776.8120931398880202
 20
80.139246227088492
 30
0.0
 11
2776.8120931398880202
 21
80.1359348491884731
 31
0.0
  0
LINE
  5
42545
  8
0
 10
2776.7826142666790474
 20
80.1321912706314237
 30
0.0
 11
2776.7924567863801713
 21
80.1338469595314251
 31
0.0
  0
LINE
  5
42546
  8
0
 10
2776.7924567863801713
 20
80.1338469595314251
 30
0.0
 11
2776.8121418257787809
 21
80.1338469595314251
 31
0.0
  0
LINE
  5
42547
  8
0
 10
2776.8121418257787809
 20
80.1338469595314251
 30
0.0
 11
2776.8219843454789952
 21
80.1321912706314237
 31
0.0
  0
LINE
  5
42548
  8
0
 10
2776.8219843454789952
 20
80.1321912706314237
 30
0.0
 11
2776.8121418257787809
 21
80.1315034921152289
 31
0.0
  0
LINE
  5
42549
  8
0
 10
2776.8121418257787809
 20
80.1315034921152289
 30
0.0
 11
2776.7924567863801713
 21
80.1305355816314346
 31
0.0
  0
LINE
  5
4254A
  8
0
 10
2776.7924567863801713
 20
80.1305355816314346
 30
0.0
 11
2776.7826142666790474
 21
80.1321912706314237
 31
0.0
  0
LINE
  5
4254B
  8
0
 10
2776.7924567863801713
 20
80.1338469595314251
 30
0.0
 11
2776.7924567863801713
 21
80.1305355816314346
 31
0.0
  0
LINE
  5
4254C
  8
0
 10
2776.8121418257787809
 20
80.1338469595314251
 30
0.0
 11
2776.8121418257787809
 21
80.1315034921152289
 31
0.0
  0
LINE
  5
4254D
  8
0
 10
2776.8104044304100171
 20
80.1565166393922368
 30
0.0
 11
2776.8202469501097767
 21
80.1581723282922383
 31
0.0
  0
LINE
  5
4254E
  8
0
 10
2776.8202469501097767
 20
80.1581723282922383
 30
0.0
 11
2776.8399319895102053
 21
80.1581723282922383
 31
0.0
  0
LINE
  5
4254F
  8
0
 10
2776.8399319895102053
 20
80.1581723282922383
 30
0.0
 11
2776.8497745092108744
 21
80.1565166393922368
 31
0.0
  0
LINE
  5
42550
  8
0
 10
2776.8497745092108744
 20
80.1565166393922368
 30
0.0
 11
2776.8399319895102053
 21
80.1548609503922336
 31
0.0
  0
LINE
  5
42551
  8
0
 10
2776.8399319895102053
 20
80.1548609503922336
 30
0.0
 11
2776.8202469501097767
 21
80.1548609503922336
 31
0.0
  0
LINE
  5
42552
  8
0
 10
2776.8202469501097767
 20
80.1548609503922336
 30
0.0
 11
2776.8104044304100171
 21
80.1565166393922368
 31
0.0
  0
LINE
  5
42553
  8
0
 10
2776.8202469501097767
 20
80.1581723282922383
 30
0.0
 11
2776.8202469501097767
 21
80.1548609503922336
 31
0.0
  0
LINE
  5
42554
  8
0
 10
2776.8399319895102053
 20
80.1581723282922383
 30
0.0
 11
2776.8399319895102053
 21
80.1548609503922336
 31
0.0
  0
LINE
  5
42555
  8
0
 10
2776.8104044304100171
 20
80.1511091818922239
 30
0.0
 11
2776.8202469501097767
 21
80.1527648707922253
 31
0.0
  0
LINE
  5
42556
  8
0
 10
2776.8202469501097767
 20
80.1527648707922253
 30
0.0
 11
2776.8399319895102053
 21
80.1527648707922253
 31
0.0
  0
LINE
  5
42557
  8
0
 10
2776.8399319895102053
 20
80.1527648707922253
 30
0.0
 11
2776.8497745092108744
 21
80.1511091818922239
 31
0.0
  0
LINE
  5
42558
  8
0
 10
2776.8497745092108744
 20
80.1511091818922239
 30
0.0
 11
2776.8399319895102053
 21
80.1494534928922349
 31
0.0
  0
LINE
  5
42559
  8
0
 10
2776.8399319895102053
 20
80.1494534928922349
 30
0.0
 11
2776.8202469501097767
 21
80.1494534928922349
 31
0.0
  0
LINE
  5
4255A
  8
0
 10
2776.8202469501097767
 20
80.1494534928922349
 30
0.0
 11
2776.8104044304100171
 21
80.1511091818922239
 31
0.0
  0
LINE
  5
4255B
  8
0
 10
2776.8202469501097767
 20
80.1527648707922253
 30
0.0
 11
2776.8202469501097767
 21
80.1494534928922349
 31
0.0
  0
LINE
  5
4255C
  8
0
 10
2776.8399319895102053
 20
80.1527648707922253
 30
0.0
 11
2776.8399319895102053
 21
80.1494534928922349
 31
0.0
  0
LINE
  5
4255D
  8
0
 10
2776.8104044304100171
 20
80.145701724492227
 30
0.0
 11
2776.8202469501097767
 21
80.1473574133922142
 31
0.0
  0
LINE
  5
4255E
  8
0
 10
2776.8202469501097767
 20
80.1473574133922142
 30
0.0
 11
2776.8399319895102053
 21
80.1473574133922142
 31
0.0
  0
LINE
  5
4255F
  8
0
 10
2776.8399319895102053
 20
80.1473574133922142
 30
0.0
 11
2776.8497745092108744
 21
80.145701724492227
 31
0.0
  0
LINE
  5
42560
  8
0
 10
2776.8497745092108744
 20
80.145701724492227
 30
0.0
 11
2776.8399319895102053
 21
80.1440460354922237
 31
0.0
  0
LINE
  5
42561
  8
0
 10
2776.8399319895102053
 20
80.1440460354922237
 30
0.0
 11
2776.8202469501097767
 21
80.1440460354922237
 31
0.0
  0
LINE
  5
42562
  8
0
 10
2776.8202469501097767
 20
80.1440460354922237
 30
0.0
 11
2776.8104044304100171
 21
80.145701724492227
 31
0.0
  0
LINE
  5
42563
  8
0
 10
2776.8202469501097767
 20
80.1473574133922142
 30
0.0
 11
2776.8202469501097767
 21
80.1440460354922237
 31
0.0
  0
LINE
  5
42564
  8
0
 10
2776.8399319895102053
 20
80.1473574133922142
 30
0.0
 11
2776.8399319895102053
 21
80.1440460354922237
 31
0.0
  0
LINE
  5
42565
  8
0
 10
2776.8104044304100171
 20
80.140294266992214
 30
0.0
 11
2776.8202469501097767
 21
80.1419499558922297
 31
0.0
  0
LINE
  5
42566
  8
0
 10
2776.8202469501097767
 20
80.1419499558922297
 30
0.0
 11
2776.8399319895102053
 21
80.1419499558922297
 31
0.0
  0
LINE
  5
42567
  8
0
 10
2776.8399319895102053
 20
80.1419499558922297
 30
0.0
 11
2776.8497745092108744
 21
80.140294266992214
 31
0.0
  0
LINE
  5
42568
  8
0
 10
2776.8497745092108744
 20
80.140294266992214
 30
0.0
 11
2776.8399319895102053
 21
80.138638577992225
 31
0.0
  0
LINE
  5
42569
  8
0
 10
2776.8399319895102053
 20
80.138638577992225
 30
0.0
 11
2776.8202469501097767
 21
80.138638577992225
 31
0.0
  0
LINE
  5
4256A
  8
0
 10
2776.8202469501097767
 20
80.138638577992225
 30
0.0
 11
2776.8104044304100171
 21
80.140294266992214
 31
0.0
  0
LINE
  5
4256B
  8
0
 10
2776.8202469501097767
 20
80.1419499558922297
 30
0.0
 11
2776.8202469501097767
 21
80.138638577992225
 31
0.0
  0
LINE
  5
4256C
  8
0
 10
2776.8399319895102053
 20
80.1419499558922297
 30
0.0
 11
2776.8399319895102053
 21
80.138638577992225
 31
0.0
  0
LINE
  5
4256D
  8
0
 10
2776.8104044304100171
 20
80.1348868094922153
 30
0.0
 11
2776.8202469501097767
 21
80.136542498392231
 31
0.0
  0
LINE
  5
4256E
  8
0
 10
2776.8202469501097767
 20
80.136542498392231
 30
0.0
 11
2776.8399319895102053
 21
80.136542498392231
 31
0.0
  0
LINE
  5
4256F
  8
0
 10
2776.8399319895102053
 20
80.136542498392231
 30
0.0
 11
2776.8497745092108744
 21
80.1348868094922153
 31
0.0
  0
LINE
  5
42570
  8
0
 10
2776.8497745092108744
 20
80.1348868094922153
 30
0.0
 11
2776.8399319895102053
 21
80.1332311204922263
 31
0.0
  0
LINE
  5
42571
  8
0
 10
2776.8399319895102053
 20
80.1332311204922263
 30
0.0
 11
2776.8202469501097767
 21
80.1332311204922263
 31
0.0
  0
LINE
  5
42572
  8
0
 10
2776.8202469501097767
 20
80.1332311204922263
 30
0.0
 11
2776.8104044304100171
 21
80.1348868094922153
 31
0.0
  0
LINE
  5
42573
  8
0
 10
2776.8202469501097767
 20
80.136542498392231
 30
0.0
 11
2776.8202469501097767
 21
80.1332311204922263
 31
0.0
  0
LINE
  5
42574
  8
0
 10
2776.8399319895102053
 20
80.136542498392231
 30
0.0
 11
2776.8399319895102053
 21
80.1332311204922263
 31
0.0
  0
LINE
  5
42575
  8
0
 10
2776.838243280109964
 20
80.137590538192228
 30
0.0
 11
2776.8480857998110878
 21
80.1392462270922437
 31
0.0
  0
LINE
  5
42576
  8
0
 10
2776.8480857998110878
 20
80.1392462270922437
 30
0.0
 11
2776.8677708392101522
 21
80.1392462270922437
 31
0.0
  0
LINE
  5
42577
  8
0
 10
2776.8677708392101522
 20
80.1392462270922437
 30
0.0
 11
2776.8776133589108213
 21
80.137590538192228
 31
0.0
  0
LINE
  5
42578
  8
0
 10
2776.8776133589108213
 20
80.137590538192228
 30
0.0
 11
2776.8677708392101522
 21
80.1359348491922248
 31
0.0
  0
LINE
  5
42579
  8
0
 10
2776.8677708392101522
 20
80.1359348491922248
 30
0.0
 11
2776.8480857998110878
 21
80.1359348491922248
 31
0.0
  0
LINE
  5
4257A
  8
0
 10
2776.8480857998110878
 20
80.1359348491922248
 30
0.0
 11
2776.838243280109964
 21
80.137590538192228
 31
0.0
  0
LINE
  5
4257B
  8
0
 10
2776.8480857998110878
 20
80.1392462270922437
 30
0.0
 11
2776.8480857998110878
 21
80.1359348491922248
 31
0.0
  0
LINE
  5
4257C
  8
0
 10
2776.8677708392101522
 20
80.1392462270922437
 30
0.0
 11
2776.8677708392101522
 21
80.1359348491922248
 31
0.0
  0
LINE
  5
4257D
  8
0
 10
2776.838243280109964
 20
80.1429979956922267
 30
0.0
 11
2776.8480857998110878
 21
80.1446536845922282
 31
0.0
  0
LINE
  5
4257E
  8
0
 10
2776.8480857998110878
 20
80.1446536845922282
 30
0.0
 11
2776.8677708392101522
 21
80.1446536845922282
 31
0.0
  0
LINE
  5
4257F
  8
0
 10
2776.8677708392101522
 20
80.1446536845922282
 30
0.0
 11
2776.8776133589108213
 21
80.1429979956922267
 31
0.0
  0
LINE
  5
42580
  8
0
 10
2776.8776133589108213
 20
80.1429979956922267
 30
0.0
 11
2776.8677708392101522
 21
80.1413423066922235
 31
0.0
  0
LINE
  5
42581
  8
0
 10
2776.8677708392101522
 20
80.1413423066922235
 30
0.0
 11
2776.8480857998110878
 21
80.1413423066922235
 31
0.0
  0
LINE
  5
42582
  8
0
 10
2776.8480857998110878
 20
80.1413423066922235
 30
0.0
 11
2776.838243280109964
 21
80.1429979956922267
 31
0.0
  0
LINE
  5
42583
  8
0
 10
2776.8480857998110878
 20
80.1446536845922282
 30
0.0
 11
2776.8480857998110878
 21
80.1413423066922235
 31
0.0
  0
LINE
  5
42584
  8
0
 10
2776.8677708392101522
 20
80.1446536845922282
 30
0.0
 11
2776.8677708392101522
 21
80.1413423066922235
 31
0.0
  0
LINE
  5
42585
  8
0
 10
2776.838243280109964
 20
80.1484054531922254
 30
0.0
 11
2776.8480857998110878
 21
80.1500611420922269
 31
0.0
  0
LINE
  5
42586
  8
0
 10
2776.8480857998110878
 20
80.1500611420922269
 30
0.0
 11
2776.8677708392101522
 21
80.1500611420922269
 31
0.0
  0
LINE
  5
42587
  8
0
 10
2776.8677708392101522
 20
80.1500611420922269
 30
0.0
 11
2776.8776133589108213
 21
80.1484054531922254
 31
0.0
  0
LINE
  5
42588
  8
0
 10
2776.8776133589108213
 20
80.1484054531922254
 30
0.0
 11
2776.8677708392101522
 21
80.1467497641922364
 31
0.0
  0
LINE
  5
42589
  8
0
 10
2776.8677708392101522
 20
80.1467497641922364
 30
0.0
 11
2776.8480857998110878
 21
80.1467497641922364
 31
0.0
  0
LINE
  5
4258A
  8
0
 10
2776.8480857998110878
 20
80.1467497641922364
 30
0.0
 11
2776.838243280109964
 21
80.1484054531922254
 31
0.0
  0
LINE
  5
4258B
  8
0
 10
2776.8480857998110878
 20
80.1500611420922269
 30
0.0
 11
2776.8480857998110878
 21
80.1467497641922364
 31
0.0
  0
LINE
  5
4258C
  8
0
 10
2776.8677708392101522
 20
80.1500611420922269
 30
0.0
 11
2776.8677708392101522
 21
80.1467497641922364
 31
0.0
  0
LINE
  5
4258D
  8
0
 10
2776.838243280109964
 20
80.1538129106922241
 30
0.0
 11
2776.8480857998110878
 21
80.1554685995922256
 31
0.0
  0
LINE
  5
4258E
  8
0
 10
2776.8480857998110878
 20
80.1554685995922256
 30
0.0
 11
2776.8677708392101522
 21
80.1554685995922256
 31
0.0
  0
LINE
  5
4258F
  8
0
 10
2776.8677708392101522
 20
80.1554685995922256
 30
0.0
 11
2776.8776133589108213
 21
80.1538129106922241
 31
0.0
  0
LINE
  5
42590
  8
0
 10
2776.8776133589108213
 20
80.1538129106922241
 30
0.0
 11
2776.8677708392101522
 21
80.1521572216922351
 31
0.0
  0
LINE
  5
42591
  8
0
 10
2776.8677708392101522
 20
80.1521572216922351
 30
0.0
 11
2776.8480857998110878
 21
80.1521572216922351
 31
0.0
  0
LINE
  5
42592
  8
0
 10
2776.8480857998110878
 20
80.1521572216922351
 30
0.0
 11
2776.838243280109964
 21
80.1538129106922241
 31
0.0
  0
LINE
  5
42593
  8
0
 10
2776.8480857998110878
 20
80.1554685995922256
 30
0.0
 11
2776.8480857998110878
 21
80.1521572216922351
 31
0.0
  0
LINE
  5
42594
  8
0
 10
2776.8677708392101522
 20
80.1554685995922256
 30
0.0
 11
2776.8677708392101522
 21
80.1521572216922351
 31
0.0
  0
LINE
  5
42595
  8
0
 10
2776.8660821297107759
 20
80.1565166393922368
 30
0.0
 11
2776.8759246494100807
 21
80.1581723282922383
 31
0.0
  0
LINE
  5
42596
  8
0
 10
2776.8759246494100807
 20
80.1581723282922383
 30
0.0
 11
2776.8906637114819205
 21
80.1581723282922241
 31
0.0
  0
LINE
  5
42597
  8
0
 10
2776.8978780629231551
 20
80.1577907469539355
 30
0.0
 11
2776.9054522085098142
 21
80.1565166393922368
 31
0.0
  0
LINE
  5
42598
  8
0
 10
2776.9054522085098142
 20
80.1565166393922368
 30
0.0
 11
2776.8956096888100546
 21
80.1548609503922336
 31
0.0
  0
LINE
  5
42599
  8
0
 10
2776.8956096888100546
 20
80.1548609503922336
 30
0.0
 11
2776.8759246494100807
 21
80.1548609503922336
 31
0.0
  0
LINE
  5
4259A
  8
0
 10
2776.8759246494100807
 20
80.1548609503922336
 30
0.0
 11
2776.8660821297107759
 21
80.1565166393922368
 31
0.0
  0
LINE
  5
4259B
  8
0
 10
2776.8759246494100807
 20
80.1581723282922383
 30
0.0
 11
2776.8759246494100807
 21
80.1548609503922336
 31
0.0
  0
LINE
  5
4259C
  8
0
 10
2776.8956096888100546
 20
80.157910417664084
 30
0.0
 11
2776.8956096888100546
 21
80.1548609503922336
 31
0.0
  0
LINE
  5
4259D
  8
0
 10
2776.8660821297107759
 20
80.1511091818922239
 30
0.0
 11
2776.8759246494100807
 21
80.1527648707922253
 31
0.0
  0
LINE
  5
4259E
  8
0
 10
2776.8759246494100807
 20
80.1527648707922253
 30
0.0
 11
2776.8956096888100546
 21
80.1527648707922253
 31
0.0
  0
LINE
  5
4259F
  8
0
 10
2776.8956096888100546
 20
80.1527648707922253
 30
0.0
 11
2776.9054522085098142
 21
80.1511091818922239
 31
0.0
  0
LINE
  5
425A0
  8
0
 10
2776.9054522085098142
 20
80.1511091818922239
 30
0.0
 11
2776.8956096888100546
 21
80.1494534928922349
 31
0.0
  0
LINE
  5
425A1
  8
0
 10
2776.8956096888100546
 20
80.1494534928922349
 30
0.0
 11
2776.8759246494100807
 21
80.1494534928922349
 31
0.0
  0
LINE
  5
425A2
  8
0
 10
2776.8759246494100807
 20
80.1494534928922349
 30
0.0
 11
2776.8660821297107759
 21
80.1511091818922239
 31
0.0
  0
LINE
  5
425A3
  8
0
 10
2776.8759246494100807
 20
80.1527648707922253
 30
0.0
 11
2776.8759246494100807
 21
80.1494534928922349
 31
0.0
  0
LINE
  5
425A4
  8
0
 10
2776.8956096888100546
 20
80.1527648707922253
 30
0.0
 11
2776.8956096888100546
 21
80.1494534928922349
 31
0.0
  0
LINE
  5
425A5
  8
0
 10
2776.8660821297107759
 20
80.145701724492227
 30
0.0
 11
2776.8759246494100807
 21
80.1473574133922142
 31
0.0
  0
LINE
  5
425A6
  8
0
 10
2776.8759246494100807
 20
80.1473574133922142
 30
0.0
 11
2776.8956096888100546
 21
80.1473574133922142
 31
0.0
  0
LINE
  5
425A7
  8
0
 10
2776.8956096888100546
 20
80.1473574133922142
 30
0.0
 11
2776.9054522085098142
 21
80.145701724492227
 31
0.0
  0
LINE
  5
425A8
  8
0
 10
2776.9054522085098142
 20
80.145701724492227
 30
0.0
 11
2776.8956096888100546
 21
80.1440460354922237
 31
0.0
  0
LINE
  5
425A9
  8
0
 10
2776.8956096888100546
 20
80.1440460354922237
 30
0.0
 11
2776.8759246494100807
 21
80.1440460354922237
 31
0.0
  0
LINE
  5
425AA
  8
0
 10
2776.8759246494100807
 20
80.1440460354922237
 30
0.0
 11
2776.8660821297107759
 21
80.145701724492227
 31
0.0
  0
LINE
  5
425AB
  8
0
 10
2776.8759246494100807
 20
80.1473574133922142
 30
0.0
 11
2776.8759246494100807
 21
80.1440460354922237
 31
0.0
  0
LINE
  5
425AC
  8
0
 10
2776.8956096888100546
 20
80.1473574133922142
 30
0.0
 11
2776.8956096888100546
 21
80.1440460354922237
 31
0.0
  0
LINE
  5
425AD
  8
0
 10
2776.8660821297107759
 20
80.140294266992214
 30
0.0
 11
2776.8759246494100807
 21
80.1419499558922297
 31
0.0
  0
LINE
  5
425AE
  8
0
 10
2776.8759246494100807
 20
80.1419499558922297
 30
0.0
 11
2776.8956096888100546
 21
80.1419499558922297
 31
0.0
  0
LINE
  5
425AF
  8
0
 10
2776.8956096888100546
 20
80.1419499558922297
 30
0.0
 11
2776.9054522085098142
 21
80.140294266992214
 31
0.0
  0
LINE
  5
425B0
  8
0
 10
2776.9054522085098142
 20
80.140294266992214
 30
0.0
 11
2776.8956096888100546
 21
80.138638577992225
 31
0.0
  0
LINE
  5
425B1
  8
0
 10
2776.8956096888100546
 20
80.138638577992225
 30
0.0
 11
2776.8759246494100807
 21
80.138638577992225
 31
0.0
  0
LINE
  5
425B2
  8
0
 10
2776.8759246494100807
 20
80.138638577992225
 30
0.0
 11
2776.8660821297107759
 21
80.140294266992214
 31
0.0
  0
LINE
  5
425B3
  8
0
 10
2776.8759246494100807
 20
80.1419499558922297
 30
0.0
 11
2776.8759246494100807
 21
80.138638577992225
 31
0.0
  0
LINE
  5
425B4
  8
0
 10
2776.8956096888100546
 20
80.1419499558922297
 30
0.0
 11
2776.8956096888100546
 21
80.138638577992225
 31
0.0
  0
LINE
  5
425B5
  8
0
 10
2776.8939209794098133
 20
80.1429979956922267
 30
0.0
 11
2776.9037634991100276
 21
80.1446536845922282
 31
0.0
  0
LINE
  5
425B6
  8
0
 10
2776.9037634991100276
 20
80.1446536845922282
 30
0.0
 11
2776.923448538510911
 21
80.1446536845922282
 31
0.0
  0
LINE
  5
425B7
  8
0
 10
2776.923448538510911
 20
80.1446536845922282
 30
0.0
 11
2776.9332910582102159
 21
80.1429979956922267
 31
0.0
  0
LINE
  5
425B8
  8
0
 10
2776.9332910582102159
 20
80.1429979956922267
 30
0.0
 11
2776.923448538510911
 21
80.1413423066922235
 31
0.0
  0
LINE
  5
425B9
  8
0
 10
2776.923448538510911
 20
80.1413423066922235
 30
0.0
 11
2776.9037634991100276
 21
80.1413423066922235
 31
0.0
  0
LINE
  5
425BA
  8
0
 10
2776.9037634991100276
 20
80.1413423066922235
 30
0.0
 11
2776.8939209794098133
 21
80.1429979956922267
 31
0.0
  0
LINE
  5
425BB
  8
0
 10
2776.9037634991100276
 20
80.1446536845922282
 30
0.0
 11
2776.9037634991100276
 21
80.1413423066922235
 31
0.0
  0
LINE
  5
425BC
  8
0
 10
2776.923448538510911
 20
80.1446536845922282
 30
0.0
 11
2776.923448538510911
 21
80.1413423066922235
 31
0.0
  0
LINE
  5
425BD
  8
0
 10
2776.8939209794098133
 20
80.1484054531922254
 30
0.0
 11
2776.9037634991100276
 21
80.1500611420922269
 31
0.0
  0
LINE
  5
425BE
  8
0
 10
2776.9037634991100276
 20
80.1500611420922269
 30
0.0
 11
2776.923448538510911
 21
80.1500611420922269
 31
0.0
  0
LINE
  5
425BF
  8
0
 10
2776.923448538510911
 20
80.1500611420922269
 30
0.0
 11
2776.9332910582102159
 21
80.1484054531922254
 31
0.0
  0
LINE
  5
425C0
  8
0
 10
2776.9332910582102159
 20
80.1484054531922254
 30
0.0
 11
2776.923448538510911
 21
80.1467497641922364
 31
0.0
  0
LINE
  5
425C1
  8
0
 10
2776.923448538510911
 20
80.1467497641922364
 30
0.0
 11
2776.9037634991100276
 21
80.1467497641922364
 31
0.0
  0
LINE
  5
425C2
  8
0
 10
2776.9037634991100276
 20
80.1467497641922364
 30
0.0
 11
2776.8939209794098133
 21
80.1484054531922254
 31
0.0
  0
LINE
  5
425C3
  8
0
 10
2776.9037634991100276
 20
80.1500611420922269
 30
0.0
 11
2776.9037634991100276
 21
80.1467497641922364
 31
0.0
  0
LINE
  5
425C4
  8
0
 10
2776.923448538510911
 20
80.1500611420922269
 30
0.0
 11
2776.923448538510911
 21
80.1467497641922364
 31
0.0
  0
LINE
  5
425C5
  8
0
 10
2776.8939209794098133
 20
80.1538129106922241
 30
0.0
 11
2776.9037634991100276
 21
80.1554685995922256
 31
0.0
  0
LINE
  5
425C6
  8
0
 10
2776.9037634991100276
 20
80.1554685995922256
 30
0.0
 11
2776.923448538510911
 21
80.1554685995922256
 31
0.0
  0
LINE
  5
425C7
  8
0
 10
2776.923448538510911
 20
80.1554685995922256
 30
0.0
 11
2776.9332910582102159
 21
80.1538129106922241
 31
0.0
  0
LINE
  5
425C8
  8
0
 10
2776.9332910582102159
 20
80.1538129106922241
 30
0.0
 11
2776.923448538510911
 21
80.1521572216922351
 31
0.0
  0
LINE
  5
425C9
  8
0
 10
2776.923448538510911
 20
80.1521572216922351
 30
0.0
 11
2776.9037634991100276
 21
80.1521572216922351
 31
0.0
  0
LINE
  5
425CA
  8
0
 10
2776.9037634991100276
 20
80.1521572216922351
 30
0.0
 11
2776.8939209794098133
 21
80.1538129106922241
 31
0.0
  0
LINE
  5
425CB
  8
0
 10
2776.9037634991100276
 20
80.1554685995922256
 30
0.0
 11
2776.9037634991100276
 21
80.1521572216922351
 31
0.0
  0
LINE
  5
425CC
  8
0
 10
2776.923448538510911
 20
80.1554685995922256
 30
0.0
 11
2776.923448538510911
 21
80.1521572216922351
 31
0.0
  0
LINE
  5
425CD
  8
0
 10
2776.9217598290101705
 20
80.1511091818922239
 30
0.0
 11
2776.9316023487108396
 21
80.1527648707922253
 31
0.0
  0
LINE
  5
425CE
  8
0
 10
2776.9316023487108396
 20
80.1527648707922253
 30
0.0
 11
2776.9512873881108135
 21
80.1527648707922253
 31
0.0
  0
LINE
  5
425CF
  8
0
 10
2776.9512873881108135
 20
80.1527648707922253
 30
0.0
 11
2776.9611299078101183
 21
80.1511091818922239
 31
0.0
  0
LINE
  5
425D0
  8
0
 10
2776.9611299078101183
 20
80.1511091818922239
 30
0.0
 11
2776.9512873881108135
 21
80.1494534928922349
 31
0.0
  0
LINE
  5
425D1
  8
0
 10
2776.9512873881108135
 20
80.1494534928922349
 30
0.0
 11
2776.9316023487108396
 21
80.1494534928922349
 31
0.0
  0
LINE
  5
425D2
  8
0
 10
2776.9316023487108396
 20
80.1494534928922349
 30
0.0
 11
2776.9217598290101705
 21
80.1511091818922239
 31
0.0
  0
LINE
  5
425D3
  8
0
 10
2776.9316023487108396
 20
80.1527648707922253
 30
0.0
 11
2776.9316023487108396
 21
80.1494534928922349
 31
0.0
  0
LINE
  5
425D4
  8
0
 10
2776.9512873881108135
 20
80.1527648707922253
 30
0.0
 11
2776.9512873881108135
 21
80.1494534928922349
 31
0.0
  0
LINE
  5
425D5
  8
0
 10
2776.9226444288551647
 20
80.1458505301018249
 30
0.0
 11
2776.9324869485549243
 21
80.1475062190018264
 31
0.0
  0
LINE
  5
425D6
  8
0
 10
2776.9324869485549243
 20
80.1475062190018264
 30
0.0
 11
2776.9521719879548982
 21
80.1475062190018264
 31
0.0
  0
LINE
  5
425D7
  8
0
 10
2776.9521719879548982
 20
80.1475062190018264
 30
0.0
 11
2776.9620145076551125
 21
80.1458505301018249
 31
0.0
  0
LINE
  5
425D8
  8
0
 10
2776.9620145076551125
 20
80.1458505301018249
 30
0.0
 11
2776.9521719879548982
 21
80.1441948411018359
 31
0.0
  0
LINE
  5
425D9
  8
0
 10
2776.9521719879548982
 20
80.1441948411018359
 30
0.0
 11
2776.9324869485549243
 21
80.1441948411018359
 31
0.0
  0
LINE
  5
425DA
  8
0
 10
2776.9324869485549243
 20
80.1441948411018359
 30
0.0
 11
2776.9226444288551647
 21
80.1458505301018249
 31
0.0
  0
LINE
  5
425DB
  8
0
 10
2776.9324869485549243
 20
80.1475062190018264
 30
0.0
 11
2776.9324869485549243
 21
80.1441948411018359
 31
0.0
  0
LINE
  5
425DC
  8
0
 10
2776.9521719879548982
 20
80.1475062190018264
 30
0.0
 11
2776.9521719879548982
 21
80.1441948411018359
 31
0.0
  0
ARC
  5
425DD
  8
0
 10
2776.7004481041390136
 20
76.2794704068387688
 30
0.0
 40
3.8838244865557989
 50
89.5382397107257617
 51
89.9999273610278152
  0
ARC
  5
425DE
  8
0
 10
2776.7007661036927857
 20
76.3189273248533482
 30
0.0
 40
3.8443662871173312
 50
89.1770855764007848
 51
89.5382397107257617
  0
ARC
  5
425DF
  8
0
 10
2776.7126368875010485
 20
77.1453790481027397
 30
0.0
 40
3.0178293149436231
 50
88.4093963031579193
 51
89.1770855764007848
  0
ARC
  5
425E0
  8
0
 10
2776.4995967124100389
 20
69.4733442028982324
 30
0.0
 40
10.6928214831633994
 50
88.2086226059869034
 51
88.4093963031579193
  0
ARC
  5
425E1
  8
0
 10
2776.7977485344890738
 20
79.0063853358121406
 30
0.0
 40
1.155119047522122
 50
86.8675169261098148
 51
88.2086226059869034
  0
ARC
  5
425E2
  8
0
 10
2777.8600118207709784
 20
98.4167216723417937
 30
0.0
 40
18.2842626295421908
 50
266.8675169261097722
 51
267.0035452729292729
  0
ARC
  5
425E3
  8
0
 10
2776.8450633341221874
 20
79.0273955249729738
 30
0.0
 40
1.131609456964479
 50
84.5483681517137171
 51
87.0035452729292871
  0
ARC
  5
425E4
  8
0
 10
2776.3244559576792199
 20
73.5724169140785875
 30
0.0
 40
6.6113743867512991
 50
84.278305863606505
 51
84.5483681517137171
  0
ARC
  5
425E5
  8
0
 10
2776.9130345826929442
 20
79.446707748930109
 30
0.0
 40
0.7076706670306847
 50
80.0267356602866471
 51
84.278305863606505
  0
ARC
  5
425E6
  8
0
 10
2776.9946412688959754
 20
79.9107884709099494
 30
0.0
 40
0.2364694703573228
 50
72.4575036001482715
 51
80.0267356602866471
  0
ARC
  5
425E7
  8
0
 10
2777.0534004919159088
 20
80.0966680761159751
 30
0.0
 40
0.0415236473152551
 50
57.1329663125774374
 51
72.4575036001482715
  0
ARC
  5
425E8
  8
0
 10
2777.0701923064998482
 20
80.1226570453303282
 30
0.0
 40
0.0105819027325478
 50
39.4187104228071803
 51
57.1329663125765705
  0
ARC
  5
425E9
  8
0
 10
2777.0747845401028826
 20
80.1264316606677625
 30
0.0
 40
0.0046374658024127
 50
335.757521090892908
 51
39.4187104228078127
  0
ARC
  5
425EA
  8
0
 10
2776.7007716355169578
 20
83.9106857230332537
 30
0.0
 40
3.8210266916241959
 50
269.995222523445193
 51
271.3404359922972731
  0
ARC
  5
425EB
  8
0
 10
2776.7188978997091908
 20
83.1360355655133105
 30
0.0
 40
3.0461644922627862
 50
271.3404359922972731
 51
274.0470149389091148
  0
ARC
  5
425EC
  8
0
 10
2776.8486768780321654
 20
81.3017409803174331
 30
0.0
 40
1.2072846135068309
 50
274.0470149389091148
 51
278.190928668963295
  0
ARC
  5
425ED
  8
0
 10
2776.9779167138740377
 20
80.4038717040153301
 30
0.0
 40
0.3001615940129743
 50
278.190928668963295
 51
287.6894695026555837
  0
ARC
  5
425EE
  8
0
 10
2777.0620261146968915
 20
80.1401547890432084
 30
0.0
 40
0.0233566039038906
 50
287.6894695026559248
 51
311.5199117523704899
  0
ARC
  5
425EF
  8
0
 10
2777.0727149932499742
 20
80.1280816666767635
 30
0.0
 40
0.0072317036441852
 50
311.5199117523704899
 51
330.5629338401428754
  0
ARC
  5
425F0
  8
0
 10
2776.7040805691608512
 20
82.747198540197914
 30
0.0
 40
2.629852462068683
 50
269.920967861575491
 51
273.7211234503673154
  0
ARC
  5
425F1
  8
0
 10
2776.8206219762419096
 20
80.9552827478897683
 30
0.0
 40
0.8341508982536032
 50
273.7211234503673154
 51
280.6276345790956839
  0
ARC
  5
425F2
  8
0
 10
2776.9635285909348568
 20
80.1936997018111981
 30
0.0
 40
0.0592760460372469
 50
280.6276345790956839
 51
297.9458719064231786
  0
ARC
  5
425F3
  8
0
 10
2776.9868449268437871
 20
80.1497479333087739
 30
0.0
 40
0.0095225589767322
 50
297.9458719064235765
 51
327.5812670127974116
  0
ARC
  5
425F4
  8
0
 10
2776.9922679042169875
 20
80.1459686410023835
 30
0.0
 40
0.0029323394275895
 50
333.1200175907305834
 51
15.4095809228592699
  0
ARC
  5
425F5
  8
0
 10
2776.9892130041230303
 20
80.1445164228086355
 30
0.0
 40
0.0062908641294105
 50
20.7752743418193191
 51
58.9820410932457833
  0
LINE
  5
425F6
  8
0
 10
2777.0174582527101848
 20
80.1428691917922293
 30
0.0
 11
2777.0399882578349207
 21
80.1428691917922293
 31
0.0
  0
ARC
  5
425F7
  8
0
 10
2776.994013560789881
 20
80.0888513113284546
 30
0.0
 40
0.0588862037241573
 50
66.538324801518371
 51
72.1626191025331138
  0
ARC
  5
425F8
  8
0
 10
2776.9620643964340161
 20
79.9899227573837805
 30
0.0
 40
0.1628458281926639
 50
72.1239452237354186
 51
79.2443877115467075
  0
LINE
  5
425F9
  8
0
 10
2776.9744606002100227
 20
80.1354404466922148
 30
0.0
 11
2776.9744606002100227
 21
80.1190935071922326
 31
0.0
  0
LINE
  5
425FA
  8
0
 10
2776.9744606002100227
 20
80.1190935071922326
 30
0.0
 11
2777.0029420285100059
 21
80.1163273707922343
 31
0.0
  0
ARC
  5
425FB
  8
0
 10
2776.9767090888908569
 20
80.3514817456987203
 30
0.0
 40
0.2366130747839736
 50
276.3653839132707049
 51
290.0261702062131235
  0
LINE
  5
425FC
  8
0
 10
2777.0577370750102091
 20
80.1291751721922338
 30
0.0
 11
2777.0577293785568145
 21
80.138686915026085
 31
0.0
  0
LINE
  5
425FD
  8
0
 10
2777.0577370750102091
 20
80.1291751721922338
 30
0.0
 11
2777.0174582527101848
 21
80.1291751721922338
 31
0.0
  0
LINE
  5
425FE
  8
0
 10
2777.0174582527101848
 20
80.1291751721922338
 30
0.0
 11
2777.0174582527101848
 21
80.1428691917922293
 31
0.0
  0
ARC
  5
425FF
  8
0
 10
2776.9554455809011415
 20
80.2969232840593463
 30
0.0
 40
0.1788435084087452
 50
276.1033443603399746
 51
290.2882098737972001
  0
ARC
  5
42600
  8
0
 10
2777.0566836989710282
 20
80.1435593093347762
 30
0.0
 40
0.0152656163076399
 50
291.740962545442585
 51
325.9571642935865157
  0
ARC
  5
42601
  8
0
 10
2777.0050534356291791
 20
80.2730309184364472
 30
0.0
 40
0.1546520634829626
 50
282.6475534539666796
 51
291.740962545442585
  0
ARC
  5
42602
  8
0
 10
2776.9470631153581053
 20
80.5314570195138089
 30
0.0
 40
0.4195047149008749
 50
275.594309233194906
 51
282.6475534539666796
  0
ARC
  5
42603
  8
0
 10
2776.8095375415291528
 20
81.6536707212933095
 30
0.0
 40
1.55002344217316
 50
273.5093420343010848
 51
276.6098727555590813
  0
ARC
  5
42604
  8
0
 10
2776.7187367653091314
 20
83.0932995695628591
 30
0.0
 40
2.9925118272698241
 50
271.0020905206545194
 51
273.5573799212456265
  0
ARC
  5
42605
  8
0
 10
2776.7006438279481699
 20
83.8447339733451145
 30
0.0
 40
3.744151000314409
 50
269.9970802376399774
 51
271.0778149187971167
  0
LINE
  5
42606
  8
0
 10
2776.9032399724101197
 20
80.1252333591384485
 30
0.0
 11
2776.9032399724101197
 21
80.1064809271074978
 31
0.0
  0
LINE
  5
42607
  8
0
 10
2776.9032399724101197
 20
80.1064809271074978
 30
0.0
 11
2776.8747585440110015
 21
80.1094103730922313
 31
0.0
  0
LINE
  5
42608
  8
0
 10
2776.8747585440110015
 20
80.1094103730922313
 30
0.0
 11
2776.8747585440110015
 21
80.1228904406886642
 31
0.0
  0
ARC
  5
42609
  8
0
 10
2776.7244805729210384
 20
82.5527203093584063
 30
0.0
 40
2.4479270645286322
 50
271.0877920124015077
 51
273.5195946440410921
  0
LINE
  5
4260A
  8
0
 10
2776.7709530280108083
 20
80.118178264450691
 30
0.0
 11
2776.7709530280108083
 21
80.1012431787067669
 31
0.0
  0
ARC
  5
4260B
  8
0
 10
2776.9550829657050599
 20
80.2016774909865404
 30
0.0
 40
0.0567534250295563
 50
284.128687203623997
 51
297.2659478788017964
  0
ARC
  5
4260C
  8
0
 10
2776.8908046663627829
 20
80.4570389280170133
 30
0.0
 40
0.3200805282463206
 50
275.3357271648100095
 51
284.128687203623997
  0
ARC
  5
4260D
  8
0
 10
2776.6872557231240535
 20
82.6364535337500143
 30
0.0
 40
2.50897983976706
 50
272.5326596479072236
 51
275.3357271648100095
  0
ARC
  5
4260E
  8
0
 10
2776.7015448338638635
 20
82.9110421028064764
 30
0.0
 40
2.7827940839946939
 50
269.9775204822287265
 51
271.9889105855519915
  0
ARC
  5
42636
  8
0
 10
2777.3166538947912159
 20
80.9992412689149859
 30
0.0
 40
0.0199999262773888
 50
359.9997887990479057
 51
90.0002274104584927
  0
ARC
  5
42637
  8
0
 10
2777.3055976048908633
 20
81.1091450750186738
 30
0.0
 40
0.0299048787943674
 50
269.5316790495155033
 51
1.0400559247881951
  0
ARC
  5
42638
  8
0
 10
2779.6196821285921033
 20
81.1888039941156023
 30
0.0
 40
2.285554312554575
 50
178.915538786751398
 51
181.9837308482200058
  0
ARC
  5
42639
  8
0
 10
2775.6200425372380778
 20
81.2645158890425847
 30
0.0
 40
1.714801815562192
 50
358.9155387867514264
 51
15.7354003210443505
  0
ARC
  5
4263A
  8
0
 10
2775.8392632608761232
 20
81.3262822284199558
 30
0.0
 40
1.4870457918163771
 50
15.7354003210443505
 51
33.1320837547768221
  0
ARC
  5
4263B
  8
0
 10
2776.7058724647681629
 20
84.150963833735986
 30
0.0
 40
1.960525468819756
 50
269.8416183548995946
 51
276.8082129058984719
  0
ARC
  5
4263C
  8
0
 10
2778.3843941486338736
 20
70.0915995417666124
 30
0.0
 40
12.1986821127333798
 50
96.5433864923771523
 51
96.8082129058985146
  0
ARC
  5
4263D
  8
0
 10
2777.0080601056188243
 20
82.1397491707033112
 30
0.0
 40
0.072390819036338
 50
42.5770013388857222
 51
100.9682951856143944
  0
ARC
  5
4263E
  8
0
 10
2776.9922557667568981
 20
82.1306048948048755
 30
0.0
 40
0.0903023196728252
 50
16.5591445937828006
 51
40.0640352573645018
  0
ARC
  5
4263F
  8
0
 10
2776.3635268190178067
 20
81.909960679483774
 30
0.0
 40
0.7565300235012219
 50
17.6274701706929591
 51
19.0063071099690895
  0
ARC
  5
42640
  8
0
 10
2776.5527160877659298
 20
81.9454912120109213
 30
0.0
 40
0.5659496025647107
 50
5.4965885012552063
 51
20.0000984269158586
  0
ARC
  5
42641
  8
0
 10
2776.7005240717689958
 20
86.7986819757706627
 30
0.0
 40
4.8811134396954436
 50
269.9991660698688065
 51
274.2441665186660771
  0
ARC
  5
42642
  8
0
 10
2777.0573600148331934
 20
81.9902501942476363
 30
0.0
 40
0.0594593575549152
 50
274.2441665186660771
 51
9.1462248802698305
  0
ARC
  5
42643
  8
0
 10
2774.3706673746751221
 20
80.7232855022091655
 30
0.0
 40
3.0275980689439641
 50
19.6910290905006917
 51
24.9341458718147102
  0
ARC
  5
42644
  8
0
 10
2775.3922855048358542
 20
81.0888972976164268
 30
0.0
 40
1.9425286753967299
 50
6.9295515405085961
 51
19.6910290905006917
  0
ARC
  5
42645
  8
0
 10
2774.8268270215139637
 20
81.0428700100184329
 30
0.0
 40
2.509510908833346
 50
1.810793470096953
 51
6.4151325671814066
  0
LINE
  5
42646
  8
0
 10
2777.3366538210680119
 20
80.9992411951922264
 30
0.0
 11
2777.3366538210680119
 21
76.553615993189652
 31
0.0
  0
ARC
  5
42647
  8
0
 10
2776.7429954961871772
 20
80.9754975784200042
 30
0.0
 40
0.5281274268853937
 50
4.7520222492971831
 51
11.3286647080719103
  0
ARC
  5
42648
  8
0
 10
2777.9989153384190104
 20
75.7396159931621469
 30
0.0
 40
0.0199999999725001
 50
269.9999999772277874
 51
334.4970621616877793
  0
ARC
  5
42649
  8
0
 10
2778.053971694064785
 20
75.7133519932515782
 30
0.0
 40
0.0409999999317573
 50
98.7966256580205027
 51
154.4970621616878077
  0
ARC
  5
4264A
  8
0
 10
2778.0431138319281672
 20
75.7835168478275847
 30
0.0
 40
0.0299999999826927
 50
278.7966256580205027
 51
0.0000001185157114
  0
ARC
  5
4264B
  8
0
 10
2762.92623473379399
 20
74.671137911527623
 30
0.0
 40
15.1876704372661706
 50
4.2002320104530941
 51
4.7273965680992864
  0
ARC
  5
4264C
  8
0
 10
2778.0230739940170679
 20
75.9146855944400158
 30
0.0
 40
0.0400021250387664
 50
11.7483300039572693
 51
87.2825295969120134
  0
ARC
  5
4264D
  8
0
 10
2778.0233668216028491
 20
76.8447419388358384
 30
0.0
 40
0.8901006478712096
 50
264.4198613693457105
 51
270.1032311408316104
  0
ARC
  5
4264E
  8
0
 10
2777.9969182359500337
 20
76.9206034151863633
 30
0.0
 40
0.9636202827453004
 50
249.8124675091783899
 51
266.4240259226278908
  0
ARC
  5
4264F
  8
0
 10
2777.8201664757048093
 20
76.4647129880409295
 30
0.0
 40
0.4748174060983507
 50
195.4450832449574875
 51
250.8464803161490124
  0
ARC
  5
42650
  8
0
 10
2778.1546708835039681
 20
76.5427626376514922
 30
0.0
 40
0.8181446166666425
 50
181.3242349040239105
 51
194.4749314986455886
  0
ARC
  5
42651
  8
0
 10
2777.3217222513922025
 20
76.5235913097621392
 30
0.0
 40
0.0150248392863482
 50
1.0061836820633789
 51
90.260974934090541
  0
ARC
  5
42652
  8
0
 10
2777.321768905153931
 20
76.5535009090605882
 30
0.0
 40
0.0148853607995953
 50
269.5569994992329725
 51
0.4429788880832344
  0
ARC
  5
42653
  8
0
 10
2776.7103393361439885
 20
76.4120344091433594
 30
0.0
 40
4.4328916714535618
 50
85.5071995936047813
 51
90.127782098585854
  0
ARC
  5
42654
  8
0
 10
2776.9461045542147986
 20
79.4125358216250419
 30
0.0
 40
1.423141853884657
 50
80.796271824174454
 51
85.5071995936047813
  0
ARC
  5
42655
  8
0
 10
2777.1540200588901826
 20
80.6957158728847901
 30
0.0
 40
0.1232265100890688
 50
52.7983977484850797
 51
80.796271824174454
  0
ARC
  5
42656
  8
0
 10
2777.1709428916378783
 20
80.7292935418624751
 30
0.0
 40
0.086518970287028
 50
12.7752214104058393
 51
48.2755990939291735
  0
ARC
  5
42657
  8
0
 10
2772.6235294647308365
 20
78.6555684921506213
 30
0.0
 40
5.0826699295938731
 50
21.9832969773620697
 51
24.3156478833073102
  0
ARC
  5
42658
  8
0
 10
2783.0731225639337936
 20
80.8766743445168856
 30
0.0
 40
5.7632155065075112
 50
184.7911690770563098
 51
185.5222383211956867
  0
ARC
  5
42659
  8
0
 10
2776.4817637765518157
 20
80.2678753723562863
 30
0.0
 40
0.8577994888561553
 50
8.5432157041772001
 51
20.4766845305252083
  0
ARC
  5
4265A
  8
0
 10
2777.7322961046261298
 20
80.7285075505778735
 30
0.0
 40
0.4748958570533972
 50
191.3406660148843912
 51
199.7597685238933991
  0
ARC
  5
4265B
  8
0
 10
2775.1311643234180337
 20
80.4783750996432445
 30
0.0
 40
2.141253087286684
 50
4.198025856132495
 51
7.245311161151534
  0
ARC
  5
4265C
  8
0
 10
2776.7054485536541506
 20
92.0292903061162235
 30
0.0
 40
11.4943842857327692
 50
269.9750989232919096
 51
271.3329824969598008
  0
ARC
  5
4265D
  8
0
 10
2776.9981062414758526
 20
79.4522122066548633
 30
0.0
 40
1.0860982981028491
 50
79.737553713195652
 51
91.3329824969597723
  0
ARC
  5
4265E
  8
0
 10
2777.1831700991087928
 20
80.4810281500538451
 30
0.0
 40
0.0407881544374668
 50
334.4972887608072938
 51
78.0687057704243301
  0
ARC
  5
4265F
  8
0
 10
2777.0857171552729596
 20
80.5615144202032951
 30
0.0
 40
0.166255721534954
 50
302.1138063610509903
 51
323.861390476023189
  0
ARC
  5
42660
  8
0
 10
2777.3825581434198284
 20
80.268238261248456
 30
0.0
 40
0.2582610590462086
 50
143.8197533594529034
 51
162.168943274319389
  0
ARC
  5
42661
  8
0
 10
2777.1551408576228823
 20
80.6266761223753576
 30
0.0
 40
0.11185086616281
 50
289.0252756356090913
 51
4.3313574127095142
  0
LINE
  5
42662
  8
0
 10
2777.1367030280111976
 20
80.3473210341978756
 30
0.0
 11
2777.1367030159108253
 21
80.1548486055922353
 31
0.0
  0
ARC
  5
42663
  8
0
 10
2777.0894120825960272
 20
80.1548486085653593
 30
0.0
 40
0.0472909333140831
 50
332.7047515879369826
 51
359.9999963978567052
  0
ARC
  5
42664
  8
0
 10
2777.0870117912081696
 20
80.1560872392556973
 30
0.0
 40
0.0499919710283195
 50
298.3024602559559071
 51
332.7047515879363004
  0
ARC
  5
42665
  8
0
 10
2777.0662313848620215
 20
80.1946766722833075
 30
0.0
 40
0.0938208385623777
 50
282.8852160309176043
 51
298.3024602559559071
  0
ARC
  5
42666
  8
0
 10
2776.9870728520568264
 20
80.5407112487234258
 30
0.0
 40
0.4487940789733426
 50
271.7186578093005096
 51
282.8852160309176043
  0
ARC
  5
42667
  8
0
 10
2777.4151122834600756
 20
39.7608699429074832
 30
0.0
 40
40.3333798665417476
 50
90.5889430411338026
 51
91.0152658209284056
  0
LINE
  5
4268E
  8
0
 10
2778.0477016610020655
 20
75.7538697261571343
 30
0.0
 11
2775.3532043950181105
 21
75.7538697261571343
 31
0.0
  0
ENDSEC
  0
EOF
