  0
SECTION
  2
HEADER
  9
$ACADVER
  1
AC1009
  9
$INSBASE
 10
2908.7172832857218054
 20
93.7155153506479905
 30
0.0
  9
$EXTMIN
 10
2907.5363033821158751
 20
87.5662168809928971
 30
0.0
  9
$EXTMAX
 10
2909.8982631893159123
 20
95.3655153507134941
 30
0.0
  9
$LIMMIN
 10
0.0
 20
0.0
  9
$LIMMAX
 10
11.6929133858000007
 20
8.2677165353999982
  9
$ORTHOMODE
 70
     1
  9
$REGENMODE
 70
     1
  9
$FILLMODE
 70
     1
  9
$QTEXTMODE
 70
     0
  9
$MIRRTEXT
 70
     0
  9
$DRAGMODE
 70
     2
  9
$LTSCALE
 40
0.6431102362
  9
$OSMODE
 70
  4095
  9
$ATTMODE
 70
     1
  9
$TEXTSIZE
 40
0.2
  9
$TRACEWID
 40
0.05
  9
$TEXTSTYLE
  7
STANDARD
  9
$CLAYER
  8
0
  9
$CELTYPE
  6
BYLAYER
  9
$CECOLOR
 62
   256
  9
$DIMSCALE
 40
1.0
  9
$DIMASZ
 40
0.1875
  9
$DIMEXO
 40
0.0625
  9
$DIMDLI
 40
0.4443307087
  9
$DIMRND
 40
0.0
  9
$DIMDLE
 40
0.0
  9
$DIMEXE
 40
0.125
  9
$DIMTP
 40
0.01
  9
$DIMTM
 40
0.01
  9
$DIMTXT
 40
2.0
  9
$DIMCEN
 40
0.1052362205
  9
$DIMTSZ
 40
0.0
  9
$DIMTOL
 70
     1
  9
$DIMLIM
 70
     0
  9
$DIMTIH
 70
     1
  9
$DIMTOH
 70
     1
  9
$DIMSE1
 70
     0
  9
$DIMSE2
 70
     0
  9
$DIMTAD
 70
     0
  9
$DIMZIN
 70
     0
  9
$DIMBLK
  1

  9
$DIMASO
 70
     1
  9
$DIMSHO
 70
     1
  9
$DIMPOST
  1
\X
  9
$DIMAPOST
  1

  9
$DIMALT
 70
     1
  9
$DIMALTD
 70
     2
  9
$DIMALTF
 40
25.3999999999999986
  9
$DIMLFAC
 40
1.0
  9
$DIMTOFL
 70
     0
  9
$DIMTVP
 40
0.0
  9
$DIMTIX
 70
     0
  9
$DIMSOXD
 70
     0
  9
$DIMSAH
 70
     0
  9
$DIMBLK1
  1

  9
$DIMBLK2
  1

  9
$DIMSTYLE
  2
STANDARD
  9
$DIMCLRD
 70
     0
  9
$DIMCLRE
 70
     0
  9
$DIMCLRT
 70
     0
  9
$DIMTFAC
 40
1.0
  9
$DIMGAP
 40
0.09
  9
$LUNITS
 70
     2
  9
$LUPREC
 70
     4
  9
$SKETCHINC
 40
0.1
  9
$FILLETRAD
 40
0.0
  9
$AUNITS
 70
     0
  9
$AUPREC
 70
     0
  9
$MENU
  1
.
  9
$ELEVATION
 40
0.0
  9
$PELEVATION
 40
0.0
  9
$THICKNESS
 40
0.0
  9
$LIMCHECK
 70
     0
  9
$BLIPMODE
 70
     0
  9
$CHAMFERA
 40
0.0
  9
$CHAMFERB
 40
0.0
  9
$SKPOLY
 70
     0
  9
$TDCREATE
 40
2458060.468368056230247
  9
$TDUPDATE
 40
2459803.7710185190662742
  9
$TDINDWG
 40
0.4907015046
  9
$TDUSRTIMER
 40
0.4907015046
  9
$USRTIMER
 70
     1
  9
$ANGBASE
 50
0.0
  9
$ANGDIR
 70
     0
  9
$PDMODE
 70
     0
  9
$PDSIZE
 40
0.3125
  9
$PLINEWID
 40
0.0
  9
$COORDS
 70
     1
  9
$SPLFRAME
 70
     0
  9
$SPLINETYPE
 70
     6
  9
$SPLINESEGS
 70
     8
  9
$ATTDIA
 70
     1
  9
$ATTREQ
 70
     1
  9
$HANDLING
 70
     1
  9
$HANDSEED
  5
31698
  9
$SURFTAB1
 70
     6
  9
$SURFTAB2
 70
     6
  9
$SURFTYPE
 70
     6
  9
$SURFU
 70
     6
  9
$SURFV
 70
     6
  9
$UCSNAME
  2

  9
$UCSORG
 10
0.0
 20
0.0
 30
0.0
  9
$UCSXDIR
 10
1.0
 20
0.0
 30
0.0
  9
$UCSYDIR
 10
0.0
 20
1.0
 30
0.0
  9
$PUCSNAME
  2

  9
$PUCSORG
 10
0.0
 20
0.0
 30
0.0
  9
$PUCSXDIR
 10
1.0
 20
0.0
 30
0.0
  9
$PUCSYDIR
 10
0.0
 20
1.0
 30
0.0
  9
$USERI1
 70
     0
  9
$USERI2
 70
     0
  9
$USERI3
 70
     0
  9
$USERI4
 70
     0
  9
$USERI5
 70
     0
  9
$USERR1
 40
0.0
  9
$USERR2
 40
0.0
  9
$USERR3
 40
0.0
  9
$USERR4
 40
0.0
  9
$USERR5
 40
0.0
  9
$WORLDVIEW
 70
     1
  9
$SHADEDGE
 70
     3
  9
$SHADEDIF
 70
    70
  9
$TILEMODE
 70
     1
  9
$MAXACTVP
 70
    64
  9
$PLIMCHECK
 70
     0
  9
$PEXTMIN
 10
1.0000000000000000E+20
 20
1.0000000000000000E+20
 30
1.0000000000000000E+20
  9
$PEXTMAX
 10
-1.0000000000000000E+20
 20
-1.0000000000000000E+20
 30
-1.0000000000000000E+20
  9
$PLIMMIN
 10
0.0
 20
0.0
  9
$PLIMMAX
 10
12.0
 20
9.0
  9
$UNITMODE
 70
     0
  9
$VISRETAIN
 70
     1
  9
$PLINEGEN
 70
     0
  9
$PSLTSCALE
 70
     1
  0
ENDSEC
  0
SECTION
  2
TABLES
  0
TABLE
  2
VPORT
 70
     1
  0
VPORT
  2
*ACTIVE
 70
     0
 10
0.0
 20
0.0
 11
1.0
 21
1.0
 12
-894.82678409709672
 22
-34.5293960808967313
 13
0.0
 23
0.0
 14
1.0
 24
1.0
 15
0.0
 25
0.0
 16
0.0
 26
0.0
 36
17.1152628219792007
 17
3803.5440673828129547
 27
125.9952621967499056
 37
0.0
 40
7.8551407022006989
 41
2.2831541218637992
 42
50.0
 43
0.0
 44
0.0
 50
0.0
 51
0.0
 71
     0
 72
   100
 73
     1
 74
     1
 75
     0
 76
     0
 77
     0
 78
     0
  0
ENDTAB
  0
TABLE
  2
LTYPE
 70
     2
  0
LTYPE
  2
CONTINUOUS
 70
     0
  3
Solid line
 72
    65
 73
     0
 40
0.0
  0
LTYPE
  2
PHANTOM2
 70
     0
  3
___ _ _ ___ _ _ ___ _ _ ___ _ _
 72
    65
 73
     6
 40
1.25
 49
0.625
 49
-0.125
 49
0.125
 49
-0.125
 49
0.125
 49
-0.125
  0
ENDTAB
  0
TABLE
  2
LAYER
 70
     2
  0
LAYER
  2
0
 70
     0
 62
   255
  6
CONTINUOUS
  0
LAYER
  2
DEFPOINTS
 70
     0
 62
     7
  6
CONTINUOUS
  0
ENDTAB
  0
TABLE
  2
STYLE
 70
     1
  0
STYLE
  2
STANDARD
 70
     0
 40
0.0
 41
0.8
 50
0.0
 71
     0
 42
0.2
  3
txt
  4

  0
ENDTAB
  0
TABLE
  2
VIEW
 70
     0
  0
ENDTAB
  0
TABLE
  2
UCS
 70
     0
  0
ENDTAB
  0
TABLE
  2
APPID
 70
    11
  0
APPID
  2
ACAD
 70
     0
  0
APPID
  2
ACAD_MLEADERVER
 70
     0
  0
APPID
  2
ACAD_EXEMPT_FROM_CAD_STANDARDS
 70
     0
  0
APPID
  2
ACAD_NAV_VCDISPLAY
 70
     0
  0
APPID
  2
ACAECLAYERSTANDARD
 70
     0
  0
APPID
  2
ACCMTRANSPARENCY
 70
     0
  0
APPID
  2
ACAD_DSTYLE_DIMJAG
 70
     0
  0
APPID
  2
ACAD_DSTYLE_DIMTALN
 70
     0
  0
APPID
  2
ACDBATTR
 70
     0
  0
APPID
  2
DCO15
 70
     0
  0
APPID
  2
ACAD_DSTYLE_DIMRADIAL_EXTENSION
 70
     0
  0
ENDTAB
  0
TABLE
  2
DIMSTYLE
 70
     1
  0
DIMSTYLE
  2
STANDARD
 70
     0
  3

  4

  5

  6

  7

 40
1.0
 41
0.1875
 42
0.0625
 43
0.38
 44
0.125
 45
0.0
 46
0.0
 47
0.01
 48
0.01
140
0.15625
141
0.09
142
0.0
143
25.3999999999999986
144
1.0
145
0.0
146
1.0
147
0.09
 71
     1
 72
     0
 73
     1
 74
     1
 75
     0
 76
     0
 77
     0
 78
     4
170
     0
171
     2
172
     0
173
     0
174
     0
175
     0
176
     0
177
     0
178
     0
  0
ENDTAB
  0
ENDSEC
  0
SECTION
  2
BLOCKS
  0
BLOCK
  8
0
  2
$MODEL_SPACE
 70
     0
 10
0.0
 20
0.0
 30
0.0
  3
$MODEL_SPACE
  1

  0
ENDBLK
  5
21
  8
0
  0
BLOCK
 67
     1
  8
0
  2
$PAPER_SPACE
 70
     0
 10
0.0
 20
0.0
 30
0.0
  3
$PAPER_SPACE
  1

  0
ENDBLK
  5
1D
 67
     1
  8
0
  0
ENDSEC
  0
SECTION
  2
ENTITIES
  0
ATTDEF
  5
30D70
  8
DEFPOINTS
 10
2908.718041192984856
 20
93.7202152667934314
 30
0.0
 40
0.001
  1
P26623-BAF
  3

  2
MODELNUMBER
 70
     0
1001
ACDBATTR
1070
     0
1070
     1
  0
ATTDEF
  5
30D71
  8
DEFPOINTS
 10
2908.718041192984856
 20
93.7185486001267662
 30
0.0
 40
0.001
  1

  3

  2
TRADENAME
 70
     0
1001
ACDBATTR
1070
     0
1070
     1
  0
ATTDEF
  5
30D72
  8
DEFPOINTS
 10
2908.718041192984856
 20
93.7168819334601011
 30
0.0
 40
0.001
  1
BATHROOM SINK FAUCET
  3

  2
PRODUCT
 70
     0
1001
ACDBATTR
1070
     0
1070
     1
  0
ARC
  5
311CA
  8
0
 10
2908.7172832857158937
 20
93.7155153507135026
 30
0.0
 40
1.180979903599999
 50
296.7466199966377189
 51
84.7399817195487657
  0
ARC
  5
311CB
  8
0
 10
2908.7172832857158937
 20
93.7155153507135026
 30
0.0
 40
1.180979903599999
 50
95.2600433695880042
 51
243.2533800033623947
  0
LINE
  5
311CC
  8
0
 10
2908.1857882427898403
 20
88.023128006584443
 30
0.0
 11
2908.1857857467161921
 21
93.240266329313485
 31
0.0
  0
ARC
  5
311CD
  8
0
 10
2908.1053232486137858
 20
93.2395565252976155
 30
0.0
 40
0.0804656288270282
 50
0.5054245201821401
 51
34.0189611454953322
  0
ARC
  5
311CE
  8
0
 10
2908.7172832857158937
 20
93.7155153507135026
 30
0.0
 40
0.6950000000000001
 50
298.8170477487291805
 51
241.1829522512707911
  0
LINE
  5
311CF
  8
0
 10
2908.3822832857158573
 20
93.7155216589895872
 30
0.0
 11
2908.3822832857158573
 21
92.722360620713502
 31
0.0
  0
ARC
  5
311D0
  8
0
 10
2908.7172832857158937
 20
93.7155153507135026
 30
0.0
 40
1.0884125710999999
 50
299.2303025795910116
 51
84.2912059653659327
  0
ARC
  5
311D1
  8
0
 10
2908.7172832857158937
 20
93.7155153507135026
 30
0.0
 40
1.0884125710999999
 50
95.7088270856484939
 51
240.7696974204085905
  0
ARC
  5
311D2
  8
0
 10
2908.7172832857158937
 20
93.7155153507135026
 30
0.0
 40
0.9458304023000003
 50
304.1897066237117997
 51
83.4270828396256547
  0
ARC
  5
311D3
  8
0
 10
2908.7172832857158937
 20
93.7155153507135026
 30
0.0
 40
0.9458304023000003
 50
96.5729655780423997
 51
235.8102933762880014
  0
ARC
  5
311D4
  8
0
 10
2908.7172832857158937
 20
93.7155153507135026
 30
0.0
 40
0.549
 50
307.6039920181721072
 51
232.3960079818280065
  0
ARC
  5
311D5
  8
0
 10
2908.7172832857218054
 20
93.7155153506479905
 30
0.0
 40
0.3350000000655091
 50
89.9999945622216444
 51
179.9989210792653864
  0
LINE
  5
311D6
  8
0
 10
2908.4588381272160404
 20
90.7224606207134769
 30
0.0
 11
2908.9757284442162018
 21
90.7224606207134769
 31
0.0
  0
ARC
  5
311D7
  8
0
 10
2908.4588381271919388
 20
90.7424606205419053
 30
0.0
 40
0.0199999998284231
 50
224.9999997002445866
 51
270.000000067639121
  0
ARC
  5
311D8
  8
0
 10
2908.4006226599149159
 20
90.7936050199301263
 30
0.0
 40
0.0149999997987583
 50
179.9999996815984957
 51
225.0000003370381023
  0
LINE
  5
311D9
  8
0
 10
2908.3856226601160415
 20
90.7936050200135014
 30
0.0
 11
2908.3856226707780479
 21
92.7123606207134969
 31
0.0
  0
ARC
  5
311DA
  8
0
 10
2908.3925285074601561
 20
92.7224654903445469
 30
0.0
 40
0.0102457584500349
 50
180.5864565522736882
 51
264.0055899908098809
  0
LINE
  5
311DB
  8
0
 10
2908.3900160584021251
 20
90.7829984182922658
 30
0.0
 11
2908.4446959916158448
 21
90.7283184851135047
 31
0.0
  0
LINE
  5
311DC
  8
0
 10
2908.3900160584162222
 20
90.7829984183134968
 30
0.0
 11
2909.0445505131160644
 21
90.7829984183134968
 31
0.0
  0
ARC
  5
311DD
  8
0
 10
2908.7172832857218054
 20
93.7155153506479905
 30
0.0
 40
0.8729481092060726
 50
307.506441833767326
 51
82.8755823485578844
  0
ARC
  5
311DE
  8
0
 10
2908.7172832857218054
 20
93.7155153506479905
 30
0.0
 40
0.8729481092060726
 50
97.1244759047183237
 51
232.4935581652196106
  0
LINE
  5
311DF
  8
0
 10
2908.6090155692158987
 20
94.4020305374092317
 30
0.0
 11
2908.6090155692158987
 21
95.3278339814135052
 31
0.0
  0
ARC
  5
311E0
  8
0
 10
2908.6287006086158726
 20
95.3278339814135052
 30
0.0
 40
0.0196850394000023
 50
135.0000001961932128
 51
180.0000000000007958
  0
LINE
  5
311E1
  8
0
 10
2908.6147811837199697
 20
95.341753406213499
 30
0.0
 11
2908.6327775135591764
 21
95.3597497361751323
 31
0.0
  0
ARC
  5
311E2
  8
0
 10
2908.6466969383050127
 20
95.3458303115239261
 30
0.0
 40
0.0196850391895866
 50
89.9999993875747748
 51
135.0000001961938096
  0
LINE
  5
311E3
  8
0
 10
2908.6466969385160155
 20
95.3655153507134941
 30
0.0
 11
2908.7878696309157931
 21
95.3655153492045287
 31
0.0
  0
ARC
  5
311E4
  8
0
 10
2908.7878696307061546
 20
95.345830301055372
 30
0.0
 40
0.0196850481491779
 50
45.0000167223721377
 51
89.9999993875747748
  0
LINE
  5
311E5
  8
0
 10
2908.8017890576770696
 20
95.3597497361521533
 30
0.0
 11
2908.8197853928431869
 21
95.3417534114914531
 31
0.0
  0
ARC
  5
311E6
  8
0
 10
2908.8058659941279984
 20
95.3278340046513506
 30
0.0
 40
0.0196850081881923
 50
359.9999323632047208
 51
45.0000167223698284
  0
LINE
  5
311E7
  8
0
 10
2908.8255510023159331
 20
95.3278339814135052
 30
0.0
 11
2908.8255499094179868
 21
94.4020294210141344
 31
0.0
  0
LINE
  5
311E8
  8
0
 10
2908.614781183715877
 20
95.341753406213499
 30
0.0
 11
2908.8197853981209846
 21
95.341753406213499
 31
0.0
  0
ARC
  5
311E9
  8
0
 10
2908.7172782767211174
 20
88.1750428364154288
 30
0.0
 40
0.6088259554225366
 50
259.7149551132134206
 51
270.0004713896963153
  0
ARC
  5
311EA
  8
0
 10
2908.7135560403989984
 20
88.1545302596040301
 30
0.0
 40
0.5879783931985713
 50
245.2532717387373111
 51
259.7149551132134206
  0
ARC
  5
311EB
  8
0
 10
2908.6888454063041536
 20
88.1009206992435168
 30
0.0
 40
0.5289478892246819
 50
223.533455016455207
 51
245.2532717387369985
  0
ARC
  5
311EC
  8
0
 10
2908.625934305600822
 20
88.0411504412761445
 30
0.0
 40
0.4421706437670316
 50
199.712913122828013
 51
223.533455016455207
  0
ARC
  5
311ED
  8
0
 10
2908.5922543371079882
 20
88.0290827021760123
 30
0.0
 40
0.406393966941718
 50
189.7153664786935963
 51
199.712913122828013
  0
ARC
  5
311EE
  8
0
 10
2908.6007294999840269
 20
88.0305337278186641
 30
0.0
 40
0.4149924471097342
 50
183.591323004848789
 51
189.7153664786926868
  0
ARC
  5
311EF
  8
0
 10
2908.6160672696018992
 20
88.0314963665340571
 30
0.0
 40
0.4303603959042276
 50
181.1014991241640928
 51
183.5913230048479079
  0
ARC
  5
311F0
  8
0
 10
2908.6068578069921386
 20
88.3305718808432516
 30
0.0
 40
0.4211530351568461
 50
181.1280939545127922
 51
189.851292213979093
  0
ARC
  5
311F1
  8
0
 10
2908.5920824280228771
 20
88.3280061058034676
 30
0.0
 40
0.406156534723586
 50
189.851292213979093
 51
214.4084429127420037
  0
ARC
  5
311F2
  8
0
 10
2908.6760324266601856
 20
88.3855060417152458
 30
0.0
 40
0.5079103793737989
 50
214.4084429127420037
 51
232.1581574890647914
  0
ARC
  5
311F3
  8
0
 10
2908.7122511994580236
 20
88.4321286576152659
 30
0.0
 40
0.566948230082942
 50
230.6741939178907046
 51
250.2995613146281926
  0
ARC
  5
311F4
  8
0
 10
2908.7013498612959665
 20
88.4016831353980024
 30
0.0
 40
0.5346098782882049
 50
250.2995613146281926
 51
263.5414891836463767
  0
ARC
  5
311F5
  8
0
 10
2908.7266388821731198
 20
88.6250801453050059
 30
0.0
 40
0.7594337173540308
 50
263.5414891836463767
 51
269.294145441768876
  0
ARC
  5
311F6
  8
0
 10
2908.71708101610011
 20
87.6361536403042294
 30
0.0
 40
0.0081235673040105
 50
88.5732384898930576
 51
134.3839485417177002
  0
ARC
  5
311F7
  8
0
 10
2908.5799606751820647
 20
87.7266459011308655
 30
0.0
 40
0.1547265073074034
 50
290.4938942625901745
 51
307.1851501458248208
  0
ARC
  5
311F8
  8
0
 10
2908.5271460553799443
 20
87.7962640530441263
 30
0.0
 40
0.2421111234627442
 50
307.1851501458248208
 51
313.9780335661117761
  0
ARC
  5
311F9
  8
0
 10
2908.6196682151498862
 20
87.7003810137690891
 30
0.0
 40
0.1088673346050289
 50
313.9780335661117761
 51
326.5529213089836844
  0
ARC
  5
311FA
  8
0
 10
2908.6997181163328605
 20
87.6475034050052386
 30
0.0
 40
0.0129297080554872
 50
326.552921308982377
 51
334.6093217503362212
  0
ARC
  5
311FB
  8
0
 10
2908.717790024939859
 20
87.6751699654564334
 30
0.0
 40
0.0090852177269081
 50
93.1974020770531979
 51
132.0868383874268943
  0
ARC
  5
311FC
  8
0
 10
2908.6270125145829297
 20
87.6084174342177562
 30
0.0
 40
0.0276379374938426
 50
265.374508342651211
 51
284.9267329171386223
  0
ARC
  5
311FD
  8
0
 10
2908.6297292089448092
 20
87.6419958801575234
 30
0.0
 40
0.0613261024777713
 50
249.0269796774468887
 51
265.3745083426251767
  0
ARC
  5
311FE
  8
0
 10
2908.6107664551059315
 20
87.5925266045021971
 30
0.0
 40
0.0083469059284712
 50
209.5899154745387989
 51
249.026979677447514
  0
ARC
  5
311FF
  8
0
 10
2908.6070142618200407
 20
87.5903959355034942
 30
0.0
 40
0.0040319662026256
 50
127.2108852200453981
 51
209.5899154745416126
  0
ARC
  5
31200
  8
0
 10
2908.3346153529150797
 20
88.198478357372565
 30
0.0
 40
0.6623805597922046
 50
294.0517211875477983
 51
295.6265516911157079
  0
ARC
  5
31201
  8
0
 10
2908.5272847258188449
 20
87.7970478012376532
 30
0.0
 40
0.2171076658251969
 50
295.6010217905495097
 51
318.8883602103729231
  0
ARC
  5
31202
  8
0
 10
2908.4996221865808366
 20
87.8211892703745036
 30
0.0
 40
0.2538231476978454
 50
318.8883602103729231
 51
325.1799801993448114
  0
ARC
  5
31203
  8
0
 10
2908.6094006465541497
 20
87.744834352661897
 30
0.0
 40
0.1201018564508609
 50
325.1799801993453798
 51
328.4054350644643137
  0
ARC
  5
31204
  8
0
 10
2908.7175094694721338
 20
87.7202984044003955
 30
0.0
 40
0.0103180921930502
 50
91.2560861515297148
 51
114.6005206932562004
  0
ARC
  5
31205
  8
0
 10
2908.7151222930510812
 20
87.7255123247324065
 30
0.0
 40
0.004583671865799
 50
114.6005206932558025
 51
150.1245884461476123
  0
ARC
  5
31206
  8
0
 10
2908.5143520838669247
 20
87.8408456939706639
 30
0.0
 40
0.2269556616303301
 50
326.4223327325939863
 51
330.1245884461475839
  0
ARC
  5
31207
  8
0
 10
2908.3577406259250893
 20
87.9448101303093495
 30
0.0
 40
0.4149337262596031
 50
316.2385552202663916
 51
326.4223327325939863
  0
ARC
  5
31208
  8
0
 10
2908.5005598404600278
 20
87.8080357938554954
 30
0.0
 40
0.2171850292913232
 50
302.0867443329572097
 51
316.2385552202663916
  0
ARC
  5
31209
  8
0
 10
2908.4554749888429797
 20
87.8799441568755384
 30
0.0
 40
0.3020582083149409
 50
290.6187013318149184
 51
302.0867443329572097
  0
ARC
  5
3120A
  8
0
 10
2908.5561305867367992
 20
87.6175596267844838
 30
0.0
 40
0.0211129664076828
 50
262.9256615910566097
 51
285.7004622669683727
  0
ARC
  5
3120B
  8
0
 10
2908.5580854054578595
 20
87.6392687582747669
 30
0.0
 40
0.0429038540843475
 50
237.6989863047799076
 51
263.9055192044676801
  0
ARC
  5
3120C
  8
0
 10
2908.5427755704940864
 20
87.6142321687293162
 30
0.0
 40
0.0135676156896337
 50
204.9537702718837977
 51
235.8487439990327061
  0
ARC
  5
3120D
  8
0
 10
2908.5342768843911472
 20
87.6096855957323868
 30
0.0
 40
0.0039804981142085
 50
107.6849055772504045
 51
197.2054312878568112
  0
ARC
  5
3120E
  8
0
 10
2908.7183573245338266
 20
87.7548248393655115
 30
0.0
 40
0.0124113774851741
 50
94.9643930883968039
 51
115.0331215765040014
  0
ARC
  5
3120F
  8
0
 10
2908.7152019308059607
 20
87.7620456823245121
 30
0.0
 40
0.0045379110266836
 50
117.5143577919303937
 51
155.4027930459168942
  0
ARC
  5
31210
  8
0
 10
2908.5454743532732209
 20
87.8620971989731032
 30
0.0
 40
0.192509094558542
 50
325.8192878409939226
 51
329.342040307988384
  0
ARC
  5
31211
  8
0
 10
2908.3259071729630705
 20
87.9975093146689602
 30
0.0
 40
0.4503681504899097
 50
317.7660162279428846
 51
327.2610416467662162
  0
ARC
  5
31212
  8
0
 10
2908.4402110042219647
 20
87.8938129518971039
 30
0.0
 40
0.2960363740672014
 50
295.3381440491024819
 51
317.755751992078217
  0
ARC
  5
31213
  8
0
 10
2908.4592042208041676
 20
87.8602475881024247
 30
0.0
 40
0.2575869743063676
 50
286.6635745822526928
 51
294.7150071581756947
  0
ARC
  5
31214
  8
0
 10
2908.722083173466217
 20
87.7815474886030245
 30
0.0
 40
0.0312130900717068
 50
98.8459443052082491
 51
105.6764752511257939
  0
ARC
  5
31215
  8
0
 10
2908.7167382454981635
 20
87.805798791784909
 30
0.0
 40
0.0065719586900735
 50
118.0361668061919005
 51
168.1790995397419124
  0
ARC
  5
31216
  8
0
 10
2909.3396287593659508
 20
87.3904006561797218
 30
0.0
 40
0.7548002890346921
 50
146.4870522384032938
 51
148.0492208907587894
  0
ARC
  5
31217
  8
0
 10
2908.3741696642391616
 20
87.9756217501439579
 30
0.0
 40
0.374363263809478
 50
302.9761667812970813
 51
330.2459996533568756
  0
ARC
  5
31218
  8
0
 10
2908.4129449637771359
 20
87.9400341050235284
 30
0.0
 40
0.323671462474393
 50
282.5299385472573022
 51
300.64623255155891
  0
ARC
  5
31219
  8
0
 10
2908.4811170739621957
 20
87.6491101875019325
 30
0.0
 40
0.0251222336534284
 50
247.5782392674070138
 51
274.6767644816844154
  0
ARC
  5
3121A
  8
0
 10
2908.485951527117777
 20
87.664628773569433
 30
0.0
 40
0.041337042337873
 50
233.9157792867179069
 51
249.58864907319861
  0
ARC
  5
3121B
  8
0
 10
2908.4706879537320674
 20
87.6436850764713853
 30
0.0
 40
0.0154215041296551
 50
210.1792323748192075
 51
233.9157792867173953
  0
ARC
  5
3121C
  8
0
 10
2908.4630869125639947
 20
87.639264852454815
 30
0.0
 40
0.0066286543524805
 50
187.9296813401388988
 51
210.1792323748115052
  0
ARC
  5
3121D
  8
0
 10
2908.4589925993641373
 20
87.6386945575483196
 30
0.0
 40
0.0024948139035677
 50
133.0389688835331867
 51
187.9296813401404904
  0
ARC
  5
3121E
  8
0
 10
2908.4588788910459698
 20
87.6388163286387112
 30
0.0
 40
0.0023282072411607
 50
114.6442985416998965
 51
133.038968883554503
  0
ARC
  5
3121F
  8
0
 10
2908.4623112343588218
 20
87.6298588049785536
 30
0.0
 40
0.0119169591398846
 50
95.9037727869075951
 51
111.6840147068478046
  0
ARC
  5
31220
  8
0
 10
2908.4281237999821315
 20
87.8634525856372761
 30
0.0
 40
0.2241765209699974
 50
278.4551095308970048
 51
289.6115514605785961
  0
ARC
  5
31221
  8
0
 10
2908.3809120201699443
 20
87.9765703582526015
 30
0.0
 40
0.3466396016657583
 50
290.6869856204227744
 51
313.4221850996860894
  0
ARC
  5
31222
  8
0
 10
2908.3240371219440021
 20
88.0431887778206885
 30
0.0
 40
0.4341423044876766
 50
312.8305723037356074
 51
331.7331625814878748
  0
ARC
  5
31223
  8
0
 10
2908.8164296359727814
 20
87.7876290224474616
 30
0.0
 40
0.1208327230916493
 50
150.5006528295259045
 51
155.577736204524598
  0
ARC
  5
31224
  8
0
 10
2908.7173417449398585
 20
87.8409782120498193
 30
0.0
 40
0.0086485730407719
 50
90.3872884309964491
 51
134.6708836220441015
  0
ARC
  5
31225
  8
0
 10
2908.6700594714748149
 20
87.8616486387119551
 30
0.0
 40
0.0133386134732159
 50
350.4935271455555039
 51
23.3797109688979106
  0
ARC
  5
31226
  8
0
 10
2908.3778722933288918
 20
87.9681200230855751
 30
0.0
 40
0.3127823060868588
 50
279.084416384168378
 51
301.1168764453786935
  0
ARC
  5
31227
  8
0
 10
2908.3373541829928399
 20
88.0200508163856767
 30
0.0
 40
0.3782616908089635
 50
302.3061743313210741
 51
322.968729393651472
  0
ARC
  5
31228
  8
0
 10
2908.1663045744830924
 20
88.1491152822605812
 30
0.0
 40
0.5925409588429162
 50
322.9669605355342128
 51
330.7343128347126253
  0
ARC
  5
31229
  8
0
 10
2908.6643344004260143
 20
87.8618301454993684
 30
0.0
 40
0.0119669946856013
 50
142.8769266532935092
 51
179.4493422385442898
  0
ARC
  5
3122A
  8
0
 10
2908.0965023741691766
 20
88.232355287166186
 30
0.0
 40
0.6679761601758266
 50
317.4359028769167139
 51
326.3219133340676876
  0
ARC
  5
3122B
  8
0
 10
2908.3268561958889222
 20
88.0208003348598993
 30
0.0
 40
0.3552168581137104
 50
294.4807113315076776
 51
317.4359028769167139
  0
ARC
  5
3122C
  8
0
 10
2908.39792329380316
 20
87.8647185966512438
 30
0.0
 40
0.1837174662543157
 50
277.1437876379384875
 51
294.4807113315076776
  0
ARC
  5
3122D
  8
0
 10
2908.3058440963718567
 20
88.5993964430265635
 30
0.0
 40
0.924143098275627
 50
275.612929440882283
 51
277.1437876379384875
  0
ARC
  5
3122E
  8
0
 10
2908.3897979762300565
 20
87.7451535021305347
 30
0.0
 40
0.0657846323572106
 50
272.2214823042452281
 51
275.612929440882283
  0
ARC
  5
3122F
  8
0
 10
2908.3924431075620305
 20
87.6769652881224175
 30
0.0
 40
0.0024548668304678
 50
92.2214823042972967
 51
187.576570382630706
  0
ARC
  5
31230
  8
0
 10
2908.3996102798250831
 20
87.6779186102326662
 30
0.0
 40
0.0096851629024543
 50
187.5765703826226911
 51
224.3763368968598115
  0
ARC
  5
31231
  8
0
 10
2908.4338459338969187
 20
87.7114169523593148
 30
0.0
 40
0.0575831684457566
 50
224.3763368968591863
 51
242.5127705756395926
  0
ARC
  5
31232
  8
0
 10
2908.4171703743281796
 20
87.6793660606061565
 30
0.0
 40
0.0214537628439911
 50
242.5127705756393084
 51
256.973785656438622
  0
ARC
  5
31233
  8
0
 10
2908.4164550210498419
 20
87.6792515336411924
 30
0.0
 40
0.0211915745660384
 50
258.7886300674874178
 51
277.543811538389491
  0
ARC
  5
31234
  8
0
 10
2908.4134631743181671
 20
87.7358624453165561
 30
0.0
 40
0.0778335302945297
 50
274.2543121094756771
 51
280.2082501792277185
  0
ARC
  5
31235
  8
0
 10
2908.3460330344328213
 20
87.9697035878149052
 30
0.0
 40
0.2692589946736778
 50
272.3746127592360722
 51
293.8009199369466842
  0
ARC
  5
31236
  8
0
 10
2908.3299077109459176
 20
88.0062630005914031
 30
0.0
 40
0.3092166812947295
 50
293.8009199369466842
 51
310.0453931765691209
  0
ARC
  5
31237
  8
0
 10
2908.1896383659459389
 20
88.1731607851139927
 30
0.0
 40
0.5272312671037517
 50
310.0453931765691209
 51
322.1184403179404967
  0
ARC
  5
31238
  8
0
 10
2907.8674871902990162
 20
88.4237821575179481
 30
0.0
 40
0.9353886537531799
 50
322.1184403179404967
 51
323.4305876919435718
  0
ARC
  5
31239
  8
0
 10
2908.6016375765398152
 20
87.8708317524867937
 30
0.0
 40
0.0176385593817469
 50
345.7204651300032197
 51
8.5069687843174844
  0
ARC
  5
3123A
  8
0
 10
2908.6045227351160065
 20
87.8678939278133555
 30
0.0
 40
0.0189962890004266
 50
144.2607918641371043
 51
165.2566939227035903
  0
ARC
  5
3123B
  8
0
 10
2908.1050175902792034
 20
88.2602511347938048
 30
0.0
 40
0.6177897526096618
 50
313.5984332508388093
 51
321.1507817114556929
  0
ARC
  5
3123C
  8
0
 10
2908.2858845099381142
 20
88.0703117587294457
 30
0.0
 40
0.3555116383747094
 50
295.636093366361024
 51
313.5984332508388093
  0
ARC
  5
3123D
  8
0
 10
2908.3450902978602244
 20
87.9469392539608634
 30
0.0
 40
0.2186682963505671
 50
275.9546001648848232
 51
295.636093366361024
  0
ARC
  5
3123E
  8
0
 10
2908.33707317103881
 20
88.0238029453972075
 30
0.0
 40
0.2959489626500178
 50
269.6622954513197783
 51
275.9546001648848232
  0
ARC
  5
3123F
  8
0
 10
2908.3358175819798817
 20
87.810779102168425
 30
0.0
 40
0.0829214191542352
 50
267.5732731905346782
 51
269.6622954513197783
  0
ARC
  5
31240
  8
0
 10
2908.3320967514860058
 20
87.7229816670687086
 30
0.0
 40
0.0049548244480572
 50
87.5732731905347777
 51
108.827523861917598
  0
ARC
  5
31241
  8
0
 10
2908.3312307700748534
 20
87.7260285937873761
 30
0.0
 40
0.0017989156982202
 50
114.0473070962145954
 51
178.7901772836131897
  0
ARC
  5
31242
  8
0
 10
2908.3565990031429465
 20
87.7152438328604944
 30
0.0
 40
0.0145799750638677
 50
239.3310829482321935
 51
272.3200757961035947
  0
ARC
  5
31243
  8
0
 10
2908.3727295670610147
 20
87.7424444020085161
 30
0.0
 40
0.0462037960579147
 50
228.1593360702470079
 51
239.3310829482321935
  0
ARC
  5
31244
  8
0
 10
2908.4015991729970665
 20
87.7746872161423255
 30
0.0
 40
0.0894825808163773
 50
219.6866210329320097
 51
228.1593360702470079
  0
ARC
  5
31245
  8
0
 10
2908.3438308865938779
 20
87.7267498432400856
 30
0.0
 40
0.0144148338493215
 50
182.7168552808851985
 51
219.6866210329289117
  0
ARC
  5
31246
  8
0
 10
2908.2797874505931759
 20
88.0043346830313453
 30
0.0
 40
0.2251017313480137
 50
272.4853834779642057
 51
296.9646369994737256
  0
ARC
  5
31247
  8
0
 10
2908.1784163512338637
 20
88.203590597572969
 30
0.0
 40
0.4486616098261241
 50
296.9646369994737256
 51
307.2811124746027076
  0
ARC
  5
31248
  8
0
 10
2908.1730164924952078
 20
88.210683774847837
 30
0.0
 40
0.4575762964868433
 50
307.2811124746027076
 51
315.268885438952509
  0
ARC
  5
31249
  8
0
 10
2908.1586771051238429
 20
88.224889202240206
 30
0.0
 40
0.4777607508409444
 50
315.268885438952509
 51
317.5016827720356787
  0
ARC
  5
3124A
  8
0
 10
2908.5307028316101423
 20
87.8882763843822374
 30
0.0
 40
0.016321568558312
 50
341.1805255102312913
 51
5.5513319561324161
  0
ARC
  5
3124B
  8
0
 10
2908.0113192547000835
 20
88.3398253262706561
 30
0.0
 40
0.7033669008854725
 50
316.1760223599312098
 51
319.4985201636883971
  0
ARC
  5
3124C
  8
0
 10
2908.2495897258531841
 20
88.0998089380015585
 30
0.0
 40
0.365355078275334
 50
296.740967700197416
 51
317.4582308758144791
  0
ARC
  5
3124D
  8
0
 10
2908.3166647557591205
 20
87.9719030945511804
 30
0.0
 40
0.2209603431974806
 50
267.8195405585627782
 51
296.1318178094555265
  0
ARC
  5
3124E
  8
0
 10
2908.3066945009468327
 20
87.7840228610097029
 30
0.0
 40
0.0329572247499014
 50
259.9796464155268723
 51
272.718929468426893
  0
ARC
  5
3124F
  8
0
 10
2908.3040733985758379
 20
87.7639159476433548
 30
0.0
 40
0.0127340477987068
 50
227.6068203035086981
 51
255.8481101591432036
  0
ARC
  5
31250
  8
0
 10
2908.3359466547581178
 20
87.7994758549208569
 30
0.0
 40
0.060487283732048
 50
212.9630995868778882
 51
228.0193169933891966
  0
ARC
  5
31251
  8
0
 10
2908.3089852400080417
 20
87.7819915841501626
 30
0.0
 40
0.0283529156863078
 50
199.0502802113942096
 51
212.9630995868772061
  0
ARC
  5
31252
  8
0
 10
2908.3009701335859063
 20
87.7792238916810135
 30
0.0
 40
0.0198734078845474
 50
186.0556402691231881
 51
199.0502802113979897
  0
ARC
  5
31253
  8
0
 10
2908.2833728757577774
 20
87.7773570660060756
 30
0.0
 40
0.0021774049128115
 50
154.5371948963536113
 51
186.0556402691159121
  0
ARC
  5
31254
  8
0
 10
2908.282778803229121
 20
87.7776399508182124
 30
0.0
 40
0.001519418601413
 50
86.0132497117219543
 51
154.5371948963338014
  0
ARC
  5
31255
  8
0
 10
2908.331433078198188
 20
86.7366251085548043
 30
0.0
 40
1.0436603800449069
 50
92.3000130040239668
 51
92.6662276146031729
  0
ARC
  5
31256
  8
0
 10
2908.2100509529350347
 20
88.0109448905179477
 30
0.0
 40
0.0245988751666659
 50
131.9938789539741038
 51
168.0556370267175907
  0
ARC
  5
31257
  8
0
 10
2908.349552151260923
 20
87.8315960358169434
 30
0.0
 40
0.2517564498324693
 50
118.4459655509190981
 51
128.2784669637040906
  0
ARC
  5
31258
  8
0
 10
2907.6952640710778724
 20
88.9694669861932965
 30
0.0
 40
1.060914975179994
 50
300.2442256761924
 51
302.5605743058245025
  0
ARC
  5
31259
  8
0
 10
2908.2783384123699761
 20
88.0560358604327291
 30
0.0
 40
0.0227517114378984
 50
106.4447402319015055
 51
122.127550266255696
  0
ARC
  5
3125A
  8
0
 10
2908.2180166135149193
 20
88.1456379163083739
 30
0.0
 40
0.0480727587016552
 50
305.2520715029344842
 51
311.2510586664982952
  0
ARC
  5
3125B
  8
0
 10
2909.5922237246918485
 20
85.7411690506589395
 30
0.0
 40
2.7216139839808391
 50
119.6518665141118021
 51
120.7055842977485014
  0
ARC
  5
3125C
  8
0
 10
2908.214851535211892
 20
88.054847437131329
 30
0.0
 40
0.0291234659943477
 50
115.1053793089235029
 51
176.3730770940125012
  0
ARC
  5
3125D
  8
0
 10
2907.7289463188858463
 20
88.2076069164653518
 30
0.0
 40
0.4681021266649633
 50
347.4063810832228114
 51
348.0926252699453016
  0
ARC
  5
3125E
  8
0
 10
2908.2090936370109375
 20
88.1054270472133823
 30
0.0
 40
0.0228146253454121
 50
142.7666669043572938
 51
165.8008201700436075
  0
ARC
  5
3125F
  8
0
 10
2908.2225923861151387
 20
88.0951685557306945
 30
0.0
 40
0.0397690606021081
 50
127.1443784681560061
 51
142.7666669043566117
  0
ARC
  5
31260
  8
0
 10
2908.4832372926621247
 20
87.7510884812718501
 30
0.0
 40
0.4714250172950869
 50
123.2266014559373986
 51
127.1443784681560061
  0
ARC
  5
31261
  8
0
 10
2908.2283215642341929
 20
88.1302058704500553
 30
0.0
 40
0.015609668191285
 50
87.1748066455148347
 51
102.5896522681852048
  0
ARC
  5
31262
  8
0
 10
2908.2238033246449049
 20
88.156234399603008
 30
0.0
 40
0.0295549179281631
 50
112.5108216390240017
 51
124.0020900028222997
  0
ARC
  5
31263
  8
0
 10
2908.2609800514510425
 20
88.101121972096152
 30
0.0
 40
0.0960341528943278
 50
124.0020900028222997
 51
128.9893116495804861
  0
ARC
  5
31264
  8
0
 10
2908.2414025172288348
 20
88.1253074370830802
 30
0.0
 40
0.0649179744195046
 50
128.9893116495809124
 51
142.4402490784445092
  0
ARC
  5
31265
  8
0
 10
2908.2180833168949903
 20
88.1488609556948575
 30
0.0
 40
0.0323825450764944
 50
150.3498600101553109
 51
175.8323926306329099
  0
ARC
  5
31266
  8
0
 10
2908.1985651169161429
 20
88.2214697957987539
 30
0.0
 40
0.0027341410481602
 50
71.0374221834105413
 51
139.8900848117270925
  0
ARC
  5
31267
  8
0
 10
2908.221661382082857
 20
88.1911008129267913
 30
0.0
 40
0.0408260989049072
 50
128.0932157763051009
 51
143.3994930774620116
  0
ARC
  5
31268
  8
0
 10
2908.204661212413157
 20
88.204862671772915
 30
0.0
 40
0.0189948084793096
 50
146.1519332211792062
 51
173.556334828371007
  0
ARC
  5
31269
  8
0
 10
2908.1961487415192096
 20
88.2491557211704531
 30
0.0
 40
0.0110617458115917
 50
113.2920657233801052
 51
159.5164476182021929
  0
ARC
  5
3126A
  8
0
 10
2908.273664813510095
 20
87.9480907545642054
 30
0.0
 40
0.1420680689941338
 50
265.591580078960078
 51
290.511195650388288
  0
ARC
  5
3126B
  8
0
 10
2908.2248181950458275
 20
88.1073326968050878
 30
0.0
 40
0.3084936998401246
 50
288.6448753214997964
 51
302.6761307218782235
  0
ARC
  5
3126C
  8
0
 10
2908.1324567305559867
 20
88.2546241672399674
 30
0.0
 40
0.4823424770115161
 50
302.4650229129366039
 51
313.0430293536595059
  0
ARC
  5
3126D
  8
0
 10
2908.3914068403869351
 20
87.9731239804898735
 30
0.0
 40
0.0999064690820043
 50
314.6982418735921101
 51
326.1614031940873133
  0
ARC
  5
3126E
  8
0
 10
2908.2516286698501062
 20
88.0552285924981391
 30
0.0
 40
0.2187800047444549
 50
271.9879041418973884
 51
295.5431173732001753
  0
ARC
  5
3126F
  8
0
 10
2908.1944709021809103
 20
88.1748306307794252
 30
0.0
 40
0.3513381352604699
 50
295.5431173732001753
 51
306.8549994202580251
  0
ARC
  5
31270
  8
0
 10
2908.1107744824180372
 20
88.2864863308794838
 30
0.0
 40
0.4908805519155519
 50
306.8549994202580251
 51
313.4738872536739223
  0
ARC
  5
31271
  8
0
 10
2908.2165835555879312
 20
88.0948806667674233
 30
0.0
 40
0.2362698611263276
 50
277.8624089394762109
 51
305.8138828620301979
  0
ARC
  5
31272
  8
0
 10
2908.0482391570549225
 20
88.3613516452530376
 30
0.0
 40
0.5512064240758943
 50
303.7956193335321018
 51
311.6633922589675763
  0
ARC
  5
31273
  8
0
 10
2908.097445933941799
 20
88.3067718357716984
 30
0.0
 40
0.4460882521537821
 50
299.5838227489444989
 51
310.5089530394648136
  0
ARC
  5
31274
  8
0
 10
2908.1829760554210225
 20
88.1561125641213863
 30
0.0
 40
0.2728438646123079
 50
283.0660999792684152
 51
299.5838227489444989
  0
ARC
  5
31275
  8
0
 10
2908.2313899416080858
 20
87.9475072512126559
 30
0.0
 40
0.0586941951064851
 50
258.5434895152089894
 51
283.0660999792684152
  0
ARC
  5
31276
  8
0
 10
2908.2267676193600892
 20
87.9246992112741452
 30
0.0
 40
0.0354224837641359
 50
253.1308542340198073
 51
258.5434895152089894
  0
ARC
  5
31277
  8
0
 10
2908.2161570684970684
 20
87.8897080425783912
 30
0.0
 40
0.0011420574789799
 50
73.1308542340478311
 51
181.1329112843224038
  0
ARC
  5
31278
  8
0
 10
2908.2449024505208399
 20
87.9238341019119503
 30
0.0
 40
0.0631291746536125
 50
253.1402924895789965
 51
273.6342352081264266
  0
ARC
  5
31279
  8
0
 10
2908.228548399903957
 20
87.8698701761350094
 30
0.0
 40
0.0067415850895866
 50
209.1853825543622918
 51
253.1402924896048887
  0
ARC
  5
3127A
  8
0
 10
2908.2789948317431481
 20
87.8980468463940383
 30
0.0
 40
0.0645236517893817
 50
187.4456895115941109
 51
209.1853825543630023
  0
ARC
  5
3127B
  8
0
 10
2908.2510025293540821
 20
88.2460974251652743
 30
0.0
 40
0.4095995644851664
 50
269.0361337685325225
 51
271.1492521956967039
  0
ARC
  5
3127C
  8
0
 10
2908.2440602655528892
 20
87.8334624765394807
 30
0.0
 40
0.0030937791176595
 50
89.0361337685324656
 51
132.9314984460619087
  0
ARC
  5
3127D
  8
0
 10
2908.2624588444368783
 20
87.8347971233442451
 30
0.0
 40
0.0205269272491275
 50
177.4017954614432995
 51
206.3104460172210111
  0
ARC
  5
3127E
  8
0
 10
2908.3548538970630943
 20
87.8804825643865115
 30
0.0
 40
0.1235997426422719
 50
206.3104460172210111
 51
213.9780408968366885
  0
ARC
  5
3127F
  8
0
 10
2908.2617336186431203
 20
87.8177240564348125
 30
0.0
 40
0.0113054125387319
 50
213.9780408968387917
 51
234.1529823910522055
  0
ARC
  5
31280
  8
0
 10
2908.2610733802771392
 20
87.8168101949611639
 30
0.0
 40
0.0101780006827764
 50
234.1529823910508128
 51
259.6792741296159193
  0
ARC
  5
31281
  8
0
 10
2908.2632261925878083
 20
87.8286320458197736
 30
0.0
 40
0.0221942712592974
 50
259.6792741296159193
 51
268.7568329450451188
  0
ARC
  5
31282
  8
0
 10
2908.3169514891887957
 20
87.8365008565848342
 30
0.0
 40
0.1973581704061156
 50
128.2214479897195076
 51
130.7412292931211937
  0
ARC
  5
31283
  8
0
 10
2908.235197453956971
 20
87.9403117174706352
 30
0.0
 40
0.0652202987928085
 50
120.2823457776780032
 51
128.2214479897195076
  0
ARC
  5
31284
  8
0
 10
2911.0987975760272093
 20
83.0363792798299301
 30
0.0
 40
5.7440193806469271
 50
119.7755594189866031
 51
120.2823457776780032
  0
ARC
  5
31285
  8
0
 10
2907.9823612689719994
 20
88.483370285244817
 30
0.0
 40
0.531479505418305
 50
299.7755594189865747
 51
304.1762575821053929
  0
ARC
  5
31286
  8
0
 10
2907.7427490135769403
 20
88.836263478957747
 30
0.0
 40
0.958032713241354
 50
304.1762575821053929
 51
305.0520689703124049
  0
ARC
  5
31287
  8
0
 10
2907.3999412422208479
 20
89.3924900443945063
 30
0.0
 40
1.6501417918546131
 50
299.0186787102521748
 51
302.0203645507558008
  0
ARC
  5
31288
  8
0
 10
2907.9752287701799105
 20
88.4725652801560614
 30
0.0
 40
0.5651453348629011
 50
302.0203645507558008
 51
306.0720356561116091
  0
ARC
  5
31289
  8
0
 10
2908.3364357299838048
 20
87.9767187297858158
 30
0.0
 40
0.0483155598357582
 50
108.8318768315322984
 51
126.0720356561115949
  0
ARC
  5
3128A
  8
0
 10
2908.1586811216020578
 20
88.1770314478526558
 30
0.0
 40
0.2607320607903715
 50
282.9752713972633273
 51
298.7720787813569814
  0
ARC
  5
3128B
  8
0
 10
2907.9666141430398056
 20
88.5268036298532337
 30
0.0
 40
0.6597687803479819
 50
298.7720787813569814
 51
304.1425934730017957
  0
ARC
  5
3128C
  8
0
 10
2908.2628513417671456
 20
88.0899629849855899
 30
0.0
 40
0.1319560986916888
 50
304.1425934730017957
 51
313.0775651091354916
  0
ARC
  5
3128D
  8
0
 10
2908.2022534695429385
 20
87.9445359455378224
 30
0.0
 40
0.0052972270183192
 50
110.2925265548536942
 51
197.210593404095107
  0
ARC
  5
3128E
  8
0
 10
2908.2677663890499389
 20
87.9492168283779563
 30
0.0
 40
0.0708490139802963
 50
185.0595497906159039
 51
202.4248030360730866
  0
ARC
  5
3128F
  8
0
 10
2908.2039986337908886
 20
87.923146216564831
 30
0.0
 40
0.0019711807633267
 50
209.0184347744167042
 51
294.9485338420037124
  0
ARC
  5
31290
  8
0
 10
2908.1878703946658788
 20
88.1017847082430734
 30
0.0
 40
0.181221072820112
 50
275.3699205792038924
 51
279.3214687442397803
  0
LINE
  5
31291
  8
0
 10
2908.3856226707780479
 20
92.7122757547916336
 30
0.0
 11
2909.0489438979370789
 21
92.7122757547916336
 31
0.0
  0
ARC
  5
31292
  8
0
 10
2908.7172436792570807
 20
90.8495300799298207
 30
0.0
 40
0.0047818603096367
 50
89.5254338832005345
 51
139.7418224208462902
  0
ARC
  5
31293
  8
0
 10
2908.4150286968229011
 20
91.1054480032384078
 30
0.0
 40
0.3912331382426907
 50
311.0714688378412802
 51
319.7418224208462902
  0
ARC
  5
31294
  8
0
 10
2908.5907787537389595
 20
90.9037792958879294
 30
0.0
 40
0.123729212980825
 50
300.6177044941617282
 51
311.0714688378417918
  0
ARC
  5
31295
  8
0
 10
2908.6435458803248366
 20
90.814617848968993
 30
0.0
 40
0.02012355066053
 50
282.7029931167966765
 51
300.6177044941617282
  0
ARC
  5
31296
  8
0
 10
2908.6464241605808638
 20
90.8018490224713162
 30
0.0
 40
0.0070343403192593
 50
233.2051424245478017
 51
282.7029931167974155
  0
ARC
  5
31297
  8
0
 10
2908.6476956311589674
 20
90.8003011920168461
 30
0.0
 40
0.0068388971434769
 50
176.8520099093815077
 51
216.6798123845624957
  0
ARC
  5
31298
  8
0
 10
2908.6602017386899206
 20
90.7998640357203755
 30
0.0
 40
0.0193621111645388
 50
152.1938725596444897
 51
176.7630997450114876
  0
ARC
  5
31299
  8
0
 10
2908.6778317426737885
 20
90.7905663794189337
 30
0.0
 40
0.0392935800809753
 50
136.8793450944816072
 51
152.193872559643097
  0
ARC
  5
3129A
  8
0
 10
2905.7655405097530092
 20
93.5178102097245301
 30
0.0
 40
3.950606059669965
 50
316.8793450944816072
 51
317.2957459938608054
  0
ARC
  5
3129B
  8
0
 10
2908.4061017626968351
 20
91.0808073983095312
 30
0.0
 40
0.3573420235334531
 50
317.2957459938608054
 51
323.7812590365447818
  0
ARC
  5
3129C
  8
0
 10
2911.5879798352998478
 20
88.7504260407784926
 30
0.0
 40
3.5866439475926728
 50
143.3779835191814982
 51
143.7812590365448102
  0
ARC
  5
3129D
  8
0
 10
2908.6120735970371243
 20
90.9623037992495256
 30
0.0
 40
0.1212423987444762
 50
323.3779835191814982
 51
326.4882371278458777
  0
ARC
  5
3129E
  8
0
 10
2908.7173500141248041
 20
90.8925917726412251
 30
0.0
 40
0.0050227613302015
 50
90.7612085083618751
 51
146.4882371278459061
  0
ARC
  5
3129F
  8
0
 10
2908.7183082740079954
 20
90.947609555143984
 30
0.0
 40
0.0067790380248623
 50
98.6964554092096336
 51
140.6014037608946126
  0
ARC
  5
312A0
  8
0
 10
2908.0448341782680473
 20
91.3647060982856516
 30
0.0
 40
0.785455014564271
 50
325.2084965737406037
 51
328.2946677847900219
  0
ARC
  5
312A1
  8
0
 10
2908.1189811663421096
 20
91.313188904292133
 30
0.0
 40
0.695167711374244
 50
316.9726940415906142
 51
325.2084965737406037
  0
ARC
  5
312A2
  8
0
 10
2908.4473536943542058
 20
91.0066838565623186
 30
0.0
 40
0.2459752565884402
 50
306.2284201944261781
 51
316.9726940415906142
  0
ARC
  5
312A3
  8
0
 10
2908.4497280376808703
 20
91.0034431019055035
 30
0.0
 40
0.2419577950785563
 50
302.2987952934873874
 51
306.2284201944261781
  0
ARC
  5
312A4
  8
0
 10
2908.5707438372078286
 20
90.8120061246887929
 30
0.0
 40
0.015478347929045
 50
276.2942054857514904
 51
302.2987952934864779
  0
ARC
  5
312A5
  8
0
 10
2908.5713903528107949
 20
90.8061446247833288
 30
0.0
 40
0.0095813009082053
 50
253.7570484923452909
 51
276.2942054857514904
  0
ARC
  5
312A6
  8
0
 10
2908.5700120225260434
 20
90.8014136214726761
 30
0.0
 40
0.0046536050267116
 50
203.1011345573668905
 51
253.7570484923452909
  0
ARC
  5
312A7
  8
0
 10
2908.5720228759491874
 20
90.8024343083949645
 30
0.0
 40
0.006905314174922
 50
169.9880372682164023
 51
204.3447785197903102
  0
ARC
  5
312A8
  8
0
 10
2908.5870988860679063
 20
90.7987152780767985
 30
0.0
 40
0.0224225018565366
 50
139.9921828112213973
 51
167.326078521699003
  0
ARC
  5
312A9
  8
0
 10
2910.0158731713231646
 20
89.5994990764621519
 30
0.0
 40
1.887768436641726
 50
139.5493793667652085
 51
139.9921828112213973
  0
ARC
  5
312AA
  8
0
 10
2907.562354931812024
 20
91.6913473373132604
 30
0.0
 40
1.336449437206584
 50
319.5493793667658906
 51
322.0078880389506253
  0
ARC
  5
312AB
  8
0
 10
2906.7774544351341319
 20
92.3044048132953492
 30
0.0
 40
2.3323953486605959
 50
322.0078880389506253
 51
324.3346928409919769
  0
ARC
  5
312AC
  8
0
 10
2908.2872367638328797
 20
91.220901764631364
 30
0.0
 40
0.4740569681402994
 50
324.3346928409919769
 51
331.9095455543010189
  0
ARC
  5
312AD
  8
0
 10
2909.0928830254488275
 20
90.790899196462135
 30
0.0
 40
0.4391615749748174
 50
149.908032019559613
 51
151.9095455543009905
  0
ARC
  5
312AE
  8
0
 10
2908.7177336800618832
 20
91.008223063495123
 30
0.0
 40
0.0056106692727999
 50
94.6043510872311657
 51
149.2688028022645881
  0
ARC
  5
312AF
  8
0
 10
2908.717194653432216
 20
91.0692928232373049
 30
0.0
 40
0.0048429426037048
 50
88.9513525635146607
 51
141.7488819688595072
  0
ARC
  5
312B0
  8
0
 10
2907.5932185408560144
 20
91.6429051709189935
 30
0.0
 40
1.2571347437538289
 50
329.9037560198116807
 51
333.005789891489826
  0
ARC
  5
312B1
  8
0
 10
2907.6667713085698779
 20
91.5992157539794931
 30
0.0
 40
1.171590168589145
 50
321.2508658862980155
 51
329.9485555901160865
  0
ARC
  5
312B2
  8
0
 10
2908.1664198108910568
 20
91.1982178495783558
 30
0.0
 40
0.5309280538940584
 50
312.8814760081883151
 51
321.2508658862980155
  0
ARC
  5
312B3
  8
0
 10
2908.2138525411419323
 20
91.1471410469448244
 30
0.0
 40
0.4612236518354867
 50
311.4083380582212044
 51
312.8814760081883151
  0
ARC
  5
312B4
  8
0
 10
2908.5076668806841553
 20
90.8139718499124342
 30
0.0
 40
0.0170068354361865
 50
287.8842516198031944
 51
311.4083380582201244
  0
ARC
  5
312B5
  8
0
 10
2908.5098233856751904
 20
90.8072889021196232
 30
0.0
 40
0.0099845633696283
 50
252.122669320426894
 51
287.8842516198029102
  0
ARC
  5
312B6
  8
0
 10
2908.5091146178410781
 20
90.8023366046294598
 30
0.0
 40
0.0051240780036555
 50
208.9590228033318908
 51
242.622734094929001
  0
ARC
  5
312B7
  8
0
 10
2908.5113555861457826
 20
90.8034765342490147
 30
0.0
 40
0.0076372880890945
 50
168.1920897134255029
 51
208.3015155303320967
  0
ARC
  5
312B8
  8
0
 10
2908.5263506897258594
 20
90.8003417332518836
 30
0.0
 40
0.0229565605487126
 50
147.9446668788893078
 51
168.1920897134239112
  0
ARC
  5
312B9
  8
0
 10
2908.6850165168871172
 20
90.6887533510570449
 30
0.0
 40
0.2169035491350563
 50
140.425503959795293
 51
145.205628303131391
  0
ARC
  5
312BA
  8
0
 10
2906.377770452797904
 20
92.3909546119885903
 30
0.0
 40
2.6506588825566451
 50
323.8395809601227029
 51
328.7231819545481812
  0
ARC
  5
312BB
  8
0
 10
2906.7681743741932223
 20
92.1640899493909558
 30
0.0
 40
2.1992282606702989
 50
328.4940968248538979
 51
332.1610666137207204
  0
ARC
  5
312BC
  8
0
 10
2908.7173082924177834
 20
91.1348673294896088
 30
0.0
 40
0.0049560131128072
 50
90.2891002295392866
 51
153.514366209884912
  0
ARC
  5
312BD
  8
0
 10
2908.7173564461318165
 20
91.2084277725401051
 30
0.0
 40
0.0049562394733323
 50
90.8457895035994341
 51
157.3554270629448126
  0
ARC
  5
312BE
  8
0
 10
2907.7262552355418848
 20
91.6218882998360442
 30
0.0
 40
1.0689297960377191
 50
329.6511095924764732
 51
337.3554270629447842
  0
ARC
  5
312BF
  8
0
 10
2883.9687156811942259
 20
105.5318816940914957
 30
0.0
 40
28.599069677713441
 50
329.2821173501117755
 51
329.6511095924764732
  0
ARC
  5
312C0
  8
0
 10
2905.0339034358207755
 20
93.0153942868416124
 30
0.0
 40
4.0959149389143779
 50
327.5944841373151917
 51
329.2821173501117755
  0
ARC
  5
312C1
  8
0
 10
2907.8384766044869139
 20
91.2351792746291039
 30
0.0
 40
0.7740485737349205
 50
325.9960429878444756
 51
327.5944841373151917
  0
ARC
  5
312C2
  8
0
 10
2908.4802519051208947
 20
90.8075143293857536
 30
0.0
 40
0.0169556063664534
 50
158.3242137550221003
 51
205.6117838648308123
  0
ARC
  5
312C3
  8
0
 10
2908.4708193765191027
 20
90.8029926333834538
 30
0.0
 40
0.0064952846430536
 50
205.6117838648314944
 51
238.884228343733497
  0
ARC
  5
312C4
  8
0
 10
2908.4708635570009392
 20
90.8030658266437456
 30
0.0
 40
0.0065807783170666
 50
238.8842283437099923
 51
298.2922145584934128
  0
ARC
  5
312C5
  8
0
 10
2908.4639167857080793
 20
90.8159715818392641
 30
0.0
 40
0.0212373859931259
 50
298.2922145584930149
 51
319.9014385871681725
  0
ARC
  5
312C6
  8
0
 10
2908.5124503259030462
 20
90.795013749168163
 30
0.0
 40
0.0514951160598344
 50
146.6741802519088935
 51
158.6312707740987094
  0
ARC
  5
312C7
  8
0
 10
2919.0244559477919211
 20
84.5371199593767955
 30
0.0
 40
12.2851472536109991
 50
148.6352811322495029
 51
149.2235443925079892
  0
ARC
  5
312C8
  8
0
 10
2906.5368295833018237
 20
92.1344473205506773
 30
0.0
 40
2.3320006960632522
 50
328.9416130244969168
 51
335.6459758414139856
  0
ARC
  5
312C9
  8
0
 10
2906.2051792653510347
 20
92.2842107841468078
 30
0.0
 40
2.695897571410685
 50
335.6529271433871031
 51
338.4530497774583182
  0
ARC
  5
312CA
  8
0
 10
2908.717337872320968
 20
91.2923691674182152
 30
0.0
 40
0.0049718457613573
 50
90.6290711842116252
 51
159.5540660986260946
  0
ARC
  5
312CB
  8
0
 10
2908.7183496450688835
 20
91.3792280105646313
 30
0.0
 40
0.0062826151203583
 50
99.7722236729442358
 51
155.3732783256756989
  0
ARC
  5
312CC
  8
0
 10
2906.5589738430758189
 20
92.1603960104114606
 30
0.0
 40
2.2900680116900332
 50
337.4635122429298235
 51
340.1250712153849918
  0
ARC
  5
312CD
  8
0
 10
2905.7167030383761812
 20
92.5313929060644966
 30
0.0
 40
3.2102733138363702
 50
332.0407950989956021
 51
337.1092811737747184
  0
ARC
  5
312CE
  8
0
 10
2899.6504649702751522
 20
95.6727524947860957
 30
0.0
 40
10.0415136301646601
 50
330.8594348450803864
 51
332.4368250958407884
  0
ARC
  5
312CF
  8
0
 10
2909.6520277240670111
 20
90.3209259967462259
 30
0.0
 40
1.325609852436284
 50
154.3515375241948107
 51
159.5999132424663003
  0
ARC
  5
312D0
  8
0
 10
2920.0219951499971103
 20
85.3416810054285548
 30
0.0
 40
12.82904869038458
 50
153.1761983089020873
 51
154.3515375241948107
  0
ARC
  5
312D1
  8
0
 10
2906.754945642489929
 20
92.0502690615393675
 30
0.0
 40
2.0376845197468652
 50
333.1761983089020873
 51
339.7838068483358143
  0
ARC
  5
312D2
  8
0
 10
2889.0970745159279431
 20
98.5527673305321059
 30
0.0
 40
20.8547750616062793
 50
339.7838068483358143
 51
340.0818420029526123
  0
ARC
  5
312D3
  8
0
 10
2908.160994963819121
 20
91.6448903032668625
 30
0.0
 40
0.577895916448175
 50
340.0818420029526123
 51
342.648994760102596
  0
ARC
  5
312D4
  8
0
 10
2908.7174108731101114
 20
91.4710425168152881
 30
0.0
 40
0.0050463765502617
 50
91.448761933692623
 51
162.6489947601041024
  0
ARC
  5
312D5
  8
0
 10
2908.7175018106418065
 20
91.5891390190303412
 30
0.0
 40
0.0051296242412011
 50
92.4415718493761318
 51
173.2722067664302017
  0
ARC
  5
312D6
  8
0
 10
2905.1861781637790045
 20
92.6619623236312577
 30
0.0
 40
3.6856416237498171
 50
340.1949251849994766
 51
343.087030092746204
  0
ARC
  5
312D7
  8
0
 10
2904.3348017803950825
 20
93.0005758044186877
 30
0.0
 40
4.6014877693237208
 50
334.7009483376523917
 51
339.8198768091610873
  0
ARC
  5
312D8
  8
0
 10
2910.1765871225470619
 20
90.2303914071745226
 30
0.0
 40
1.8638457521559899
 50
154.4535014734838967
 51
160.9844058125767106
  0
ARC
  5
312D9
  8
0
 10
2907.2391987602441077
 20
91.184541732580854
 30
0.0
 40
1.2253702758558589
 50
340.8712867272670906
 51
343.5566618772497236
  0
ARC
  5
312DA
  8
0
 10
2908.5707338027827973
 20
90.7890241926007064
 30
0.0
 40
0.1776088018921412
 50
164.4504063372025939
 51
181.9442600795067051
  0
ARC
  5
312DB
  8
0
 10
2942.3782014340758906
 20
81.3818626789895632
 30
0.0
 40
35.2694818693719512
 50
164.3102116891714104
 51
164.4504063372025939
  0
ARC
  5
312DC
  8
0
 10
2911.5448156555999049
 20
89.8950823023616579
 30
0.0
 40
3.2858083211013982
 50
157.6645143628005883
 51
161.8294840379064965
  0
ARC
  5
312DD
  8
0
 10
2896.3742437526238973
 20
96.128785471657423
 30
0.0
 40
13.1155729381123898
 50
337.6612041038069947
 51
339.0499821896444246
  0
ARC
  5
312DE
  8
0
 10
2904.8780078897229942
 20
92.8532966523203527
 30
0.0
 40
4.0028498791645983
 50
339.3134318211043023
 51
342.6393433953106751
  0
ARC
  5
312DF
  8
0
 10
2905.3219349043361035
 20
92.7083450977281132
 30
0.0
 40
3.5358992241820548
 50
342.7347361690264052
 51
343.5183762311540931
  0
ARC
  5
312E0
  8
0
 10
2908.7173380364702098
 20
91.7039729578048508
 30
0.0
 40
0.0049416657465764
 50
90.6348165721357475
 51
165.8277367656824026
  0
ARC
  5
312E1
  8
0
 10
2908.7174648380068902
 20
91.8272896292754552
 30
0.0
 40
0.00500004473301
 50
92.0808748136860657
 51
169.6471991492230131
  0
ARC
  5
312E2
  8
0
 10
2903.4020710425479592
 20
93.3798774513272036
 30
0.0
 40
5.5325297949976138
 50
341.986007890059625
 51
343.7119511269659142
  0
ARC
  5
312E3
  8
0
 10
2902.3921495212348418
 20
93.7199162191795381
 30
0.0
 40
6.5981119855852777
 50
339.6882267122117014
 51
341.8900277426495222
  0
ARC
  5
312E4
  8
0
 10
2923.3017378201730025
 20
85.8387350875377138
 30
0.0
 40
15.7476099358211101
 50
159.2050464046228058
 51
160.4802862297019885
  0
ARC
  5
312E5
  8
0
 10
2909.9097479398678843
 20
90.5859013292496655
 30
0.0
 40
1.539127292674594
 50
160.4672223950105945
 51
170.2906090373118957
  0
ARC
  5
312E6
  8
0
 10
2909.2932069591452091
 20
90.710938729641299
 30
0.0
 40
0.9105339192593612
 50
171.5030299263733866
 51
174.2714469552705907
  0
ARC
  5
312E7
  8
0
 10
2908.3562898096829485
 20
90.8043491982234343
 30
0.0
 40
0.0310333708795904
 50
345.1684016045334147
 51
355.3330947542522722
  0
ARC
  5
312E8
  8
0
 10
2908.3973689294962242
 20
90.7991175667403354
 30
0.0
 40
0.0114068513223425
 50
178.9593172329080062
 51
193.7552207782034941
  0
ARC
  5
312E9
  8
0
 10
2908.799829657571081
 20
90.8054960677308571
 30
0.0
 40
0.4139117069131552
 50
176.4656182857364115
 51
180.8542982029642872
  0
ARC
  5
312EA
  8
0
 10
2909.2471865905167761
 20
90.7781893389147427
 30
0.0
 40
0.8621012121509682
 50
169.0345372323492086
 51
176.4871274725630883
  0
ARC
  5
312EB
  8
0
 10
2909.8941359525038024
 20
90.6528397827999868
 30
0.0
 40
1.521082234785444
 50
162.5973189657601097
 51
169.0345372323492086
  0
ARC
  5
312EC
  8
0
 10
2915.2446383233450433
 20
88.9758190204328088
 30
0.0
 40
7.1282449984107101
 50
159.4535248582720044
 51
162.5973189657601097
  0
ARC
  5
312ED
  8
0
 10
2904.3233994001921019
 20
93.0692030557014647
 30
0.0
 40
4.534912913440559
 50
339.453524858271976
 51
343.5483585925655916
  0
ARC
  5
312EE
  8
0
 10
2893.0623182270460347
 20
96.3945513570357662
 30
0.0
 40
16.2767139044877283
 50
343.5483585925655916
 51
343.8916209913090256
  0
ARC
  5
312EF
  8
0
 10
2907.0288342141461726
 20
92.3611109237182575
 30
0.0
 40
1.7394441970419261
 50
343.8916209913090256
 51
345.4527018266599043
  0
ARC
  5
312F0
  8
0
 10
2908.7176144252330232
 20
91.922875002191077
 30
0.0
 40
0.0052704857289103
 50
93.6022109701889633
 51
165.4527018266574885
  0
ARC
  5
312F1
  8
0
 10
2908.7173989627540323
 20
92.0672293686131553
 30
0.0
 40
0.0044179791564048
 50
91.500360991966815
 51
147.5641437067664867
  0
ARC
  5
312F2
  8
0
 10
2908.7227141453631702
 20
92.0638515833702371
 30
0.0
 40
0.0107156453367802
 50
147.5641437067693005
 51
163.9488963961206878
  0
ARC
  5
312F3
  8
0
 10
2904.0710307880708569
 20
93.2560475524584831
 30
0.0
 40
4.791318653758438
 50
342.4804056585542185
 51
345.628633081806413
  0
ARC
  5
312F4
  8
0
 10
2895.8669535618601003
 20
95.9049970717279905
 30
0.0
 40
13.4123789656716497
 50
340.894581318549001
 51
342.2395310166422746
  0
ARC
  5
312F5
  8
0
 10
2915.1126792577720153
 20
89.2382593023805271
 30
0.0
 40
6.9553246400948217
 50
160.892485449793412
 51
162.8754390140254031
  0
ARC
  5
312F6
  8
0
 10
2910.7108018252938564
 20
90.5957251165561104
 30
0.0
 40
2.3488906140890502
 50
162.9035450325091006
 51
167.9163595437011907
  0
ARC
  5
312F7
  8
0
 10
2909.7818158921768372
 20
90.797964258713435
 30
0.0
 40
1.3981554209616001
 50
168.0509696781755906
 51
173.8364026460151024
  0
ARC
  5
312F8
  8
0
 10
2921.5259875884298708
 20
89.9977173365169989
 30
0.0
 40
13.1685830864576907
 50
175.8614222208497893
 51
176.2484561861606949
  0
ARC
  5
312F9
  8
0
 10
2910.0102952238139551
 20
90.8497089521162451
 30
0.0
 40
1.6267909785103569
 50
170.3338962087645996
 51
177.0756833673758877
  0
ARC
  5
312FA
  8
0
 10
2910.3073383474520597
 20
90.7991152882502348
 30
0.0
 40
1.928111963713401
 50
162.5133420511623115
 51
170.3338962087645996
  0
ARC
  5
312FB
  8
0
 10
2942.4407450321177748
 20
80.6757170241126573
 30
0.0
 40
35.6184520863138872
 50
161.9776838357634006
 51
162.5133420511623115
  0
ARC
  5
312FC
  8
0
 10
2894.5191975829711737
 20
96.2670097820408159
 30
0.0
 40
14.7756261350835594
 50
341.9776838357634006
 51
343.3692896611307219
  0
ARC
  5
312FD
  8
0
 10
2906.5006412788497983
 20
92.6881924224311291
 30
0.0
 40
2.2711098817070581
 50
343.3692896611307219
 51
346.8825832893019196
  0
ARC
  5
312FE
  8
0
 10
2908.7176389868131992
 20
92.1715704293455929
 30
0.0
 40
0.005285760718673
 50
93.8585902947648236
 51
166.8825832893026018
  0
ARC
  5
312FF
  8
0
 10
2908.7191983877378334
 20
92.3358423893046734
 30
0.0
 40
0.0068682808375418
 50
106.1905553059459066
 51
168.7160423744078059
  0
ARC
  5
31300
  8
0
 10
2903.8321071456380196
 20
93.432996581529693
 30
0.0
 40
5.0018668689940311
 50
345.4943991890198731
 51
347.3449823498228284
  0
ARC
  5
31301
  8
0
 10
2902.0865326999301033
 20
93.8888528343314306
 30
0.0
 40
6.8059795864865231
 50
342.854616028247392
 51
345.4598594871735031
  0
ARC
  5
31302
  8
0
 10
2938.671827048175146
 20
82.6020170701054752
 30
0.0
 40
31.4807860658422385
 50
162.8546160282473068
 51
163.6542184378484137
  0
ARC
  5
31303
  8
0
 10
2910.4250189305730601
 20
90.8864678217689885
 30
0.0
 40
2.0441712283751232
 50
163.6542184378484137
 51
169.183789032347903
  0
ARC
  5
31304
  8
0
 10
2910.2292603328960467
 20
90.9238681769590755
 30
0.0
 40
1.844871917958395
 50
169.183789032347903
 51
177.9040561270603007
  0
ARC
  5
31305
  8
0
 10
2908.7173417657750178
 20
92.5210023023923611
 30
0.0
 40
0.0049236649421527
 50
90.6805376423264136
 51
175.9156719772898043
  0
ARC
  5
31306
  8
0
 10
2904.5743687018871242
 20
93.2696008293428633
 30
0.0
 40
4.2051671963239698
 50
349.045696808831508
 51
349.7504779575543807
  0
ARC
  5
31307
  8
0
 10
2903.0459811294090287
 20
93.585314115163456
 30
0.0
 40
5.7657329087525619
 50
345.2692659719631934
 51
348.8516482225701907
  0
ARC
  5
31308
  8
0
 10
2894.4229302857620496
 20
95.8524736912362556
 30
0.0
 40
14.6818429571704296
 50
343.9018684249710986
 51
345.2692659719631934
  0
ARC
  5
31309
  8
0
 10
2918.9912113492978278
 20
88.7620716540482277
 30
0.0
 40
10.8891217384728396
 50
163.9018684249710134
 51
165.4536427509250132
  0
ARC
  5
3130A
  8
0
 10
2910.7276647659527953
 20
90.9063047042098731
 30
0.0
 40
2.351912738541484
 50
165.4536427509250132
 51
172.2522859658259051
  0
ARC
  5
3130B
  8
0
 10
2909.7005504149638
 20
91.046047094303816
 30
0.0
 40
1.315335763302214
 50
172.2522859658259051
 51
178.5728620097505939
  0
ARC
  5
3130C
  8
0
 10
2914.7513626755148834
 20
92.5130254487504118
 30
0.0
 40
6.3630245518161406
 50
178.2055596315136938
 51
178.9552700875644859
  0
ARC
  5
3130D
  8
0
 10
3055.2521496199960893
 20
89.9508534024953406
 30
0.0
 40
146.8871714363027081
 50
178.9552700875644859
 51
179.0393773682513086
  0
ARC
  5
3130E
  8
0
 10
2896.7703335890319067
 20
92.8805354261649683
 30
0.0
 40
11.6286036453314505
 50
357.6690580229735019
 51
359.1709318024783784
  0
ARC
  5
3130F
  8
0
 10
2903.1657486298549884
 20
92.4785585374590511
 30
0.0
 40
5.2240489836984976
 50
357.7091939104482776
 51
359.2215482733673753
  0
ARC
  5
31310
  8
0
 10
2946.956592161881872
 20
90.5012313470182477
 30
0.0
 40
38.6094313185342131
 50
176.7170493292894946
 51
177.2025092202451901
  0
ARC
  5
31311
  8
0
 10
2913.9716830055281207
 20
92.1130145440318131
 30
0.0
 40
5.5851663437144872
 50
177.2025092202451901
 51
178.6954208213849995
  0
ARC
  5
31312
  8
0
 10
2901.2851891158670696
 20
92.401925815442695
 30
0.0
 40
7.1046168276068258
 50
358.033711434517727
 51
358.6954208213850279
  0
ARC
  5
31313
  8
0
 10
2903.7655067093592152
 20
92.8967738945276551
 30
0.0
 40
4.6601947995507436
 50
355.3355716619910254
 51
357.7310544725797854
  0
ARC
  5
31314
  8
0
 10
2914.7249755585999083
 20
92.0025912859881174
 30
0.0
 40
6.3356917038146481
 50
175.335571661990997
 51
177.7859215253137961
  0
ARC
  5
31315
  8
0
 10
2870.2323715005832128
 20
93.7227734950736959
 30
0.0
 40
38.1901529562915485
 50
357.5805476589504792
 51
357.7859215253138245
  0
ARC
  5
31316
  8
0
 10
2920.1695174438618778
 20
91.6128029033860258
 30
0.0
 40
11.7915489040712895
 50
177.5805476589505076
 51
177.9360184152725139
  0
ARC
  5
31317
  8
0
 10
2880.067190128268976
 20
95.3209096063088452
 30
0.0
 40
28.4966471745164114
 50
354.2983816430646016
 51
354.7476891356665192
  0
ARC
  5
31318
  8
0
 10
2916.7635317776012016
 20
91.6570809269667564
 30
0.0
 40
8.3821425430978653
 50
174.2983816430646016
 51
176.5311133159856922
  0
ARC
  5
31319
  8
0
 10
2963.2704838514600851
 20
88.8379421789412334
 30
0.0
 40
54.9744609494717977
 50
176.5311133159856922
 51
176.6961799586345023
  0
ARC
  5
3131A
  8
0
 10
2909.4764417520550523
 20
91.9432856409206209
 30
0.0
 40
1.0908630424147669
 50
176.6961799586345023
 51
179.4856395172247971
  0
ARC
  5
3131B
  8
0
 10
2960.3190524988808647
 20
87.0596525444982632
 30
0.0
 40
52.1629760159858407
 50
173.778945987168612
 51
174.3167388874151982
  0
ARC
  5
3131C
  8
0
 10
2916.0756499225030893
 20
91.4626771617448071
 30
0.0
 40
7.7010226477908024
 50
174.3167388874151982
 51
176.2363120468340867
  0
ARC
  5
3131D
  8
0
 10
2911.263532155222947
 20
91.7792345946834445
 30
0.0
 40
2.8785040097216958
 50
176.2363120468334046
 51
178.835490720205911
  0
ARC
  5
3131E
  8
0
 10
2926.5888995211789734
 20
90.1320403595641153
 30
0.0
 40
18.281608559511529
 50
171.8862791267769126
 51
173.0804517118108095
  0
ARC
  5
3131F
  8
0
 10
2916.5283578650851268
 20
91.2403102560813437
 30
0.0
 40
8.1615919762145843
 50
172.2952094464494053
 51
175.3576940446799881
  0
ARC
  5
31320
  8
0
 10
2910.151832891794129
 20
91.733807382966404
 30
0.0
 40
1.7662106253334591
 50
174.5724517793179871
 51
180.0385065281575123
  0
ARC
  5
31321
  8
0
 10
2904.029542122229941
 20
93.4598047101914204
 30
0.0
 40
4.7437065454544136
 50
346.8834847093971803
 51
350.9333496633228151
  0
ARC
  5
31322
  8
0
 10
2892.1467466539311317
 20
96.2286287310509039
 30
0.0
 40
16.9448218469303313
 50
345.3406901385512242
 51
346.8834847093971803
  0
ARC
  5
31323
  8
0
 10
2927.2620450292729402
 20
87.0429521316357153
 30
0.0
 40
19.352021467307619
 50
165.3406901385519063
 51
166.6006258721353959
  0
ARC
  5
31324
  8
0
 10
2910.3031231121290148
 20
91.0829414576656404
 30
0.0
 40
1.918532248387276
 50
166.6006258721353959
 51
174.2984380131032935
  0
ARC
  5
31325
  8
0
 10
2911.2489846493508594
 20
90.9885058822988952
 30
0.0
 40
2.8690963574778392
 50
174.2984380131032935
 51
176.3769002393696042
  0
ARC
  5
31326
  8
0
 10
2901.8017427595850677
 20
93.7764714784653961
 30
0.0
 40
6.9548844581423586
 50
349.1470026481428022
 51
351.1983584995455203
  0
ARC
  5
31327
  8
0
 10
2901.9944470403152081
 20
93.7395264046541854
 30
0.0
 40
6.7586705995832483
 50
346.1091749969505145
 51
349.1470026481428022
  0
ARC
  5
31328
  8
0
 10
2932.062646286933159
 20
86.3035089996362785
 30
0.0
 40
24.2153662826523508
 50
166.109174996950486
 51
167.1855105564351049
  0
ARC
  5
31329
  8
0
 10
2911.6351084465641179
 20
90.9499645806584169
 30
0.0
 40
3.266050024450847
 50
167.1855105564351049
 51
170.2031761198105926
  0
ARC
  5
3132A
  8
0
 10
2910.9721378389249367
 20
91.064441641841114
 30
0.0
 40
2.5932684669376398
 50
170.2031761198105926
 51
174.5418682304369895
  0
ARC
  5
3132B
  8
0
 10
2909.5923141601438147
 20
91.1962859832757147
 30
0.0
 40
1.2071601324655159
 50
174.5418682304369895
 51
178.4034393834695891
  0
ARC
  5
3132C
  8
0
 10
2889.0722442187520755
 20
96.3914647705522327
 30
0.0
 40
19.9218656679780288
 50
348.5070084541866891
 51
349.3574685189182105
  0
ARC
  5
3132D
  8
0
 10
2898.5325650324489288
 20
94.4679458093297768
 30
0.0
 40
10.2679755146633092
 50
346.312579621353791
 51
348.5070084541866891
  0
ARC
  5
3132E
  8
0
 10
2913.5341601837808412
 20
90.8144403383935241
 30
0.0
 40
5.1721008876938734
 50
166.3125796213539047
 51
168.4365381209420889
  0
ARC
  5
3132F
  8
0
 10
2920.1931531862360316
 20
89.4519702422852276
 30
0.0
 40
11.96904965677634
 50
168.4365381209420889
 51
169.6499042517239957
  0
ARC
  5
31330
  8
0
 10
2910.2921299343461214
 20
91.2602352621602364
 30
0.0
 40
1.904255380856636
 50
169.6499042517239957
 51
174.7384824390273081
  0
ARC
  5
31331
  8
0
 10
2911.6671257405159849
 20
91.1336121568277662
 30
0.0
 40
3.2850692270329338
 50
174.7384824390273081
 51
176.649236768186114
  0
ARC
  5
31332
  8
0
 10
2909.7210389241940902
 20
91.2475528425889166
 30
0.0
 40
1.335649729712304
 50
176.649236768186114
 51
178.9286987231540138
  0
ARC
  5
31333
  8
0
 10
2905.461395658398942
 20
93.0515488776511575
 30
0.0
 40
3.1702094628538049
 50
349.2169565963720856
 51
353.8580315925569266
  0
ARC
  5
31334
  8
0
 10
2897.2475579368510807
 20
94.6159030339966307
 30
0.0
 40
11.5316886407500707
 50
347.3180818362063178
 51
349.2169565963720856
  0
ARC
  5
31335
  8
0
 10
2915.7779525171918067
 20
90.4460427850813744
 30
0.0
 40
7.462080279571877
 50
167.3180818362062041
 51
169.4412600565254081
  0
ARC
  5
31336
  8
0
 10
2913.1561382722529743
 20
90.9347480915491531
 30
0.0
 40
4.7951076866249389
 50
169.4412600565254081
 51
172.5454966385034936
  0
ARC
  5
31337
  8
0
 10
2910.1840112739828328
 20
91.3236353135216348
 30
0.0
 40
1.797646733541393
 50
172.5454966385034936
 51
177.2922688449889961
  0
ARC
  5
31338
  8
0
 10
2911.7765697953068411
 20
91.2483167903991159
 30
0.0
 40
3.391985318586912
 50
177.2922688449889961
 51
178.5823814366924864
  0
ARC
  5
31339
  8
0
 10
2901.4896465774982062
 20
93.822821365587501
 30
0.0
 40
7.189129013740664
 50
349.2088316854881214
 51
351.1136111688991264
  0
ARC
  5
3133A
  8
0
 10
2876.6614362030318262
 20
98.5550895791948847
 30
0.0
 40
32.4643024620928102
 50
348.4323437333986249
 51
349.2088316854881214
  0
ARC
  5
3133B
  8
0
 10
2912.5146074126751046
 20
91.2165801130962564
 30
0.0
 40
4.1321947332940239
 50
168.4323437333985964
 51
171.7953491224849074
  0
ARC
  5
3133C
  8
0
 10
2920.3608159212658393
 20
90.0852740604396303
 30
0.0
 40
12.0595424199466095
 50
171.7953491224849074
 51
172.5568320940012086
  0
ARC
  5
3133D
  8
0
 10
2910.6669099465311774
 20
91.3517201539617361
 30
0.0
 40
2.2832599590714291
 50
172.5568320940012086
 51
177.6181240734204891
  0
ARC
  5
3133E
  8
0
 10
2906.7659261281378349
 20
92.8127618426753145
 30
0.0
 40
1.7938656860162581
 50
352.2005261408141905
 51
356.7888097585743026
  0
ARC
  5
3133F
  8
0
 10
2903.704346910932145
 20
93.2321173864276744
 30
0.0
 40
4.884031761699509
 50
348.9722975975258237
 51
352.2005261408141905
  0
ARC
  5
31340
  8
0
 10
2922.9034840009690015
 20
89.490548793949614
 30
0.0
 40
14.6762903351947998
 50
168.9722975975265911
 51
169.9325462458211007
  0
ARC
  5
31341
  8
0
 10
2915.3595722680779545
 20
90.8299033833488636
 30
0.0
 40
7.014405779173976
 50
169.9325462458211007
 51
172.4801412372131892
  0
ARC
  5
31342
  8
0
 10
2910.4479574118868186
 20
91.478261701189993
 30
0.0
 40
2.0601824289536932
 50
172.4801412372131892
 51
176.4064402532571023
  0
ARC
  5
31343
  8
0
 10
2916.6554659687822095
 20
91.0884188692243697
 30
0.0
 40
8.279920358927205
 50
176.4064402532571023
 51
177.1729375428591027
  0
ARC
  5
31344
  8
0
 10
2905.4638780325358312
 20
93.0387313083213883
 30
0.0
 40
3.0934262877307068
 50
351.8913060947550093
 51
353.9421801010448121
  0
ARC
  5
31345
  8
0
 10
2898.8508047939299104
 20
93.9809348023111397
 30
0.0
 40
9.7732829541015658
 50
349.3156896186571885
 51
351.8913060947550093
  0
ARC
  5
31346
  8
0
 10
2911.3409313670958909
 20
91.6244430550775348
 30
0.0
 40
2.9371975705867421
 50
169.3156896186573022
 51
172.8321649043548973
  0
ARC
  5
31347
  8
0
 10
2534.3727318902388106
 20
139.0316155649479128
 30
0.0
 40
377.000249152164713
 50
352.7999285962318936
 51
352.832164904355011
  0
ARC
  5
31348
  8
0
 10
2909.8496028002127787
 20
91.5973804433123178
 30
0.0
 40
1.460960550916685
 50
172.7999285962318936
 51
177.7015758619625956
  0
ARC
  5
31349
  8
0
 10
2906.670734309708223
 20
91.7249694184330622
 30
0.0
 40
1.720467403083741
 50
355.3845729153505886
 51
357.701575861962624
  0
ARC
  5
3134A
  8
0
 10
2900.3769704152300619
 20
93.575911242193655
 30
0.0
 40
8.1768459292365492
 50
353.3819206257473979
 51
353.9371324176556186
  0
ARC
  5
3134B
  8
0
 10
2898.7080124779017751
 20
93.7695499644436836
 30
0.0
 40
9.8569996577172585
 50
351.6423640818006788
 51
353.3819206257473979
  0
ARC
  5
3134C
  8
0
 10
2930.3492328678930789
 20
89.1210838747235812
 30
0.0
 40
22.12385500183305
 50
171.6423640818007073
 51
172.6242727895536007
  0
ARC
  5
3134D
  8
0
 10
2910.5694828783398407
 20
91.6815044939331329
 30
0.0
 40
2.17907464715082
 50
172.6242727895536007
 51
175.5988598118435959
  0
ARC
  5
3134E
  8
0
 10
2914.9551666726501935
 20
91.3439567252646896
 30
0.0
 40
6.5777290822951944
 50
175.5988598118435959
 51
176.5610341206912892
  0
ARC
  5
3134F
  8
0
 10
2911.7776993582060641
 20
91.5349017241873071
 30
0.0
 40
3.394529665516747
 50
176.5610341206912892
 51
177.8216869115701968
  0
LINE
  5
31350
  8
0
 10
2909.248778285716071
 20
88.5307233195065919
 30
0.0
 11
2909.2487808247160501
 21
93.240266329313485
 31
0.0
  0
ARC
  5
31351
  8
0
 10
2909.3292433228170921
 20
93.2395565252976155
 30
0.0
 40
0.0804656288270282
 50
145.9810388545047033
 51
179.4945754798179109
  0
LINE
  5
31352
  8
0
 10
2909.2487801712150031
 20
93.2401673327381246
 30
0.0
 11
2909.2487801712150031
 21
88.0232232894703088
 31
0.0
  0
LINE
  5
31353
  8
0
 10
2909.0522832857159301
 20
93.7155216589895872
 30
0.0
 11
2909.0522832857159301
 21
92.722360620713502
 31
0.0
  0
ARC
  5
31354
  8
0
 10
2908.717283285709982
 20
93.7155153506479905
 30
0.0
 40
0.3350000000655091
 50
0.0010789207345516
 51
90.0000054377783556
  0
ARC
  5
31355
  8
0
 10
2908.9757284442398486
 20
90.7424606205419053
 30
0.0
 40
0.0199999998284231
 50
269.999999932360879
 51
315.0000002997554134
  0
ARC
  5
31356
  8
0
 10
2909.0339439115168716
 20
90.7936050199301263
 30
0.0
 40
0.0149999997987583
 50
314.9999996629618977
 51
0.0000003184015125
  0
LINE
  5
31357
  8
0
 10
2909.0489439113148364
 20
90.7936050200135014
 30
0.0
 11
2909.0489439006528301
 21
92.7123606207134969
 31
0.0
  0
ARC
  5
31358
  8
0
 10
2909.0420380639720861
 20
92.7224654903445469
 30
0.0
 40
0.0102457584500349
 50
275.9944100091900054
 51
359.4135434477262265
  0
LINE
  5
31359
  8
0
 10
2909.0445505130301171
 20
90.7829984182922658
 30
0.0
 11
2908.9898705798159426
 21
90.7283184851135047
 31
0.0
  0
ARC
  5
3135A
  8
0
 10
2908.7173228921751615
 20
90.8495300799298207
 30
0.0
 40
0.0047818603096367
 50
40.2581775791536671
 51
90.4745661167994655
  0
ARC
  5
3135B
  8
0
 10
2909.0195378746088863
 20
91.1054480032384078
 30
0.0
 40
0.3912331382426907
 50
220.2581775791537098
 51
228.9285311621582082
  0
ARC
  5
3135C
  8
0
 10
2908.843787817692828
 20
90.9037792958879294
 30
0.0
 40
0.123729212980825
 50
228.9285311621582082
 51
239.3822955058383002
  0
ARC
  5
3135D
  8
0
 10
2908.7910206911069508
 20
90.814617848968993
 30
0.0
 40
0.02012355066053
 50
239.3822955058383002
 51
257.2970068832033235
  0
ARC
  5
3135E
  8
0
 10
2908.7881424108509236
 20
90.8018490224713162
 30
0.0
 40
0.0070343403192593
 50
257.2970068832025845
 51
306.794857575452113
  0
ARC
  5
3135F
  8
0
 10
2908.7868709402741842
 20
90.8003011920168461
 30
0.0
 40
0.0068388971434769
 50
323.3201876154374759
 51
3.147990090618475
  0
ARC
  5
31360
  8
0
 10
2908.7743648327418668
 20
90.7998640357203755
 30
0.0
 40
0.0193621111645388
 50
3.2369002549884822
 51
27.8061274403554606
  0
ARC
  5
31361
  8
0
 10
2908.7567348287579989
 20
90.7905663794189337
 30
0.0
 40
0.0392935800809753
 50
27.8061274403568994
 51
43.120654905518407
  0
ARC
  5
31362
  8
0
 10
2911.6690260616787782
 20
93.5178102097245301
 30
0.0
 40
3.950606059669965
 50
222.7042540061391946
 51
223.1206549055183928
  0
ARC
  5
31363
  8
0
 10
2909.0284648087349524
 20
91.0808073983095312
 30
0.0
 40
0.3573420235334531
 50
216.2187409634551898
 51
222.7042540061391946
  0
ARC
  5
31364
  8
0
 10
2905.8465867361319397
 20
88.7504260407784926
 30
0.0
 40
3.5866439475926728
 50
36.2187409634552111
 51
36.6220164808184734
  0
ARC
  5
31365
  8
0
 10
2908.8224929743951179
 20
90.9623037992495256
 30
0.0
 40
0.1212423987444762
 50
213.5117628721540939
 51
216.6220164808185018
  0
ARC
  5
31366
  8
0
 10
2908.7172165573078928
 20
90.8925917726412251
 30
0.0
 40
0.0050227613302015
 50
33.5117628721541294
 51
89.2387914916381249
  0
ARC
  5
31367
  8
0
 10
2908.7162582974237921
 20
90.947609555143984
 30
0.0
 40
0.0067790380248623
 50
39.3985962391060127
 51
81.3035445907903949
  0
ARC
  5
31368
  8
0
 10
2909.3897323931628307
 20
91.3647060982856516
 30
0.0
 40
0.785455014564271
 50
211.7053322152100066
 51
214.79150342625951
  0
ARC
  5
31369
  8
0
 10
2909.3155854050901326
 20
91.313188904292133
 30
0.0
 40
0.695167711374244
 50
214.79150342625951
 51
223.0273059584094142
  0
ARC
  5
3136A
  8
0
 10
2908.9872128770789459
 20
91.0066838565623186
 30
0.0
 40
0.2459752565884402
 50
223.0273059584094142
 51
233.7715798055737935
  0
ARC
  5
3136B
  8
0
 10
2908.9848385337509171
 20
91.0034431019055035
 30
0.0
 40
0.2419577950785563
 50
233.7715798055737935
 51
237.7012047065126126
  0
ARC
  5
3136C
  8
0
 10
2908.8638227342239588
 20
90.8120061246887929
 30
0.0
 40
0.015478347929045
 50
237.7012047065134936
 51
263.7057945142485096
  0
ARC
  5
3136D
  8
0
 10
2908.8631762186209926
 20
90.8061446247833288
 30
0.0
 40
0.0095813009082053
 50
263.7057945142485096
 51
286.2429515076545954
  0
ARC
  5
3136E
  8
0
 10
2908.8645545489061988
 20
90.8014136214726761
 30
0.0
 40
0.0046536050267116
 50
286.2429515076545954
 51
336.8988654426332232
  0
ARC
  5
3136F
  8
0
 10
2908.8625436954830548
 20
90.8024343083949645
 30
0.0
 40
0.006905314174922
 50
335.6552214802097183
 51
10.0119627317836404
  0
ARC
  5
31370
  8
0
 10
2908.8474676853638812
 20
90.7987152780767985
 30
0.0
 40
0.0224225018565366
 50
12.6739214783010006
 51
40.0078171887785672
  0
ARC
  5
31371
  8
0
 10
2907.4186934001090776
 20
89.5994990764621519
 30
0.0
 40
1.887768436641726
 50
40.0078171887785672
 51
40.4506206332341804
  0
ARC
  5
31372
  8
0
 10
2909.8722116396211277
 20
91.6913473373132604
 30
0.0
 40
1.336449437206584
 50
217.9921119610494031
 51
220.4506206332341947
  0
ARC
  5
31373
  8
0
 10
2910.6571121362981103
 20
92.3044048132953492
 30
0.0
 40
2.3323953486605959
 50
215.6653071590079946
 51
217.9921119610494031
  0
ARC
  5
31374
  8
0
 10
2909.1473298075989078
 20
91.220901764631364
 30
0.0
 40
0.4740569681402994
 50
208.0904544456988958
 51
215.6653071590079946
  0
ARC
  5
31375
  8
0
 10
2908.3416835459820504
 20
90.790899196462135
 30
0.0
 40
0.4391615749748174
 50
28.0904544456989491
 51
30.0919679804403515
  0
ARC
  5
31376
  8
0
 10
2908.7168328913708137
 20
91.008223063495123
 30
0.0
 40
0.0056106692727999
 50
30.7311971977354297
 51
85.3956489127688485
  0
ARC
  5
31377
  8
0
 10
2908.7173719180000262
 20
91.0692928232373049
 30
0.0
 40
0.0048429426037048
 50
38.251118031140507
 51
91.0486474364853535
  0
ARC
  5
31378
  8
0
 10
2909.841348030575773
 20
91.6429051709189935
 30
0.0
 40
1.2571347437538289
 50
206.9942101085100887
 51
210.096243980187495
  0
ARC
  5
31379
  8
0
 10
2909.7677952628619096
 20
91.5992157539794931
 30
0.0
 40
1.171590168589145
 50
210.0514444098839135
 51
218.7491341137020129
  0
ARC
  5
3137A
  8
0
 10
2909.2681467605411854
 20
91.1982178495783558
 30
0.0
 40
0.5309280538940584
 50
218.7491341137020129
 51
227.1185239918115997
  0
ARC
  5
3137B
  8
0
 10
2909.2207140302898551
 20
91.1471410469448244
 30
0.0
 40
0.4612236518354867
 50
227.1185239918115997
 51
228.5916619417787956
  0
ARC
  5
3137C
  8
0
 10
2908.9268996907480869
 20
90.8139718499124342
 30
0.0
 40
0.0170068354361865
 50
228.5916619417799041
 51
252.1157483801968056
  0
ARC
  5
3137D
  8
0
 10
2908.9247431857570518
 20
90.8072889021196232
 30
0.0
 40
0.0099845633696283
 50
252.1157483801970898
 51
287.8773306795729923
  0
ARC
  5
3137E
  8
0
 10
2908.9254519535911641
 20
90.8023366046294598
 30
0.0
 40
0.0051240780036555
 50
297.3772659050711127
 51
331.0409771966681092
  0
ARC
  5
3137F
  8
0
 10
2908.9232109852869144
 20
90.8034765342490147
 30
0.0
 40
0.0076372880890945
 50
331.6984844696679033
 51
11.8079102865744794
  0
ARC
  5
31380
  8
0
 10
2908.908215881705928
 20
90.8003417332518836
 30
0.0
 40
0.0229565605487126
 50
11.8079102865760692
 51
32.0553331211106283
  0
ARC
  5
31381
  8
0
 10
2908.749550054545125
 20
90.6887533510570449
 30
0.0
 40
0.2169035491350563
 50
34.7943716968685735
 51
39.5744960402047212
  0
ARC
  5
31382
  8
0
 10
2911.0567961186338835
 20
92.3909546119885903
 30
0.0
 40
2.6506588825566451
 50
211.2768180454517051
 51
216.1604190398774108
  0
ARC
  5
31383
  8
0
 10
2910.6663921972390199
 20
92.1640899493909558
 30
0.0
 40
2.1992282606702989
 50
207.838933386279308
 51
211.5059031751461021
  0
ARC
  5
31384
  8
0
 10
2908.7172582790149136
 20
91.1348673294896088
 30
0.0
 40
0.0049560131128072
 50
26.4856337901150383
 51
89.710899770460756
  0
ARC
  5
31385
  8
0
 10
2908.7172101252990615
 20
91.2084277725401051
 30
0.0
 40
0.0049562394733323
 50
22.6445729370552016
 51
89.1542104964005659
  0
ARC
  5
31386
  8
0
 10
2909.7083113358899027
 20
91.6218882998360442
 30
0.0
 40
1.0689297960377191
 50
202.6445729370551874
 51
210.3488904075234984
  0
ARC
  5
31387
  8
0
 10
2933.4658508902380163
 20
105.5318816940914957
 30
0.0
 40
28.599069677713441
 50
210.3488904075234984
 51
210.7178826498881961
  0
ARC
  5
31388
  8
0
 10
2912.400663135611012
 20
93.0153942868416124
 30
0.0
 40
4.0959149389143779
 50
210.7178826498881961
 51
212.4055158626848936
  0
ARC
  5
31389
  8
0
 10
2909.5960899669439641
 20
91.2351792746291039
 30
0.0
 40
0.7740485737349205
 50
212.4055158626848936
 51
214.0039570121554959
  0
ARC
  5
3138A
  8
0
 10
2908.9543146663108928
 20
90.8075143293857536
 30
0.0
 40
0.0169556063664534
 50
334.3882161351692162
 51
21.67578624497785
  0
ARC
  5
3138B
  8
0
 10
2908.9637471949131395
 20
90.8029926333834538
 30
0.0
 40
0.0064952846430536
 50
301.1157716562664177
 51
334.3882161351684772
  0
ARC
  5
3138C
  8
0
 10
2908.9637030144322125
 20
90.8030658266437456
 30
0.0
 40
0.0065807783170666
 50
241.7077854415067009
 51
301.1157716562900077
  0
ARC
  5
3138D
  8
0
 10
2908.9706497857250724
 20
90.8159715818392641
 30
0.0
 40
0.0212373859931259
 50
220.0985614128317991
 51
241.7077854415070988
  0
ARC
  5
3138E
  8
0
 10
2908.922116245529196
 20
90.795013749168163
 30
0.0
 40
0.0514951160598344
 50
21.3687292259012516
 51
33.3258197480911207
  0
ARC
  5
3138F
  8
0
 10
2898.4101106236407759
 20
84.5371199593767955
 30
0.0
 40
12.2851472536109991
 50
30.7764556074920002
 51
31.3647188677511899
  0
ARC
  5
31390
  8
0
 10
2910.8977369881290542
 20
92.1344473205506773
 30
0.0
 40
2.3320006960632522
 50
204.3540241585859008
 51
211.0583869755031117
  0
ARC
  5
31391
  8
0
 10
2911.2293873060812075
 20
92.2842107841468078
 30
0.0
 40
2.695897571410685
 50
201.5469502225417102
 51
204.3470728566128116
  0
ARC
  5
31392
  8
0
 10
2908.7172286991108194
 20
91.2923691674182152
 30
0.0
 40
0.0049718457613573
 50
20.4459339013738912
 51
89.370928815788389
  0
ARC
  5
31393
  8
0
 10
2908.7162169263638134
 20
91.3792280105646313
 30
0.0
 40
0.0062826151203583
 50
24.6267216743243296
 51
80.2277763270557784
  0
ARC
  5
31394
  8
0
 10
2910.8755927283559686
 20
92.1603960104114606
 30
0.0
 40
2.2900680116900332
 50
199.8749287846150082
 51
202.5364877570702049
  0
ARC
  5
31395
  8
0
 10
2911.717863533056061
 20
92.5313929060644966
 30
0.0
 40
3.2102733138363702
 50
202.8907188262253101
 51
207.9592049010043127
  0
ARC
  5
31396
  8
0
 10
2917.7841016011579995
 20
95.6727524947860957
 30
0.0
 40
10.0415136301646601
 50
207.5631749041585863
 51
209.1405651549196136
  0
ARC
  5
31397
  8
0
 10
2907.7825388473647763
 20
90.3209259967462259
 30
0.0
 40
1.325609852436284
 50
20.4000867575336393
 51
25.6484624758051716
  0
ARC
  5
31398
  8
0
 10
2897.4125714214351319
 20
85.3416810054285548
 30
0.0
 40
12.82904869038458
 50
25.6484624758051716
 51
26.8238016910978807
  0
ARC
  5
31399
  8
0
 10
2910.6796209289418584
 20
92.0502690615393675
 30
0.0
 40
2.0376845197468652
 50
200.2161931516642142
 51
206.823801691097799
  0
ARC
  5
3139A
  8
0
 10
2928.3374920555038443
 20
98.5527673305321059
 30
0.0
 40
20.8547750616062793
 50
199.9181579970473877
 51
200.2161931516642142
  0
ARC
  5
3139B
  8
0
 10
2909.2735716076131212
 20
91.6448903032668625
 30
0.0
 40
0.577895916448175
 50
197.351005239897404
 51
199.9181579970473877
  0
ARC
  5
3139C
  8
0
 10
2908.7171556983221308
 20
91.4710425168152881
 30
0.0
 40
0.0050463765502617
 50
17.3510052398958585
 51
88.5512380663073628
  0
ARC
  5
3139D
  8
0
 10
2908.7170647607899809
 20
91.5891390190303412
 30
0.0
 40
0.0051296242412011
 50
6.7277932335697992
 51
87.558428150623854
  0
ARC
  5
3139E
  8
0
 10
2912.2483884076541472
 20
92.6619623236312577
 30
0.0
 40
3.6856416237498171
 50
196.912969907253796
 51
199.8050748150006086
  0
ARC
  5
3139F
  8
0
 10
2913.0997647910357955
 20
93.0005758044186877
 30
0.0
 40
4.6014877693237208
 50
200.180123190838799
 51
205.2990516623476935
  0
ARC
  5
313A0
  8
0
 10
2907.2579794488851803
 20
90.2303914071745226
 30
0.0
 40
1.8638457521559899
 50
19.0155941874232788
 51
25.5464985265160713
  0
ARC
  5
313A1
  8
0
 10
2910.195367811187225
 20
91.184541732580854
 30
0.0
 40
1.2253702758558589
 50
196.4433381227503048
 51
199.1287132727327958
  0
ARC
  5
313A2
  8
0
 10
2908.8638327686489902
 20
90.7890241926007064
 30
0.0
 40
0.1776088018921412
 50
358.0557399204932949
 51
15.5495936627974203
  0
ARC
  5
313A3
  8
0
 10
2875.0563651373558969
 20
81.3818626789895632
 30
0.0
 40
35.2694818693719512
 50
15.5495936627974203
 51
15.6897883108286198
  0
ARC
  5
313A4
  8
0
 10
2905.8897509158318826
 20
89.8950823023616579
 30
0.0
 40
3.2858083211013982
 50
18.1705159620934502
 51
22.3354856371993513
  0
ARC
  5
313A5
  8
0
 10
2921.0603228188069806
 20
96.128785471657423
 30
0.0
 40
13.1155729381123898
 50
200.9500178103556038
 51
202.3387958961930906
  0
ARC
  5
313A6
  8
0
 10
2912.5565586817087933
 20
92.8532966523203527
 30
0.0
 40
4.0028498791645983
 50
197.3606566046892965
 51
200.6865681788956124
  0
ARC
  5
313A7
  8
0
 10
2912.1126316670961387
 20
92.7083450977281132
 30
0.0
 40
3.5358992241820548
 50
196.4816237688457932
 51
197.2652638309735948
  0
ARC
  5
313A8
  8
0
 10
2908.7172285349620324
 20
91.7039729578048508
 30
0.0
 40
0.0049416657465764
 50
14.1722632343175405
 51
89.3651834278642667
  0
ARC
  5
313A9
  8
0
 10
2908.7171017334248972
 20
91.8272896292754552
 30
0.0
 40
0.00500004473301
 50
10.3528008507769602
 51
87.9191251863139343
  0
ARC
  5
313AA
  8
0
 10
2914.0324955288838282
 20
93.3798774513272036
 30
0.0
 40
5.5325297949976138
 50
196.2880488730340005
 51
198.0139921099402898
  0
ARC
  5
313AB
  8
0
 10
2915.0424170501969456
 20
93.7199162191795381
 30
0.0
 40
6.5981119855852777
 50
198.1099722573505062
 51
200.3117732877882986
  0
ARC
  5
313AC
  8
0
 10
2894.1328287512601491
 20
85.8387350875377138
 30
0.0
 40
15.7476099358211101
 50
19.5197137702980008
 51
20.7949535953771516
  0
ARC
  5
313AD
  8
0
 10
2907.5248186315639032
 20
90.5859013292496655
 30
0.0
 40
1.539127292674594
 50
9.7093909626880723
 51
19.5327776049893913
  0
ARC
  5
313AE
  8
0
 10
2908.1413596122870331
 20
90.710938729641299
 30
0.0
 40
0.9105339192593612
 50
5.7285530447293951
 51
8.4969700736257465
  0
ARC
  5
313AF
  8
0
 10
2909.0782767617488389
 20
90.8043491982234343
 30
0.0
 40
0.0310333708795904
 50
184.6669052457476141
 51
194.8315983954666137
  0
ARC
  5
313B0
  8
0
 10
2909.0371976419369275
 20
90.7991175667403354
 30
0.0
 40
0.0114068513223425
 50
346.2447792217964775
 51
1.04068276709202
  0
ARC
  5
313B1
  8
0
 10
2908.6347369138611612
 20
90.8054960677308571
 30
0.0
 40
0.4139117069131552
 50
359.1457017970355992
 51
3.534381714263612
  0
ARC
  5
313B2
  8
0
 10
2908.1873799809150114
 20
90.7781893389147427
 30
0.0
 40
0.8621012121509682
 50
3.5128725274369228
 51
10.9654627676508003
  0
ARC
  5
313B3
  8
0
 10
2907.5404306189279851
 20
90.6528397827999868
 30
0.0
 40
1.521082234785444
 50
10.9654627676508003
 51
17.4026810342398903
  0
ARC
  5
313B4
  8
0
 10
2902.1899282480881084
 20
88.9758190204328088
 30
0.0
 40
7.1282449984107101
 50
17.4026810342398903
 51
20.5464751417279707
  0
ARC
  5
313B5
  8
0
 10
2913.1111671712410498
 20
93.0692030557014647
 30
0.0
 40
4.534912913440559
 50
196.4516414074344084
 51
200.5464751417279956
  0
ARC
  5
313B6
  8
0
 10
2924.3722483443862075
 20
96.3945513570357662
 30
0.0
 40
16.2767139044877283
 50
196.1083790086910028
 51
196.4516414074344084
  0
ARC
  5
313B7
  8
0
 10
2910.4057323572860696
 20
92.3611109237182575
 30
0.0
 40
1.7394441970419261
 50
194.5472981733400957
 51
196.1083790086910028
  0
ARC
  5
313B8
  8
0
 10
2908.716952146199219
 20
91.922875002191077
 30
0.0
 40
0.0052704857289103
 50
14.5472981733425097
 51
86.3977890298110367
  0
ARC
  5
313B9
  8
0
 10
2908.7171676086782099
 20
92.0672293686131553
 30
0.0
 40
0.0044179791564048
 50
88.4996390080331992
 51
88.4996390080331992
  0
ARC
  5
313BA
  8
0
 10
2908.711852426069072
 20
92.0638515833702371
 30
0.0
 40
0.0107156453367802
 50
16.0511036038792483
 51
32.4358562932307066
  0
ARC
  5
313BB
  8
0
 10
2913.36353578336184
 20
93.2560475524584831
 30
0.0
 40
4.791318653758438
 50
194.371366918193587
 51
197.51959434144581
  0
ARC
  5
313BC
  8
0
 10
2921.5676130095707776
 20
95.9049970717279905
 30
0.0
 40
13.4123789656716497
 50
197.760468983357697
 51
199.105418681450999
  0
ARC
  5
313BD
  8
0
 10
2902.3218873136602269
 20
89.2382593023805271
 30
0.0
 40
6.9553246400948217
 50
17.1245609859745791
 51
19.1075145502065915
  0
ARC
  5
313BE
  8
0
 10
2906.7237647461379311
 20
90.5957251165561104
 30
0.0
 40
2.3488906140890502
 50
12.0836404562987791
 51
17.0964549674908497
  0
ARC
  5
313BF
  8
0
 10
2907.6527506792558597
 20
90.797964258713435
 30
0.0
 40
1.3981554209616001
 50
6.1635973539848692
 51
11.9490303218243508
  0
ARC
  5
313C0
  8
0
 10
2895.9085789830019166
 20
89.9977173365169989
 30
0.0
 40
13.1685830864576907
 50
3.7515438138392918
 51
4.1385777791502347
  0
ARC
  5
313C1
  8
0
 10
2907.4242713476178324
 20
90.8497089521162451
 30
0.0
 40
1.6267909785103569
 50
2.9243166326241261
 51
9.6661037912354004
  0
ARC
  5
313C2
  8
0
 10
2907.127228223981092
 20
90.7991152882502348
 30
0.0
 40
1.928111963713401
 50
9.6661037912354004
 51
17.4866579488377099
  0
ARC
  5
313C3
  8
0
 10
2874.9938215393140126
 20
80.6757170241126573
 30
0.0
 40
35.6184520863138872
 50
17.4866579488377099
 51
18.0223161642366492
  0
ARC
  5
313C4
  8
0
 10
2922.915368988461978
 20
96.2670097820408159
 30
0.0
 40
14.7756261350835594
 50
196.6307103388691928
 51
198.0223161642365994
  0
ARC
  5
313C5
  8
0
 10
2910.9339252925819892
 20
92.6881924224311291
 30
0.0
 40
2.2711098817070581
 50
193.1174167106981088
 51
196.6307103388691928
  0
ARC
  5
313C6
  8
0
 10
2908.716927584619043
 20
92.1715704293455929
 30
0.0
 40
0.005285760718673
 50
13.1174167106973592
 51
86.1414097052351337
  0
ARC
  5
313C7
  8
0
 10
2908.7153681836948635
 20
92.3358423893046734
 30
0.0
 40
0.0068682808375418
 50
11.2839576255921603
 51
73.8094446940540934
  0
ARC
  5
313C8
  8
0
 10
2913.6024594257942226
 20
93.432996581529693
 30
0.0
 40
5.0018668689940311
 50
192.6550176501772
 51
194.5056008109800985
  0
ARC
  5
313C9
  8
0
 10
2915.3480338715021389
 20
93.8888528343314306
 30
0.0
 40
6.8059795864865231
 50
194.5401405128264969
 51
197.145383971752608
  0
ARC
  5
313CA
  8
0
 10
2878.7627395232570962
 20
82.6020170701054752
 30
0.0
 40
31.4807860658422385
 50
16.3457815621516112
 51
17.1453839717526186
  0
ARC
  5
313CB
  8
0
 10
2907.0095476408600916
 20
90.8864678217689885
 30
0.0
 40
2.0441712283751232
 50
10.8162109676520597
 51
16.3457815621516112
  0
ARC
  5
313CC
  8
0
 10
2907.2053062385361955
 20
90.9238681769590755
 30
0.0
 40
1.844871917958395
 50
2.0959438729397428
 51
10.8162109676520597
  0
ARC
  5
313CD
  8
0
 10
2908.7172248056572244
 20
92.5210023023923611
 30
0.0
 40
0.0049236649421527
 50
4.0843280227102037
 51
89.3194623576735722
  0
ARC
  5
313CE
  8
0
 10
2912.8601978695460275
 20
93.2696008293428633
 30
0.0
 40
4.2051671963239698
 50
190.2495220424455056
 51
190.954303191168492
  0
ARC
  5
313CF
  8
0
 10
2914.3885854420232135
 20
93.585314115163456
 30
0.0
 40
5.7657329087525619
 50
191.1483517774296956
 51
194.7307340280368066
  0
ARC
  5
313D0
  8
0
 10
2923.0116362856701926
 20
95.8524736912362556
 30
0.0
 40
14.6818429571704296
 50
194.7307340280368066
 51
196.0981315750289866
  0
ARC
  5
313D1
  8
0
 10
2898.4433552221339596
 20
88.7620716540482277
 30
0.0
 40
10.8891217384728396
 50
14.5463572490749193
 51
16.0981315750289689
  0
ARC
  5
313D2
  8
0
 10
2906.7069018054780827
 20
90.9063047042098731
 30
0.0
 40
2.351912738541484
 50
7.7477140341740718
 51
14.5463572490749193
  0
ARC
  5
313D3
  8
0
 10
2907.7340161564679875
 20
91.046047094303816
 30
0.0
 40
1.315335763302214
 50
1.427137990249423
 51
7.7477140341740718
  0
ARC
  5
313D4
  8
0
 10
2902.683203895916904
 20
92.5130254487504118
 30
0.0
 40
6.3630245518161406
 50
1.0447299124354359
 51
1.794440368486296
  0
ARC
  5
313D5
  8
0
 10
2762.1824169514361529
 20
89.9508534024953406
 30
0.0
 40
146.8871714363027081
 50
0.9606226317487081
 51
1.0447299124354359
  0
ARC
  5
313D6
  8
0
 10
2920.6642329823998807
 20
92.8805354261649683
 30
0.0
 40
11.6286036453314505
 50
180.8290681975215932
 51
182.3309419770264981
  0
ARC
  5
313D7
  8
0
 10
2914.2688179415767991
 20
92.4785585374590511
 30
0.0
 40
5.2240489836984976
 50
180.7784517266316868
 51
182.2908060895516087
  0
ARC
  5
313D8
  8
0
 10
2870.4779744095508249
 20
90.5012313470182477
 30
0.0
 40
38.6094313185342131
 50
2.797490779754741
 51
3.2829506707104801
  0
ARC
  5
313D9
  8
0
 10
2903.462883565905031
 20
92.1130145440318131
 30
0.0
 40
5.5851663437144872
 50
1.3045791786149921
 51
2.797490779754741
  0
ARC
  5
313DA
  8
0
 10
2916.1493774555651726
 20
92.401925815442695
 30
0.0
 40
7.1046168276068258
 50
181.3045791786150005
 51
181.9662885654821878
  0
ARC
  5
313DB
  8
0
 10
2913.669059862073027
 20
92.8967738945276551
 30
0.0
 40
4.6601947995507436
 50
182.2689455274193904
 51
184.664428338009003
  0
ARC
  5
313DC
  8
0
 10
2902.7095910128327887
 20
92.0025912859881174
 30
0.0
 40
6.3356917038146481
 50
2.214078474686187
 51
4.664428338008987
  0
ARC
  5
313DD
  8
0
 10
2947.2021950708499389
 20
93.7227734950736959
 30
0.0
 40
38.1901529562915485
 50
182.2140784746862039
 51
182.4194523410494924
  0
ARC
  5
313DE
  8
0
 10
2897.2650491275699096
 20
91.6128029033860258
 30
0.0
 40
11.7915489040712895
 50
2.0639815847274829
 51
2.419452341049539
  0
ARC
  5
313DF
  8
0
 10
2937.3673764431628115
 20
95.3209096063088452
 30
0.0
 40
28.4966471745164114
 50
185.2523108643335092
 51
185.7016183569353132
  0
ARC
  5
313E0
  8
0
 10
2900.6710347938319501
 20
91.6570809269667564
 30
0.0
 40
8.3821425430978653
 50
3.4688866840142998
 51
5.7016183569353753
  0
ARC
  5
313E1
  8
0
 10
2854.1640827199721571
 20
88.8379421789412334
 30
0.0
 40
54.9744609494717977
 50
3.3038200413654399
 51
3.4688866840142998
  0
ARC
  5
313E2
  8
0
 10
2907.9581248193758256
 20
91.9432856409206209
 30
0.0
 40
1.0908630424147669
 50
0.5143604827752377
 51
3.3038200413654399
  0
ARC
  5
313E3
  8
0
 10
2857.1155140725509227
 20
87.0596525444982632
 30
0.0
 40
52.1629760159858407
 50
5.6832611125848072
 51
6.2210540128313827
  0
ARC
  5
313E4
  8
0
 10
2901.3589166489291529
 20
91.4626771617448071
 30
0.0
 40
7.7010226477908024
 50
3.763687953166639
 51
5.6832611125848072
  0
ARC
  5
313E5
  8
0
 10
2906.1710344162088404
 20
91.7792345946834445
 30
0.0
 40
2.8785040097216958
 50
1.164509279794111
 51
3.763687953166639
  0
ARC
  5
313E6
  8
0
 10
2890.8456670502541783
 20
90.1320403595641153
 30
0.0
 40
18.281608559511529
 50
6.9195482881891683
 51
8.1137208732223272
  0
ARC
  5
313E7
  8
0
 10
2900.9062087063471154
 20
91.2403102560813437
 30
0.0
 40
8.1615919762145843
 50
4.6423059553199293
 51
7.7047905535505476
  0
ARC
  5
313E8
  8
0
 10
2907.2827336796390227
 20
91.733807382966404
 30
0.0
 40
1.7662106253334591
 50
359.9614934718425161
 51
5.4275482206819747
  0
ARC
  5
313E9
  8
0
 10
2913.4050244492032107
 20
93.4598047101914204
 30
0.0
 40
4.7437065454544136
 50
189.0666503366770996
 51
193.1165152906027913
  0
ARC
  5
313EA
  8
0
 10
2925.2878199175011105
 20
96.2286287310509039
 30
0.0
 40
16.9448218469303313
 50
193.1165152906027913
 51
194.6593098614480937
  0
ARC
  5
313EB
  8
0
 10
2890.1725215421588473
 20
87.0429521316357153
 30
0.0
 40
19.352021467307619
 50
13.3993741278646201
 51
14.6593098614480795
  0
ARC
  5
313EC
  8
0
 10
2907.1314434593027727
 20
91.0829414576656404
 30
0.0
 40
1.918532248387276
 50
5.7015619868967349
 51
13.3993741278646201
  0
ARC
  5
313ED
  8
0
 10
2906.1855819220809281
 20
90.9885058822988952
 30
0.0
 40
2.8690963574778392
 50
3.6230997606303839
 51
5.7015619868967349
  0
ARC
  5
313EE
  8
0
 10
2915.6328238118471745
 20
93.7764714784653961
 30
0.0
 40
6.9548844581423586
 50
188.8016415004545081
 51
190.8529973518571978
  0
ARC
  5
313EF
  8
0
 10
2915.4401195311170341
 20
93.7395264046541854
 30
0.0
 40
6.7586705995832483
 50
190.8529973518571978
 51
193.890825003049514
  0
ARC
  5
313F0
  8
0
 10
2885.3719202844981737
 20
86.3035089996362785
 30
0.0
 40
24.2153662826523508
 50
12.8144894435648808
 51
13.8908250030495104
  0
ARC
  5
313F1
  8
0
 10
2905.7994581248681243
 20
90.9499645806584169
 30
0.0
 40
3.266050024450847
 50
9.7968238801894092
 51
12.8144894435648808
  0
ARC
  5
313F2
  8
0
 10
2906.4624287325068508
 20
91.064441641841114
 30
0.0
 40
2.5932684669376398
 50
5.4581317695630043
 51
9.7968238801894092
  0
ARC
  5
313F3
  8
0
 10
2907.8422524112879728
 20
91.1962859832757147
 30
0.0
 40
1.2071601324655159
 50
1.5965606165304189
 51
5.4581317695630043
  0
ARC
  5
313F4
  8
0
 10
2928.3623223526810762
 20
96.3914647705522327
 30
0.0
 40
19.9218656679780288
 50
190.6425314810817895
 51
191.4929915458133109
  0
ARC
  5
313F5
  8
0
 10
2918.9020015389828586
 20
94.4679458093297768
 30
0.0
 40
10.2679755146633092
 50
191.4929915458133109
 51
193.6874203786460953
  0
ARC
  5
313F6
  8
0
 10
2903.9004063876509463
 20
90.8144403383935241
 30
0.0
 40
5.1721008876938734
 50
11.5634618790578703
 51
13.6874203786461397
  0
ARC
  5
313F7
  8
0
 10
2897.2414133851962106
 20
89.4519702422852276
 30
0.0
 40
11.96904965677634
 50
10.3500957482760203
 51
11.5634618790578703
  0
ARC
  5
313F8
  8
0
 10
2907.1424366370870302
 20
91.2602352621602364
 30
0.0
 40
1.904255380856636
 50
5.2615175609726554
 51
10.3500957482760203
  0
ARC
  5
313F9
  8
0
 10
2905.7674408309158025
 20
91.1336121568277662
 30
0.0
 40
3.2850692270329338
 50
3.3507632318138629
 51
5.2615175609726554
  0
ARC
  5
313FA
  8
0
 10
2907.713527647238152
 20
91.2475528425889166
 30
0.0
 40
1.335649729712304
 50
1.071301276845958
 51
3.3507632318138629
  0
ARC
  5
313FB
  8
0
 10
2911.9731709130342097
 20
93.0515488776511575
 30
0.0
 40
3.1702094628538049
 50
186.141968407442306
 51
190.7830434036278007
  0
ARC
  5
313FC
  8
0
 10
2920.1870086345811615
 20
94.6159030339966307
 30
0.0
 40
11.5316886407500707
 50
190.7830434036278007
 51
192.6819181637937106
  0
ARC
  5
313FD
  8
0
 10
2901.6566140542408903
 20
90.4460427850813744
 30
0.0
 40
7.462080279571877
 50
10.5587399434745404
 51
12.6819181637937692
  0
ARC
  5
313FE
  8
0
 10
2904.2784282991788132
 20
90.9347480915491531
 30
0.0
 40
4.7951076866249389
 50
7.4545033614965233
 51
10.5587399434745404
  0
ARC
  5
313FF
  8
0
 10
2907.2505552974489547
 20
91.3236353135216348
 30
0.0
 40
1.797646733541393
 50
2.7077311550110048
 51
7.4545033614965233
  0
ARC
  5
31400
  8
0
 10
2905.6579967761258558
 20
91.2483167903991159
 30
0.0
 40
3.391985318586912
 50
1.4176185633075289
 51
2.7077311550110048
  0
ARC
  5
31401
  8
0
 10
2915.944919993934036
 20
93.822821365587501
 30
0.0
 40
7.189129013740664
 50
188.8863888311007884
 51
190.7911683145119071
  0
ARC
  5
31402
  8
0
 10
2940.7731303683999613
 20
98.5550895791948847
 30
0.0
 40
32.4643024620928102
 50
190.7911683145119071
 51
191.5676562666014036
  0
ARC
  5
31403
  8
0
 10
2904.9199591587580471
 20
91.2165801130962564
 30
0.0
 40
4.1321947332940239
 50
8.2046508775150446
 51
11.5676562666014
  0
ARC
  5
31404
  8
0
 10
2897.0737506501659482
 20
90.0852740604396303
 30
0.0
 40
12.0595424199466095
 50
7.4431679059987657
 51
8.2046508775150446
  0
ARC
  5
31405
  8
0
 10
2906.7676566249019743
 20
91.3517201539617361
 30
0.0
 40
2.2832599590714291
 50
2.3818759265794909
 51
7.4431679059987657
  0
ARC
  5
31406
  8
0
 10
2910.6686404432939526
 20
92.8127618426753145
 30
0.0
 40
1.7938656860162581
 50
183.2111902414256974
 51
187.7994738591858095
  0
ARC
  5
31407
  8
0
 10
2913.7302196605000972
 20
93.2321173864276744
 30
0.0
 40
4.884031761699509
 50
187.7994738591858095
 51
191.0277024024732953
  0
ARC
  5
31408
  8
0
 10
2894.531082570462786
 20
89.490548793949614
 30
0.0
 40
14.6762903351947998
 50
10.0674537541789206
 51
11.0277024024733894
  0
ARC
  5
31409
  8
0
 10
2902.0749943033538329
 20
90.8299033833488636
 30
0.0
 40
7.014405779173976
 50
7.5198587627867282
 51
10.0674537541789206
  0
ARC
  5
3140A
  8
0
 10
2906.9866091595449689
 20
91.478261701189993
 30
0.0
 40
2.0601824289536932
 50
3.593559746742879
 51
7.5198587627867282
  0
ARC
  5
3140B
  8
0
 10
2900.7791006026500327
 20
91.0884188692243697
 30
0.0
 40
8.279920358927205
 50
2.8270624571408902
 51
3.593559746742879
  0
ARC
  5
3140C
  8
0
 10
2911.9706885388959563
 20
93.0387313083213883
 30
0.0
 40
3.0934262877307068
 50
186.0578198989551879
 51
188.1086939052449054
  0
ARC
  5
3140D
  8
0
 10
2918.5837617775027866
 20
93.9809348023111397
 30
0.0
 40
9.7732829541015658
 50
188.1086939052449054
 51
190.6843103813426978
  0
ARC
  5
3140E
  8
0
 10
2906.0936352043368061
 20
91.6244430550775348
 30
0.0
 40
2.9371975705867421
 50
7.1678350956450751
 51
10.6843103813427298
  0
ARC
  5
3140F
  8
0
 10
3283.0618346811929769
 20
139.0316155649479128
 30
0.0
 40
377.000249152164713
 50
187.167835095644989
 51
187.2000714037681064
  0
ARC
  5
31410
  8
0
 10
2907.5849637712190088
 20
91.5973804433123178
 30
0.0
 40
1.460960550916685
 50
2.2984241380365731
 51
7.2000714037680948
  0
ARC
  5
31411
  8
0
 10
2910.7638322617240192
 20
91.7249694184330622
 30
0.0
 40
1.720467403083741
 50
182.2984241380366086
 51
184.6154270846494114
  0
ARC
  5
31412
  8
0
 10
2917.057596156200816
 20
93.575911242193655
 30
0.0
 40
8.1768459292365492
 50
186.0628675823442961
 51
186.6180793742524884
  0
ARC
  5
31413
  8
0
 10
2918.7265540935300123
 20
93.7695499644436836
 30
0.0
 40
9.8569996577172585
 50
186.6180793742524884
 51
188.3576359181992927
  0
ARC
  5
31414
  8
0
 10
2887.0853337035391633
 20
89.1210838747235812
 30
0.0
 40
22.12385500183305
 50
7.3757272104464082
 51
8.3576359181993087
  0
ARC
  5
31415
  8
0
 10
2906.8650836930928563
 20
91.6815044939331329
 30
0.0
 40
2.17907464715082
 50
4.4011401881563357
 51
7.3757272104464082
  0
ARC
  5
31416
  8
0
 10
2902.4793998987820487
 20
91.3439567252646896
 30
0.0
 40
6.5777290822951944
 50
3.438965879308673
 51
4.4011401881563357
  0
ARC
  5
31417
  8
0
 10
2905.6568672132261781
 20
91.5349017241873071
 30
0.0
 40
3.394529665516747
 50
2.1783130884298112
 51
3.438965879308673
  0
ARC
  5
31418
  8
0
 10
2908.7174275638049039
 20
92.0676882348683421
 30
0.0
 40
0.0039602272670686
 50
28.8476466129685889
 51
92.0878486882700855
  0
LINE
  5
31419
  8
0
 10
2908.7172832857158937
 20
90.8543117762135068
 30
0.0
 11
2908.7172832857158937
 21
90.8976140907016088
 31
0.0
  0
LINE
  5
3141A
  8
0
 10
2908.7172832857158937
 20
90.9543106562134938
 30
0.0
 11
2908.7172832857158937
 21
91.0138156259330771
 31
0.0
  0
LINE
  5
3141B
  8
0
 10
2908.7172832857158937
 20
91.0741349547288053
 30
0.0
 11
2908.7172832857158937
 21
91.1398232795135073
 31
0.0
  0
LINE
  5
3141C
  8
0
 10
2908.7172832857158937
 20
91.2133834720135042
 30
0.0
 11
2908.7172832857158937
 21
91.2973407135135062
 31
0.0
  0
LINE
  5
3141D
  8
0
 10
2908.7172832857158937
 20
91.3854194668135023
 30
0.0
 11
2908.7172832857158937
 21
91.4760872802135054
 31
0.0
  0
LINE
  5
3141E
  8
0
 10
2908.7172832857158937
 20
91.5942639865144059
 30
0.0
 11
2908.7172832857158937
 21
91.7089143202390176
 31
0.0
  0
LINE
  5
3141F
  8
0
 10
2908.7172832857158937
 20
91.8322863768273976
 30
0.0
 11
2908.7172832857158937
 21
91.9281350750459865
 31
0.0
  0
LINE
  5
31420
  8
0
 10
2908.7172832857158937
 20
92.0628129041165835
 30
0.0
 11
2908.7172832857158937
 21
92.1768442081715307
 31
0.0
  0
LINE
  5
31421
  8
0
 10
2908.7172832857158937
 20
92.3424382718013987
 30
0.0
 11
2908.7172832857158937
 21
92.5259256200284028
 31
0.0
  0
ARC
  5
31422
  8
0
 10
2908.7172882947111248
 20
88.1750428364154288
 30
0.0
 40
0.6088259554225366
 50
269.9995286103037984
 51
280.2850448867865794
  0
ARC
  5
31423
  8
0
 10
2908.7210105310341532
 20
88.1545302596040301
 30
0.0
 40
0.5879783931985713
 50
280.2850448867865794
 51
294.7467282612627173
  0
ARC
  5
31424
  8
0
 10
2908.7457211651280886
 20
88.1009206992435168
 30
0.0
 40
0.5289478892246819
 50
294.7467282612630015
 51
316.4665449835449067
  0
ARC
  5
31425
  8
0
 10
2908.8086322658309655
 20
88.0411504412761445
 30
0.0
 40
0.4421706437670316
 50
316.4665449835449067
 51
340.287086877171987
  0
ARC
  5
31426
  8
0
 10
2908.8423122343251634
 20
88.0290827021760123
 30
0.0
 40
0.406393966941718
 50
340.287086877171987
 51
350.2846335213063753
  0
ARC
  5
31427
  8
0
 10
2908.8338370714482153
 20
88.0305337278186641
 30
0.0
 40
0.4149924471097342
 50
350.2846335213063753
 51
356.4086769951513247
  0
ARC
  5
31428
  8
0
 10
2908.8184993018298883
 20
88.0314963665340571
 30
0.0
 40
0.4303603959042276
 50
356.4086769951521205
 51
358.8985008758359072
  0
ARC
  5
31429
  8
0
 10
2908.8277087644401036
 20
88.3305718808432516
 30
0.0
 40
0.4211530351568461
 50
350.1487077860207933
 51
358.8719060454870942
  0
ARC
  5
3142A
  8
0
 10
2908.8424841434098198
 20
88.3280061058034676
 30
0.0
 40
0.406156534723586
 50
325.5915570872580247
 51
350.1487077860207933
  0
ARC
  5
3142B
  8
0
 10
2908.7585341447720566
 20
88.3855060417152458
 30
0.0
 40
0.5079103793737989
 50
307.8418425109351801
 51
325.5915570872580247
  0
ARC
  5
3142C
  8
0
 10
2908.7223153719742186
 20
88.4321286576152659
 30
0.0
 40
0.566948230082942
 50
289.7004386853718074
 51
309.3258060821092954
  0
ARC
  5
3142D
  8
0
 10
2908.7332167101358209
 20
88.4016831353980024
 30
0.0
 40
0.5346098782882049
 50
276.4585108163536233
 51
289.7004386853718074
  0
ARC
  5
3142E
  8
0
 10
2908.7079276892591224
 20
88.6250801453050059
 30
0.0
 40
0.7594337173540308
 50
270.705854558231124
 51
276.4585108163536233
  0
ARC
  5
3142F
  8
0
 10
2908.7174855553321322
 20
87.6361536403042294
 30
0.0
 40
0.0081235673040105
 50
45.6160514582822785
 51
91.4267615101069566
  0
ARC
  5
31430
  8
0
 10
2908.8546058962501775
 20
87.7266459011308655
 30
0.0
 40
0.1547265073074034
 50
232.8148498541752076
 51
249.506105737409797
  0
ARC
  5
31431
  8
0
 10
2908.9074205160532074
 20
87.7962640530441263
 30
0.0
 40
0.2421111234627442
 50
226.0219664338881955
 51
232.8148498541752076
  0
ARC
  5
31432
  8
0
 10
2908.8148983562819012
 20
87.7003810137690891
 30
0.0
 40
0.1088673346050289
 50
213.447078691015605
 51
226.0219664338881955
  0
ARC
  5
31433
  8
0
 10
2908.7348484550989269
 20
87.6475034050052386
 30
0.0
 40
0.0129297080554872
 50
205.3906782496638073
 51
213.4470786910175946
  0
ARC
  5
31434
  8
0
 10
2908.7167765464919285
 20
87.6751699654564334
 30
0.0
 40
0.0090852177269062
 50
47.9131616125714785
 51
86.8025979229468021
  0
ARC
  5
31435
  8
0
 10
2908.8075540568488577
 20
87.6084174342177562
 30
0.0
 40
0.0276379374938426
 50
255.0732670828614062
 51
274.625491657348789
  0
ARC
  5
31436
  8
0
 10
2908.8048373624869782
 20
87.6419958801575234
 30
0.0
 40
0.0613261024777713
 50
274.6254916573747096
 51
290.9730203225531113
  0
ARC
  5
31437
  8
0
 10
2908.8238001163258559
 20
87.5925266045021971
 30
0.0
 40
0.0083469059284712
 50
290.973020322552486
 51
330.4100845254612864
  0
ARC
  5
31438
  8
0
 10
2908.8275523096122015
 20
87.5903959355034942
 30
0.0
 40
0.0040319662026256
 50
330.4100845254583874
 51
52.7891147799545308
  0
ARC
  5
31439
  8
0
 10
2909.0999512185171625
 20
88.198478357372565
 30
0.0
 40
0.6623805597922046
 50
244.3734483088842921
 51
245.9482788124522017
  0
ARC
  5
3143A
  8
0
 10
2908.9072818456138521
 20
87.7970478012376532
 30
0.0
 40
0.2171076658251969
 50
221.1116397896271906
 51
244.3989782094504051
  0
ARC
  5
3143B
  8
0
 10
2908.9349443848509509
 20
87.8211892703745036
 30
0.0
 40
0.2538231476978454
 50
214.8200198006551886
 51
221.1116397896277874
  0
ARC
  5
3143C
  8
0
 10
2908.825165924879002
 20
87.744834352661897
 30
0.0
 40
0.1201018564508609
 50
211.5945649355356863
 51
214.8200198006545065
  0
ARC
  5
3143D
  8
0
 10
2908.7170571019610179
 20
87.7202984044003955
 30
0.0
 40
0.0103180921930502
 50
65.3994793067438422
 51
88.7439138484702852
  0
ARC
  5
3143E
  8
0
 10
2908.719444278381161
 20
87.7255123247324065
 30
0.0
 40
0.004583671865799
 50
29.875411553852409
 51
65.3994793067441691
  0
ARC
  5
3143F
  8
0
 10
2908.9202144875648628
 20
87.8408456939706639
 30
0.0
 40
0.2269556616303301
 50
209.8754115538523877
 51
213.577667267406099
  0
ARC
  5
31440
  8
0
 10
2909.0768259455071529
 20
87.9448101303093495
 30
0.0
 40
0.4149337262596031
 50
213.577667267406099
 51
223.7614447797334947
  0
ARC
  5
31441
  8
0
 10
2908.9340067309722144
 20
87.8080357938554954
 30
0.0
 40
0.2171850292913232
 50
223.7614447797334947
 51
237.9132556670427903
  0
ARC
  5
31442
  8
0
 10
2908.9790915825888078
 20
87.8799441568755384
 30
0.0
 40
0.3020582083149409
 50
237.9132556670427903
 51
249.38129866818511
  0
ARC
  5
31443
  8
0
 10
2908.8784359846949883
 20
87.6175596267844838
 30
0.0
 40
0.0211129664076828
 50
254.2995377330315989
 51
277.0743384089432766
  0
ARC
  5
31444
  8
0
 10
2908.876481165973928
 20
87.6392687582747669
 30
0.0
 40
0.0429038540843475
 50
276.0944807955322062
 51
302.301013695220206
  0
ARC
  5
31445
  8
0
 10
2908.8917910009381558
 20
87.6142321687293162
 30
0.0
 40
0.0135676156896337
 50
304.1512560009671802
 51
335.0462297281154065
  0
ARC
  5
31446
  8
0
 10
2908.900289687041095
 20
87.6096855957323868
 30
0.0
 40
0.0039804981142085
 50
342.7945687121430751
 51
72.3150944227495813
  0
ARC
  5
31447
  8
0
 10
2908.7162092468979608
 20
87.7548248393655115
 30
0.0
 40
0.0124113774851761
 50
64.9668784234967092
 51
85.0356069116031819
  0
ARC
  5
31448
  8
0
 10
2908.7193646406258267
 20
87.7620456823245121
 30
0.0
 40
0.0045379110266836
 50
24.5972069540830489
 51
62.4856422080696277
  0
ARC
  5
31449
  8
0
 10
2908.8890922181590213
 20
87.8620971989731032
 30
0.0
 40
0.192509094558542
 50
210.6579596920115023
 51
214.1807121590061058
  0
ARC
  5
3144A
  8
0
 10
2909.1086593984691717
 20
87.9975093146689602
 30
0.0
 40
0.4503681504899097
 50
212.7389583532338122
 51
222.233983772057087
  0
ARC
  5
3144B
  8
0
 10
2908.994355567211187
 20
87.8938129518971039
 30
0.0
 40
0.2960363740672014
 50
222.2442480079218114
 51
244.6618559508974897
  0
ARC
  5
3144C
  8
0
 10
2908.9753623506289841
 20
87.8602475881024247
 30
0.0
 40
0.2575869743063676
 50
245.2849928418243053
 51
253.3364254177473072
  0
ARC
  5
3144D
  8
0
 10
2908.7124835205518139
 20
87.7815479809559918
 30
0.0
 40
0.0312125829094375
 50
74.3234971958960102
 51
81.154160464755364
  0
ARC
  5
3144E
  8
0
 10
2908.7178283259340787
 20
87.805798791784909
 30
0.0
 40
0.0065719586900735
 50
11.8209004602581196
 51
61.9638331938080782
  0
ARC
  5
3144F
  8
0
 10
2908.0949378120658366
 20
87.3904006561797218
 30
0.0
 40
0.7548002890346921
 50
31.9507791092411217
 51
33.5129477615966991
  0
ARC
  5
31450
  8
0
 10
2909.0603969071930806
 20
87.9756217501439579
 30
0.0
 40
0.374363263809478
 50
209.7540003466430107
 51
237.0238332187028902
  0
ARC
  5
31451
  8
0
 10
2909.0216216076551063
 20
87.9400341050235284
 30
0.0
 40
0.323671462474393
 50
239.35376744844109
 51
257.4700614527425842
  0
ARC
  5
31452
  8
0
 10
2908.9534494974700465
 20
87.6491101875019325
 30
0.0
 40
0.0251222336534284
 50
265.3232355183155846
 51
292.4217607325929862
  0
ARC
  5
31453
  8
0
 10
2908.9486150443140104
 20
87.664628773569433
 30
0.0
 40
0.041337042337873
 50
290.41135092680139
 51
306.0842207132822068
  0
ARC
  5
31454
  8
0
 10
2908.9638786176988106
 20
87.6436850764713853
 30
0.0
 40
0.0154215041296551
 50
306.0842207132826047
 51
329.8207676251807925
  0
ARC
  5
31455
  8
0
 10
2908.9714796588677928
 20
87.639264852454815
 30
0.0
 40
0.0066286543524805
 50
329.8207676251885232
 51
352.070318659860277
  0
ARC
  5
31456
  8
0
 10
2908.9755739720681049
 20
87.6386945575483196
 30
0.0
 40
0.0024948139035677
 50
352.0703186598594812
 51
46.9610311164667706
  0
ARC
  5
31457
  8
0
 10
2908.9756876803849082
 20
87.6388163286387112
 30
0.0
 40
0.0023282072411607
 50
46.961031116445497
 51
65.3557014583001035
  0
ARC
  5
31458
  8
0
 10
2908.9722553370729656
 20
87.6298588049785536
 30
0.0
 40
0.0119169591398846
 50
68.3159852931522096
 51
84.0962272130924191
  0
ARC
  5
31459
  8
0
 10
2909.0064427714492012
 20
87.8634525856372761
 30
0.0
 40
0.2241765209699974
 50
250.3884485394214039
 51
261.5448904691029952
  0
ARC
  5
3145A
  8
0
 10
2909.0536545512632074
 20
87.9765703582526015
 30
0.0
 40
0.3466396016657583
 50
226.5778149003139106
 51
249.3130143795771971
  0
ARC
  5
3145B
  8
0
 10
2909.1105294494877853
 20
88.0431887778206885
 30
0.0
 40
0.4341423044876766
 50
208.2668374185120967
 51
227.1694276962643926
  0
ARC
  5
3145C
  8
0
 10
2908.6181369354590061
 20
87.7876290224474616
 30
0.0
 40
0.1208327230916493
 50
24.4222637954753701
 51
29.4993471704740706
  0
ARC
  5
3145D
  8
0
 10
2908.7172248264928385
 20
87.8409782120498193
 30
0.0
 40
0.0086485730407719
 50
45.3291163779558772
 51
89.6127115690035509
  0
ARC
  5
3145E
  8
0
 10
2908.764507099956063
 20
87.8616486387119551
 30
0.0
 40
0.0133386134732159
 50
156.6202890311020894
 51
189.5064728544444961
  0
ARC
  5
3145F
  8
0
 10
2909.0566942781028956
 20
87.9681200230855751
 30
0.0
 40
0.3127823060868588
 50
238.8831235546213065
 51
260.9155836158315083
  0
ARC
  5
31460
  8
0
 10
2909.097212388439857
 20
88.0200508163856767
 30
0.0
 40
0.3782616908089635
 50
217.0312706063484995
 51
237.6938256686788975
  0
ARC
  5
31461
  8
0
 10
2909.2682619969491498
 20
88.1491152822605812
 30
0.0
 40
0.5925409588429162
 50
209.2656871652874884
 51
217.0330394644657872
  0
ARC
  5
31462
  8
0
 10
2908.7702321710057731
 20
87.8618301454993684
 30
0.0
 40
0.0119669946856013
 50
0.5506577614557308
 51
37.1230733467064766
  0
ARC
  5
31463
  8
0
 10
2909.3380641972630656
 20
88.232355287166186
 30
0.0
 40
0.6679761601758266
 50
213.6780866659323124
 51
222.5640971230832008
  0
ARC
  5
31464
  8
0
 10
2909.1077103755428652
 20
88.0208003348598993
 30
0.0
 40
0.3552168581137104
 50
222.5640971230832008
 51
245.5192886684922939
  0
ARC
  5
31465
  8
0
 10
2909.0366432776290821
 20
87.8647185966512438
 30
0.0
 40
0.1837174662543157
 50
245.5192886684922939
 51
262.8562123620615125
  0
ARC
  5
31466
  8
0
 10
2909.1287224750599307
 20
88.5993964430265635
 30
0.0
 40
0.924143098275627
 50
262.8562123620615125
 51
264.387070559117717
  0
ARC
  5
31467
  8
0
 10
2909.0447685952021857
 20
87.7451535021305347
 30
0.0
 40
0.0657846323572106
 50
264.387070559117717
 51
267.7785176957548856
  0
ARC
  5
31468
  8
0
 10
2909.0421234638702117
 20
87.6769652881224175
 30
0.0
 40
0.0024548668304678
 50
352.4234296173692087
 51
87.7785176957027176
  0
ARC
  5
31469
  8
0
 10
2909.0349562916071591
 20
87.6779186102326662
 30
0.0
 40
0.0096851629024543
 50
315.6236631031401885
 51
352.4234296173772805
  0
ARC
  5
3146A
  8
0
 10
2909.0007206375339592
 20
87.7114169523593148
 30
0.0
 40
0.0575831684457566
 50
297.4872294243604074
 51
315.6236631031408137
  0
ARC
  5
3146B
  8
0
 10
2909.0173961971040626
 20
87.6793660606061565
 30
0.0
 40
0.0214537628439911
 50
283.026214343561378
 51
297.4872294243608053
  0
ARC
  5
3146C
  8
0
 10
2909.0181115503810361
 20
87.6792515336411924
 30
0.0
 40
0.0211915745660384
 50
262.456188461610509
 51
281.2113699325125822
  0
ARC
  5
3146D
  8
0
 10
2909.0211033971140751
 20
87.7358624453165561
 30
0.0
 40
0.0778335302945297
 50
259.7917498207722815
 51
265.7456878905243229
  0
ARC
  5
3146E
  8
0
 10
2909.0885335369989662
 20
87.9697035878149052
 30
0.0
 40
0.2692589946736778
 50
246.1990800630532021
 51
267.6253872407639278
  0
ARC
  5
3146F
  8
0
 10
2909.1046588604849603
 20
88.0062630005914031
 30
0.0
 40
0.3092166812947295
 50
229.9546068234309928
 51
246.1990800630532021
  0
ARC
  5
31470
  8
0
 10
2909.2449282054872128
 20
88.1731607851139927
 30
0.0
 40
0.5272312671037517
 50
217.8815596820595033
 51
229.9546068234309928
  0
ARC
  5
31471
  8
0
 10
2909.5670793811341355
 20
88.4237821575179481
 30
0.0
 40
0.9353886537531799
 50
216.5694123080563998
 51
217.8815596820595033
  0
ARC
  5
31472
  8
0
 10
2908.8329289948919723
 20
87.8708317524867937
 30
0.0
 40
0.0176385593817469
 50
171.4930312156824925
 51
194.2795348699968088
  0
ARC
  5
31473
  8
0
 10
2908.8300438363148714
 20
87.8678939278133555
 30
0.0
 40
0.0189962890004266
 50
14.7433060772963405
 51
35.7392081358628673
  0
ARC
  5
31474
  8
0
 10
2909.3295489811530388
 20
88.2602511347938048
 30
0.0
 40
0.6177897526096618
 50
218.8492182885441935
 51
226.4015667491611907
  0
ARC
  5
31475
  8
0
 10
2909.1486820614932185
 20
88.0703117587294457
 30
0.0
 40
0.3555116383747094
 50
226.4015667491611907
 51
244.3639066336388908
  0
ARC
  5
31476
  8
0
 10
2909.0894762735711083
 20
87.9469392539608634
 30
0.0
 40
0.2186682963505671
 50
244.3639066336388908
 51
264.0453998351151768
  0
ARC
  5
31477
  8
0
 10
2909.0974934003929775
 20
88.0238029453972075
 30
0.0
 40
0.2959489626500178
 50
264.0453998351151768
 51
270.3377045486802217
  0
ARC
  5
31478
  8
0
 10
2909.0987489894519058
 20
87.810779102168425
 30
0.0
 40
0.0829214191542352
 50
270.3377045486802217
 51
272.4267268094653218
  0
ARC
  5
31479
  8
0
 10
2909.1024698199448721
 20
87.7229816670687086
 30
0.0
 40
0.0049548244480572
 50
71.1724761380823736
 51
92.4267268094652366
  0
ARC
  5
3147A
  8
0
 10
2909.1033358013560246
 20
87.7260285937873761
 30
0.0
 40
0.0017989156982202
 50
1.209822716386769
 51
65.9526929037854046
  0
ARC
  5
3147B
  8
0
 10
2909.0779675682879315
 20
87.7152438328604944
 30
0.0
 40
0.0145799750638677
 50
267.6799242038964053
 51
300.668917051767778
  0
ARC
  5
3147C
  8
0
 10
2909.0618370043707728
 20
87.7424444020085161
 30
0.0
 40
0.0462037960579147
 50
300.668917051767778
 51
311.8406639297530205
  0
ARC
  5
3147D
  8
0
 10
2909.0329673984351757
 20
87.7746872161423255
 30
0.0
 40
0.0894825808163773
 50
311.8406639297530205
 51
320.3133789670678766
  0
ARC
  5
3147E
  8
0
 10
2909.0907356848379095
 20
87.7267498432400856
 30
0.0
 40
0.0144148338493215
 50
320.3133789670711167
 51
357.2831447191147163
  0
ARC
  5
3147F
  8
0
 10
2909.1547791208390663
 20
88.0043346830313453
 30
0.0
 40
0.2251017313480137
 50
243.0353630005263028
 51
267.5146165220357943
  0
ARC
  5
31480
  8
0
 10
2909.2561502201988333
 20
88.203590597572969
 30
0.0
 40
0.4486616098261241
 50
232.7188875253972924
 51
243.0353630005263028
  0
ARC
  5
31481
  8
0
 10
2909.2615500789379439
 20
88.210683774847837
 30
0.0
 40
0.4575762964868433
 50
224.7311145610468941
 51
232.7188875253972924
  0
ARC
  5
31482
  8
0
 10
2909.275889466308854
 20
88.224889202240206
 30
0.0
 40
0.4777607508409444
 50
222.4983172279642076
 51
224.7311145610468941
  0
ARC
  5
31483
  8
0
 10
2908.9038637398211904
 20
87.8882763843822374
 30
0.0
 40
0.016321568558312
 50
174.448668043867599
 51
198.819474489768595
  0
ARC
  5
31484
  8
0
 10
2909.4232473167330681
 20
88.3398253262706561
 30
0.0
 40
0.7033669008854725
 50
220.501479836311006
 51
223.8239776400689038
  0
ARC
  5
31485
  8
0
 10
2909.1849768455790581
 20
88.0998089380015585
 30
0.0
 40
0.365355078275334
 50
222.5417691241854925
 51
243.2590322998026124
  0
ARC
  5
31486
  8
0
 10
2909.1179018156731217
 20
87.9719030945511804
 30
0.0
 40
0.2209603431974806
 50
243.868182190544502
 51
272.1804594414372218
  0
ARC
  5
31487
  8
0
 10
2909.1278720704849547
 20
87.7840228610097029
 30
0.0
 40
0.0329572247499014
 50
267.2810705315729933
 51
280.0203535844731277
  0
ARC
  5
31488
  8
0
 10
2909.1304931728559495
 20
87.7639159476433548
 30
0.0
 40
0.0127340477987068
 50
284.1518898408567111
 51
312.3931796964913019
  0
ARC
  5
31489
  8
0
 10
2909.0986199166741244
 20
87.7994758549208569
 30
0.0
 40
0.060487283732048
 50
311.9806830066107182
 51
327.0369004131221118
  0
ARC
  5
3148A
  8
0
 10
2909.1255813314242005
 20
87.7819915841501626
 30
0.0
 40
0.0283529156863078
 50
327.0369004131227939
 51
340.9497197886058188
  0
ARC
  5
3148B
  8
0
 10
2909.1335964378458812
 20
87.7792238916810135
 30
0.0
 40
0.0198734078845474
 50
340.9497197886020103
 51
353.9443597308767266
  0
ARC
  5
3148C
  8
0
 10
2909.1511936956749196
 20
87.7773570660060756
 30
0.0
 40
0.0021774049128115
 50
353.9443597308840026
 51
25.4628051036463603
  0
ARC
  5
3148D
  8
0
 10
2909.1517877682031212
 20
87.7776399508182124
 30
0.0
 40
0.001519418601413
 50
25.4628051036662093
 51
93.9867502882780599
  0
ARC
  5
3148E
  8
0
 10
2909.1031334932340542
 20
86.7366251085548043
 30
0.0
 40
1.0436603800449069
 50
87.3337723853968129
 51
87.6999869959760332
  0
ARC
  5
3148F
  8
0
 10
2909.2245156184972075
 20
88.0109448905179477
 30
0.0
 40
0.0245988751666659
 50
11.9443629732824395
 51
48.0061210460258181
  0
ARC
  5
31490
  8
0
 10
2909.0850144201708645
 20
87.8315960358169434
 30
0.0
 40
0.2517564498324693
 50
51.7215330362958809
 51
61.5540344490808735
  0
ARC
  5
31491
  8
0
 10
2909.7393025003539151
 20
88.9694669861932965
 30
0.0
 40
1.060914975179994
 50
237.4394256941754975
 51
239.7557743238079127
  0
ARC
  5
31492
  8
0
 10
2909.1562281590618113
 20
88.0560358604327291
 30
0.0
 40
0.0227517114378984
 50
57.8724497337443395
 51
73.5552597680984519
  0
ARC
  5
31493
  8
0
 10
2909.2165499579177776
 20
88.1456379163083739
 30
0.0
 40
0.0480727587016552
 50
228.7489413335017048
 51
234.7479284970654874
  0
ARC
  5
31494
  8
0
 10
2907.842342846739939
 20
85.7411690506589395
 30
0.0
 40
2.7216139839808391
 50
59.2944157022515128
 51
60.3481334858881908
  0
ARC
  5
31495
  8
0
 10
2909.2197150362208049
 20
88.054847437131329
 30
0.0
 40
0.0291234659943477
 50
3.626922905987493
 51
64.8946206910764545
  0
ARC
  5
31496
  8
0
 10
2909.7056202525468507
 20
88.2076069164653518
 30
0.0
 40
0.4681021266649633
 50
191.9073747300546131
 51
192.5936189167771886
  0
ARC
  5
31497
  8
0
 10
2909.2254729344208499
 20
88.1054270472133823
 30
0.0
 40
0.0228146253454121
 50
14.1991798299564103
 51
37.233333095642692
  0
ARC
  5
31498
  8
0
 10
2909.2119741853171035
 20
88.0951685557306945
 30
0.0
 40
0.0397690606021081
 50
37.2333330956433315
 51
52.8556215318439868
  0
ARC
  5
31499
  8
0
 10
2908.9513292787701175
 20
87.7510884812718501
 30
0.0
 40
0.4714250172950869
 50
52.8556215318439868
 51
56.7733985440625375
  0
ARC
  5
3149A
  8
0
 10
2909.2062450071980493
 20
88.1302058704500553
 30
0.0
 40
0.015609668191285
 50
77.410347731814781
 51
92.8251933544851653
  0
ARC
  5
3149B
  8
0
 10
2909.210763246785973
 20
88.156234399603008
 30
0.0
 40
0.0295549179281631
 50
55.9979099971777217
 51
67.4891783609759415
  0
ARC
  5
3149C
  8
0
 10
2909.1735865199811997
 20
88.101121972096152
 30
0.0
 40
0.0960341528943278
 50
51.0106883504195281
 51
55.9979099971777217
  0
ARC
  5
3149D
  8
0
 10
2909.1931640542038622
 20
88.1253074370830802
 30
0.0
 40
0.0649179744195046
 50
37.5597509215554481
 51
51.0106883504190094
  0
ARC
  5
3149E
  8
0
 10
2909.2164832545367972
 20
88.1488609556948575
 30
0.0
 40
0.0323825450764944
 50
4.1676073693671221
 51
29.6501399898446785
  0
ARC
  5
3149F
  8
0
 10
2909.2360014545160993
 20
88.2214697957987539
 30
0.0
 40
0.0027341410481602
 50
40.1099151882729075
 51
108.9625778165894019
  0
ARC
  5
314A0
  8
0
 10
2909.2129051893489304
 20
88.1911008129267913
 30
0.0
 40
0.0408260989049072
 50
36.6005069225379529
 51
51.9067842236948422
  0
ARC
  5
314A1
  8
0
 10
2909.2299053590190852
 20
88.204862671772915
 30
0.0
 40
0.0189948084793096
 50
6.4436651716289717
 51
33.8480667788208009
  0
ARC
  5
314A2
  8
0
 10
2909.2384178299130326
 20
88.2491557211704531
 30
0.0
 40
0.0110617458115917
 50
20.4835523817977716
 51
66.7079342766198948
  0
ARC
  5
314A3
  8
0
 10
2909.1609017579230567
 20
87.9480907545642054
 30
0.0
 40
0.1420680689941338
 50
249.488804349611712
 51
274.408419921039922
  0
ARC
  5
314A4
  8
0
 10
2909.2097483763850505
 20
88.1073326968050878
 30
0.0
 40
0.3084936998401246
 50
237.3238692781216912
 51
251.3551246785002036
  0
ARC
  5
314A5
  8
0
 10
2909.3021098408758007
 20
88.2546241672399674
 30
0.0
 40
0.4823424770115161
 50
226.9569706463404941
 51
237.5349770870633961
  0
ARC
  5
314A6
  8
0
 10
2909.0431597310448524
 20
87.9731239804898735
 30
0.0
 40
0.0999064690820043
 50
213.8385968059126867
 51
225.3017581264078046
  0
ARC
  5
314A7
  8
0
 10
2909.182937901582136
 20
88.0552285924981391
 30
0.0
 40
0.2187800047444549
 50
244.45688262679991
 51
268.0120958581026116
  0
ARC
  5
314A8
  8
0
 10
2909.2400956692508771
 20
88.1748306307794252
 30
0.0
 40
0.3513381352604699
 50
233.1450005797418896
 51
244.45688262679991
  0
ARC
  5
314A9
  8
0
 10
2909.323792089014205
 20
88.2864863308794838
 30
0.0
 40
0.4908805519155519
 50
226.5261127463261062
 51
233.1450005797418896
  0
ARC
  5
314AA
  8
0
 10
2909.2179830158438563
 20
88.0948806667674233
 30
0.0
 40
0.2362698611263276
 50
234.1861171379698021
 51
262.1375910605237891
  0
ARC
  5
314AB
  8
0
 10
2909.3863274143777744
 20
88.3613516452530376
 30
0.0
 40
0.5512064240758943
 50
228.3366077410323953
 51
236.2043806664678982
  0
ARC
  5
314AC
  8
0
 10
2909.3371206374899884
 20
88.3067718357716984
 30
0.0
 40
0.4460882521537821
 50
229.4910469605351864
 51
240.4161772510555863
  0
ARC
  5
314AD
  8
0
 10
2909.2515905160098555
 20
88.1561125641213863
 30
0.0
 40
0.2728438646123079
 50
240.4161772510555863
 51
256.9339000207315848
  0
ARC
  5
314AE
  8
0
 10
2909.2031766298241564
 20
87.9475072512126559
 30
0.0
 40
0.0586941951064851
 50
256.9339000207315848
 51
281.4565104847910106
  0
ARC
  5
314AF
  8
0
 10
2909.207798952072153
 20
87.9246992112741452
 30
0.0
 40
0.0354224837641359
 50
281.4565104847910106
 51
286.8691457659801927
  0
ARC
  5
314B0
  8
0
 10
2909.2184095029351738
 20
87.8897080425783912
 30
0.0
 40
0.0011420574789799
 50
358.8670887156775962
 51
106.8691457659521973
  0
ARC
  5
314B1
  8
0
 10
2909.1896641209109475
 20
87.9238341019119503
 30
0.0
 40
0.0631291746536125
 50
266.3657647918735734
 51
286.8597075104211171
  0
ARC
  5
314B2
  8
0
 10
2909.2060181715269209
 20
87.8698701761350094
 30
0.0
 40
0.0067415850895866
 50
286.8597075103950829
 51
330.8146174456369977
  0
ARC
  5
314B3
  8
0
 10
2909.1555717396890941
 20
87.8980468463940383
 30
0.0
 40
0.0645236517893817
 50
330.8146174456369977
 51
352.5543104884059176
  0
ARC
  5
314B4
  8
0
 10
2909.1835640420790696
 20
88.2460974251652743
 30
0.0
 40
0.4095995644851664
 50
268.8507478043032961
 51
270.9638662314674775
  0
ARC
  5
314B5
  8
0
 10
2909.1905063058788983
 20
87.8334624765394807
 30
0.0
 40
0.0030937791176595
 50
47.0685015539381126
 51
90.9638662314675344
  0
ARC
  5
314B6
  8
0
 10
2909.1721077269958187
 20
87.8347971233442451
 30
0.0
 40
0.0205269272491275
 50
333.6895539827791026
 51
2.5982045385566699
  0
ARC
  5
314B7
  8
0
 10
2909.0797126743691479
 20
87.8804825643865115
 30
0.0
 40
0.1235997426422719
 50
326.0219591031632831
 51
333.6895539827791026
  0
ARC
  5
314B8
  8
0
 10
2909.1728329527891219
 20
87.8177240564348125
 30
0.0
 40
0.0113054125387319
 50
305.8470176089477945
 51
326.0219591031612936
  0
ARC
  5
314B9
  8
0
 10
2909.1734931911560125
 20
87.8168101949611639
 30
0.0
 40
0.0101780006827764
 50
280.3207258703840807
 51
305.8470176089492725
  0
ARC
  5
314BA
  8
0
 10
2909.1713403788448886
 20
87.8286320458197736
 30
0.0
 40
0.0221942712592974
 50
271.2431670549548812
 51
280.3207258703840807
  0
ARC
  5
314BB
  8
0
 10
2909.1176150822429918
 20
87.8365008565848342
 30
0.0
 40
0.1973581704061156
 50
49.2587707068787566
 51
51.7785520102804995
  0
ARC
  5
314BC
  8
0
 10
2909.1993691174748164
 20
87.9403117174706352
 30
0.0
 40
0.0652202987928085
 50
51.7785520102804995
 51
59.7176542223219826
  0
ARC
  5
314BD
  8
0
 10
2906.3357689954041234
 20
83.0363792798299301
 30
0.0
 40
5.7440193806469271
 50
59.7176542223219826
 51
60.2244405810134182
  0
ARC
  5
314BE
  8
0
 10
2909.4522053024611523
 20
88.483370285244817
 30
0.0
 40
0.531479505418305
 50
235.8237424178946071
 51
240.2244405810133969
  0
ARC
  5
314BF
  8
0
 10
2909.6918175578548471
 20
88.836263478957747
 30
0.0
 40
0.958032713241354
 50
234.9479310296875099
 51
235.8237424178946071
  0
ARC
  5
314C0
  8
0
 10
2910.0346253292109395
 20
89.3924900443945063
 30
0.0
 40
1.6501417918546131
 50
237.9796354492443129
 51
240.9813212897477968
  0
ARC
  5
314C1
  8
0
 10
2909.459337801251877
 20
88.4725652801560614
 30
0.0
 40
0.5651453348629011
 50
233.9279643438885046
 51
237.9796354492443129
  0
ARC
  5
314C2
  8
0
 10
2909.0981308414479827
 20
87.9767187297858158
 30
0.0
 40
0.0483155598357582
 50
53.9279643438884122
 51
71.1681231684677016
  0
ARC
  5
314C3
  8
0
 10
2909.2758854498301844
 20
88.1770314478526558
 30
0.0
 40
0.2607320607903715
 50
241.2279212186429902
 51
257.0247286027366727
  0
ARC
  5
314C4
  8
0
 10
2909.4679524283910723
 20
88.5268036298532337
 30
0.0
 40
0.6597687803479819
 50
235.8574065269982896
 51
241.2279212186429902
  0
ARC
  5
314C5
  8
0
 10
2909.1717152296660061
 20
88.0899629849855899
 30
0.0
 40
0.1319560986916888
 50
226.9224348908645084
 51
235.8574065269982896
  0
ARC
  5
314C6
  8
0
 10
2909.2323131018902131
 20
87.9445359455378224
 30
0.0
 40
0.0052972270183192
 50
342.7894065959040972
 51
69.707473445146249
  0
ARC
  5
314C7
  8
0
 10
2909.1668001823809391
 20
87.9492168283779563
 30
0.0
 40
0.0708490139802963
 50
337.575196963926885
 51
354.9404502093839824
  0
ARC
  5
314C8
  8
0
 10
2909.2305679376408989
 20
87.923146216564831
 30
0.0
 40
0.0019711807633267
 50
245.0514661579962876
 51
330.981565225582699
  0
ARC
  5
314C9
  8
0
 10
2909.2466961767659086
 20
88.1017847082430734
 30
0.0
 40
0.181221072820112
 50
260.678531255760106
 51
264.6300794207959939
  0
ENDSEC
  0
EOF
