  0
SECTION
  2
HEADER
  9
$ACADVER
  1
AC1009
  9
$INSBASE
 10
4740.6360294134228752
 20
171.4926783714255976
 30
0.0
  9
$EXTMIN
 10
4739.4942971334539834
 20
168.1838101295863055
 30
0.0
  9
$EXTMAX
 10
4745.7777617004530839
 20
172.6344111545265889
 30
0.0
  9
$LIMMIN
 10
0.0
 20
0.0
  9
$LIMMAX
 10
11.6929133858000007
 20
8.2677165353999982
  9
$ORTHOMODE
 70
     0
  9
$REGENMODE
 70
     1
  9
$FILLMODE
 70
     1
  9
$QTEXTMODE
 70
     0
  9
$MIRRTEXT
 70
     0
  9
$DRAGMODE
 70
     2
  9
$LTSCALE
 40
0.6431102362
  9
$OSMODE
 70
  4095
  9
$ATTMODE
 70
     1
  9
$TEXTSIZE
 40
0.2
  9
$TRACEWID
 40
0.05
  9
$TEXTSTYLE
  7
STANDARD
  9
$CLAYER
  8
0
  9
$CELTYPE
  6
BYLAYER
  9
$CECOLOR
 62
   256
  9
$DIMSCALE
 40
1.0
  9
$DIMASZ
 40
0.1875
  9
$DIMEXO
 40
0.0625
  9
$DIMDLI
 40
0.4443307087
  9
$DIMRND
 40
0.0
  9
$DIMDLE
 40
0.0
  9
$DIMEXE
 40
0.125
  9
$DIMTP
 40
0.01
  9
$DIMTM
 40
0.01
  9
$DIMTXT
 40
2.0
  9
$DIMCEN
 40
0.1052362205
  9
$DIMTSZ
 40
0.0
  9
$DIMTOL
 70
     1
  9
$DIMLIM
 70
     0
  9
$DIMTIH
 70
     1
  9
$DIMTOH
 70
     1
  9
$DIMSE1
 70
     0
  9
$DIMSE2
 70
     0
  9
$DIMTAD
 70
     0
  9
$DIMZIN
 70
     0
  9
$DIMBLK
  1

  9
$DIMASO
 70
     1
  9
$DIMSHO
 70
     1
  9
$DIMPOST
  1
\X
  9
$DIMAPOST
  1

  9
$DIMALT
 70
     1
  9
$DIMALTD
 70
     2
  9
$DIMALTF
 40
25.3999999999999986
  9
$DIMLFAC
 40
1.0
  9
$DIMTOFL
 70
     0
  9
$DIMTVP
 40
0.0
  9
$DIMTIX
 70
     0
  9
$DIMSOXD
 70
     0
  9
$DIMSAH
 70
     0
  9
$DIMBLK1
  1

  9
$DIMBLK2
  1

  9
$DIMSTYLE
  2
STANDARD
  9
$DIMCLRD
 70
     0
  9
$DIMCLRE
 70
     0
  9
$DIMCLRT
 70
     0
  9
$DIMTFAC
 40
1.0
  9
$DIMGAP
 40
0.09
  9
$LUNITS
 70
     2
  9
$LUPREC
 70
     4
  9
$SKETCHINC
 40
0.1
  9
$FILLETRAD
 40
0.0
  9
$AUNITS
 70
     0
  9
$AUPREC
 70
     0
  9
$MENU
  1
.
  9
$ELEVATION
 40
0.0
  9
$PELEVATION
 40
0.0
  9
$THICKNESS
 40
0.0
  9
$LIMCHECK
 70
     0
  9
$BLIPMODE
 70
     0
  9
$CHAMFERA
 40
0.0
  9
$CHAMFERB
 40
0.0
  9
$SKPOLY
 70
     0
  9
$TDCREATE
 40
2458060.468368056230247
  9
$TDUPDATE
 40
2459894.4891087962314487
  9
$TDINDWG
 40
0.5527501157
  9
$TDUSRTIMER
 40
0.5527501157
  9
$USRTIMER
 70
     1
  9
$ANGBASE
 50
0.0
  9
$ANGDIR
 70
     0
  9
$PDMODE
 70
     0
  9
$PDSIZE
 40
0.3125
  9
$PLINEWID
 40
0.0
  9
$COORDS
 70
     1
  9
$SPLFRAME
 70
     0
  9
$SPLINETYPE
 70
     6
  9
$SPLINESEGS
 70
     8
  9
$ATTDIA
 70
     1
  9
$ATTREQ
 70
     1
  9
$HANDLING
 70
     1
  9
$HANDSEED
  5
D66F
  9
$SURFTAB1
 70
     6
  9
$SURFTAB2
 70
     6
  9
$SURFTYPE
 70
     6
  9
$SURFU
 70
     6
  9
$SURFV
 70
     6
  9
$UCSNAME
  2

  9
$UCSORG
 10
0.0
 20
0.0
 30
0.0
  9
$UCSXDIR
 10
1.0
 20
0.0
 30
0.0
  9
$UCSYDIR
 10
0.0
 20
1.0
 30
0.0
  9
$PUCSNAME
  2

  9
$PUCSORG
 10
0.0
 20
0.0
 30
0.0
  9
$PUCSXDIR
 10
1.0
 20
0.0
 30
0.0
  9
$PUCSYDIR
 10
0.0
 20
1.0
 30
0.0
  9
$USERI1
 70
     0
  9
$USERI2
 70
     0
  9
$USERI3
 70
     0
  9
$USERI4
 70
     0
  9
$USERI5
 70
     0
  9
$USERR1
 40
0.0
  9
$USERR2
 40
0.0
  9
$USERR3
 40
0.0
  9
$USERR4
 40
0.0
  9
$USERR5
 40
0.0
  9
$WORLDVIEW
 70
     1
  9
$SHADEDGE
 70
     3
  9
$SHADEDIF
 70
    70
  9
$TILEMODE
 70
     1
  9
$MAXACTVP
 70
    64
  9
$PLIMCHECK
 70
     0
  9
$PEXTMIN
 10
1.0000000000000000E+20
 20
1.0000000000000000E+20
 30
1.0000000000000000E+20
  9
$PEXTMAX
 10
-1.0000000000000000E+20
 20
-1.0000000000000000E+20
 30
-1.0000000000000000E+20
  9
$PLIMMIN
 10
0.0
 20
0.0
  9
$PLIMMAX
 10
12.0
 20
9.0
  9
$UNITMODE
 70
     0
  9
$VISRETAIN
 70
     1
  9
$PLINEGEN
 70
     0
  9
$PSLTSCALE
 70
     1
  0
ENDSEC
  0
SECTION
  2
TABLES
  0
TABLE
  2
VPORT
 70
     1
  0
VPORT
  2
*ACTIVE
 70
     0
 10
0.0
 20
0.0
 11
1.0
 21
1.0
 12
943.3030401843099071
 22
40.3285254077892787
 13
0.0
 23
0.0
 14
1.0
 24
1.0
 15
0.0
 25
0.0
 16
0.0
 26
0.0
 36
17.1152628219792007
 17
3803.5440673828129547
 27
125.9952621967499056
 37
0.0
 40
20.9109712964720806
 41
2.498684210526315
 42
50.0
 43
0.0
 44
0.0
 50
0.0
 51
0.0
 71
     0
 72
   100
 73
     1
 74
     1
 75
     0
 76
     0
 77
     0
 78
     0
  0
ENDTAB
  0
TABLE
  2
LTYPE
 70
     2
  0
LTYPE
  2
CONTINUOUS
 70
     0
  3
Solid line
 72
    65
 73
     0
 40
0.0
  0
LTYPE
  2
PHANTOM2
 70
     0
  3
___ _ _ ___ _ _ ___ _ _ ___ _ _
 72
    65
 73
     6
 40
1.25
 49
0.625
 49
-0.125
 49
0.125
 49
-0.125
 49
0.125
 49
-0.125
  0
ENDTAB
  0
TABLE
  2
LAYER
 70
     2
  0
LAYER
  2
0
 70
     0
 62
   255
  6
CONTINUOUS
  0
LAYER
  2
DEFPOINTS
 70
     0
 62
     7
  6
CONTINUOUS
  0
ENDTAB
  0
TABLE
  2
STYLE
 70
     1
  0
STYLE
  2
STANDARD
 70
     0
 40
0.0
 41
0.8
 50
0.0
 71
     0
 42
0.2
  3
txt
  4

  0
ENDTAB
  0
TABLE
  2
VIEW
 70
     0
  0
ENDTAB
  0
TABLE
  2
UCS
 70
     0
  0
ENDTAB
  0
TABLE
  2
APPID
 70
     9
  0
APPID
  2
ACAD
 70
     0
  0
APPID
  2
ACAD_MLEADERVER
 70
     0
  0
APPID
  2
ACAD_EXEMPT_FROM_CAD_STANDARDS
 70
     0
  0
APPID
  2
ACAD_NAV_VCDISPLAY
 70
     0
  0
APPID
  2
ACAECLAYERSTANDARD
 70
     0
  0
APPID
  2
ACCMTRANSPARENCY
 70
     0
  0
APPID
  2
ACAD_DSTYLE_DIMJAG
 70
     0
  0
APPID
  2
ACAD_DSTYLE_DIMTALN
 70
     0
  0
APPID
  2
ACDBATTR
 70
     0
  0
ENDTAB
  0
TABLE
  2
DIMSTYLE
 70
     1
  0
DIMSTYLE
  2
STANDARD
 70
     0
  3

  4

  5

  6

  7

 40
1.0
 41
0.1875
 42
0.0625
 43
0.38
 44
0.125
 45
0.0
 46
0.0
 47
0.01
 48
0.01
140
0.15625
141
0.09
142
0.0
143
25.3999999999999986
144
1.0
145
0.0
146
1.0
147
0.09
 71
     1
 72
     0
 73
     1
 74
     1
 75
     0
 76
     0
 77
     0
 78
     4
170
     0
171
     2
172
     0
173
     0
174
     0
175
     0
176
     0
177
     0
178
     0
  0
ENDTAB
  0
ENDSEC
  0
SECTION
  2
BLOCKS
  0
BLOCK
  8
0
  2
$MODEL_SPACE
 70
     0
 10
0.0
 20
0.0
 30
0.0
  3
$MODEL_SPACE
  1

  0
ENDBLK
  5
21
  8
0
  0
BLOCK
 67
     1
  8
0
  2
$PAPER_SPACE
 70
     0
 10
0.0
 20
0.0
 30
0.0
  3
$PAPER_SPACE
  1

  0
ENDBLK
  5
1D
 67
     1
  8
0
  0
BLOCK
  8
0
  2
_FILLED
 70
     0
 10
0.0
 20
0.0
 30
0.0
  3
_FILLED
  1

  0
SOLID
  5
CFCE
  8
0
  6
BYBLOCK
 62
     0
 10
0.0
 20
0.0
 30
0.0
 11
-1.0
 21
0.1666666667
 31
0.0
 12
-1.0
 22
-0.1666666667
 32
0.0
 13
-1.0
 23
-0.1666666667
 33
0.0
  0
ENDBLK
  5
CFCF
  8
0
  6
BYBLOCK
 62
     0
  0
ENDSEC
  0
SECTION
  2
ENTITIES
  0
ATTDEF
  5
3930
  8
DEFPOINTS
 10
4740.6370817203378465
 20
171.4907935685338884
 30
0.0
 40
0.001
  1
P26613-00
  3

  2
MODELNUMBER
 70
     0
1001
ACDBATTR
1070
     0
1070
     1
  0
ATTDEF
  5
3931
  8
DEFPOINTS
 10
4740.6370817203378465
 20
171.4891269018671949
 30
0.0
 40
0.001
  1
ONE
  3

  2
TRADENAME
 70
     0
1001
ACDBATTR
1070
     0
1070
     1
  0
ATTDEF
  5
3932
  8
DEFPOINTS
 10
4740.6370817203378465
 20
171.4874602352005013
 30
0.0
 40
0.001
  1
BATHROOM SINK FAUCET
  3

  2
PRODUCT
 70
     0
1001
ACDBATTR
1070
     0
1070
     1
  0
LINE
  5
D40A
  8
0
 10
4744.2011784366050051
 20
168.2231101295863027
 30
0.0
 11
4744.2011784366050051
 21
170.7359204265526103
 31
0.0
  0
LINE
  5
D40B
  8
0
 10
4744.2404784366035528
 20
168.1838101295863908
 30
0.0
 11
4745.0315803972525828
 21
168.1838101295863908
 31
0.0
  0
LINE
  5
D40C
  8
0
 10
4745.0708803972529495
 20
168.2231101295863027
 30
0.0
 11
4745.0708803972529495
 21
170.7359204064532889
 31
0.0
  0
ARC
  5
D40D
  8
0
 10
4744.2404784366035528
 20
168.2231101295863027
 30
0.0
 40
0.0393
 50
180.0
 51
270.0
  0
ARC
  5
D40E
  8
0
 10
4745.0315803972525828
 20
168.2231101295863027
 30
0.0
 40
0.0393
 50
270.0
 51
0.0
  0
ARC
  5
D40F
  8
0
 10
4744.6360294169544431
 20
171.4926788710266123
 30
0.0
 40
1.1417322834999999
 50
292.3875506051493858
 51
247.6124493922021088
  0
ARC
  5
D410
  8
0
 10
4744.6360294311543839
 20
171.4926788710266123
 30
0.0
 40
0.8267716535999998
 50
305.2412618217982185
 51
234.7587360242686998
  0
ARC
  5
D411
  8
0
 10
4744.1013784366050459
 20
170.7359204265526103
 30
0.0
 40
0.0998
 50
0.0
 51
54.7587360242687211
  0
ARC
  5
D412
  8
0
 10
4745.1706803972529087
 20
170.7359204064532889
 30
0.0
 40
0.0998
 50
125.2412618217982043
 51
180.0
  0
LINE
  5
D413
  8
0
 10
4740.2364317706078509
 20
168.4293879624171097
 30
0.0
 11
4740.2364317684232446
 21
171.4926783714255976
 31
0.0
  0
ARC
  5
D414
  8
0
 10
4740.6360294169526242
 20
171.4926788710266123
 30
0.0
 40
1.1417322834999999
 50
290.4868513463488853
 51
249.5131483572029083
  0
ARC
  5
D415
  8
0
 10
4740.6360294134228752
 20
171.4926783714255976
 30
0.0
 40
0.3995976450000002
 50
0.0
 51
180.0
  0
ARC
  5
D416
  8
0
 10
4740.6465799808393058
 20
172.5564140873457006
 30
0.0
 40
4.1686243281389164
 50
266.0788805836194229
 51
269.854987291517773
  0
ARC
  5
D417
  8
0
 10
4740.4155780220462475
 20
169.1471494421508055
 30
0.0
 40
0.7515484369746103
 50
258.1822435497340962
 51
265.8749728768573846
  0
ARC
  5
D418
  8
0
 10
4740.2733615881479636
 20
168.4674501427276994
 30
0.0
 40
0.0571302260188997
 50
235.2665123722852911
 51
258.1822435497340962
  0
ARC
  5
D419
  8
0
 10
4740.248514772370072
 20
168.4298185410079896
 30
0.0
 40
0.0120906711763213
 50
182.0408754245206921
 51
230.4195872851962861
  0
LINE
  5
D41A
  8
0
 10
4741.0356270606080216
 20
168.4293879624171097
 30
0.0
 11
4741.0356270584234153
 21
171.4926783714255976
 31
0.0
  0
ARC
  5
D41B
  8
0
 10
4740.6635614087117574
 20
163.0977833980699074
 30
0.0
 40
5.3665024266250656
 50
90.293948236851989
 51
92.5275068632199265
  0
ARC
  5
D41C
  8
0
 10
4740.5168014663950089
 20
166.6786854581013984
 30
0.0
 40
1.7826478201494269
 50
92.8906064660751554
 51
97.2491848199664446
  0
ARC
  5
D41D
  8
0
 10
4740.3271879126314161
 20
168.1693391807598061
 30
0.0
 40
0.2799829138424386
 50
97.2491848199664446
 51
105.3436352355583949
  0
ARC
  5
D41E
  8
0
 10
4740.2686955065219081
 20
168.3825134125378895
 30
0.0
 40
0.0589294934512754
 50
105.3436352355583949
 51
119.637772118236299
  0
ARC
  5
D41F
  8
0
 10
4740.2430451922082284
 20
168.427596902715095
 30
0.0
 40
0.0070598519355782
 50
119.637772118236299
 51
148.4641030646673983
  0
ARC
  5
D420
  8
0
 10
4740.2405074932821663
 20
168.429154201826492
 30
0.0
 40
0.0040824207672872
 50
148.4641915470311062
 51
176.71743168890211
  0
ARC
  5
D421
  8
0
 10
4740.6435836171604024
 20
172.8406196751639072
 30
0.0
 40
4.4351461987870771
 50
268.2093324020362957
 51
269.9024104152670134
  0
ARC
  5
D422
  8
0
 10
4740.5896922244373854
 20
170.959765804530889
 30
0.0
 40
2.5535315383567712
 50
265.2264613284677921
 51
268.0992125530518138
  0
ARC
  5
D423
  8
0
 10
4740.4398552990423923
 20
169.1654678364702988
 30
0.0
 40
0.7529882030276874
 50
259.7490250055292904
 51
265.2264613284677921
  0
ARC
  5
D424
  8
0
 10
4740.3250515381505465
 20
168.5306564139484067
 30
0.0
 40
0.1078793395952478
 50
245.8993623072003913
 51
259.7490250055292904
  0
ARC
  5
D425
  8
0
 10
4741.235680679982579
 20
146.3008271350068981
 30
0.0
 40
22.1634876689494007
 50
91.5503733092789531
 51
91.7715194612306249
  0
ARC
  5
D426
  8
0
 10
4740.6224889923742012
 20
164.902896424640204
 30
0.0
 40
3.5515546120516821
 50
91.1611199200585531
 51
92.6826210310606058
  0
ARC
  5
D427
  8
0
 10
4740.5582313584818621
 20
166.2743165750391938
 30
0.0
 40
2.1786298972788378
 50
92.6826210310606058
 51
95.4623499933636168
  0
ARC
  5
D428
  8
0
 10
4740.4154106575242622
 20
167.7678526293188099
 30
0.0
 40
0.6782807052388954
 50
95.4623499933636168
 51
99.9878761330382986
  0
ARC
  5
D429
  8
0
 10
4740.333844048453102
 20
168.2310129321028001
 30
0.0
 40
0.2079929446174912
 50
99.9878761330382986
 51
104.7182743126909941
  0
LINE
  5
D42A
  8
0
 10
4740.5564607869473548
 20
168.4099388455719009
 30
0.0
 11
4740.5564607869473548
 21
168.4446653785865067
 31
0.0
  0
LINE
  5
D42B
  8
0
 10
4740.5689454044413651
 20
168.4156668337801079
 30
0.0
 11
4740.5689454044413651
 21
168.4442919947649955
 31
0.0
  0
LINE
  5
D42C
  8
0
 10
4740.4179280156213281
 20
168.4261391092911992
 30
0.0
 11
4740.4179280156213281
 21
168.4484240243847069
 31
0.0
  0
ARC
  5
D42D
  8
0
 10
4740.4195178981199206
 20
168.9390397692816919
 30
0.0
 40
0.5243209945458899
 50
257.0317113185471953
 51
265.860306063414896
  0
LINE
  5
D42E
  8
0
 10
4740.2977697964233812
 20
168.4337093241742878
 30
0.0
 11
4740.2977697964233812
 21
168.4358536344817878
 31
0.0
  0
ARC
  5
D42F
  8
0
 10
4740.3034230680332257
 20
168.4335261670686918
 30
0.0
 40
0.0056562378333698
 50
178.1443559728539014
 51
253.8958026837987916
  0
ARC
  5
D430
  8
0
 10
4740.4103813332267237
 20
168.4255351128240932
 30
0.0
 40
0.0075708141484958
 50
295.1467341999660903
 51
4.5758968181849093
  0
LINE
  5
D431
  8
0
 10
4740.3816679813644441
 20
168.4160867225145068
 30
0.0
 11
4740.4135984592667228
 21
168.4186818415672917
 31
0.0
  0
LINE
  5
D432
  8
0
 10
4740.3508440044533927
 20
168.4430532383310037
 30
0.0
 11
4740.3509121088673055
 21
168.4352593091063
 31
0.0
  0
ARC
  5
D433
  8
0
 10
4740.2801399751861027
 20
170.4709427160553048
 30
0.0
 40
2.0429662295784792
 50
270.608992855735778
 51
271.8297105857537872
  0
ARC
  5
D434
  8
0
 10
4740.451389870137973
 20
168.8984907173463057
 30
0.0
 40
0.4812948659729567
 50
257.274484348056319
 51
265.4964831650161159
  0
ARC
  5
D435
  8
0
 10
4740.3447999957334105
 20
168.4351055417182863
 30
0.0
 40
0.0061140470541215
 50
275.3488008974966874
 51
1.441132414579096
  0
ARC
  5
D436
  8
0
 10
4740.6499223688897473
 20
171.1768856104089878
 30
0.0
 40
2.7333477099612322
 50
265.910191996317792
 51
269.7087779895044264
  0
LINE
  5
D437
  8
0
 10
4740.5576733719271942
 20
168.4072022071632091
 30
0.0
 11
4740.5676136996044079
 21
168.4109312672439955
 31
0.0
  0
ARC
  5
D438
  8
0
 10
4740.5603382286071792
 20
168.4155322571874933
 30
0.0
 40
0.0086082278494945
 50
327.6908402832935963
 51
0.8957691451104572
  0
ARC
  5
D439
  8
0
 10
4740.561558517899357
 20
168.4105606507471862
 30
0.0
 40
0.0051355138525454
 50
186.9544045961503969
 51
220.8411769909380951
  0
ARC
  5
D43A
  8
0
 10
4740.6526015814561106
 20
174.1881137857133126
 30
0.0
 40
5.781690932934703
 50
269.0592319400724932
 51
269.8357718405529795
  0
ARC
  5
D43B
  8
0
 10
4740.6314688862203184
 20
172.3723314588667108
 30
0.0
 40
3.9845309580779298
 50
270.0655783945585995
 51
274.0085056735521221
  0
ARC
  5
D43C
  8
0
 10
4740.8559445551472891
 20
169.1471494421508055
 30
0.0
 40
0.7515484369746103
 50
274.1250271231426154
 51
281.8177564502659038
  0
ARC
  5
D43D
  8
0
 10
4740.9981609890455729
 20
168.4674501427276994
 30
0.0
 40
0.0571302260188997
 50
281.8177564502659038
 51
304.7334876277134867
  0
ARC
  5
D43E
  8
0
 10
4741.0198689287390152
 20
168.432299692482502
 30
0.0
 40
0.0160248835256312
 50
312.5791954818577096
 51
349.5311725854276119
  0
ARC
  5
D43F
  8
0
 10
4740.6312170707242331
 20
164.0425889942445963
 30
0.0
 40
4.4216288245086064
 50
87.2336529892628647
 51
89.9376412817709934
  0
ARC
  5
D440
  8
0
 10
4740.7547211107967087
 20
166.6786854581013984
 30
0.0
 40
1.7826478201494269
 50
82.7508151800335412
 51
87.1093935339248446
  0
ARC
  5
D441
  8
0
 10
4740.9443346645621205
 20
168.1693391807598061
 30
0.0
 40
0.2799829138424386
 50
74.6563647644415767
 51
82.7508151800335412
  0
ARC
  5
D442
  8
0
 10
4741.002827070670719
 20
168.3825134125378895
 30
0.0
 40
0.0589294934512754
 50
60.36222788176363
 51
74.6563647644415767
  0
ARC
  5
D443
  8
0
 10
4741.0277009052479116
 20
168.4265606342742956
 30
0.0
 40
0.0083461062794946
 50
34.5126201814545226
 51
59.2469981958454213
  0
ARC
  5
D444
  8
0
 10
4741.0307997830032036
 20
168.4279650491081952
 30
0.0
 40
0.005032622711988
 50
16.4236808844244386
 51
41.3431637928608922
  0
ARC
  5
D445
  8
0
 10
4740.6337325587783198
 20
172.4885549590239862
 30
0.0
 40
4.0830756952892839
 50
270.0322306563211896
 51
271.8637844601170173
  0
ARC
  5
D446
  8
0
 10
4740.6818303527561511
 20
170.959765804530889
 30
0.0
 40
2.5535315383567712
 50
271.9007874469480726
 51
274.7735386714803099
  0
ARC
  5
D447
  8
0
 10
4740.8316672781502348
 20
169.1654678364702988
 30
0.0
 40
0.7529882030276874
 50
274.7735386714803099
 51
280.2509749944707096
  0
ARC
  5
D448
  8
0
 10
4740.9464710390420805
 20
168.5306564139484067
 30
0.0
 40
0.1078793395952478
 50
280.2509749944707096
 51
294.1006376927996939
  0
ARC
  5
D449
  8
0
 10
4740.6296241031195677
 20
166.7794462379708875
 30
0.0
 40
1.6767672878064659
 50
86.8760274914318842
 51
89.7811274902118015
  0
ARC
  5
D44A
  8
0
 10
4740.6490335848193354
 20
164.902896424640204
 30
0.0
 40
3.5515546120516821
 50
87.3173789689394084
 51
88.8388800799414611
  0
ARC
  5
D44B
  8
0
 10
4740.7132912187098555
 20
166.2743165750391938
 30
0.0
 40
2.1786298972788378
 50
84.5376500066363974
 51
87.3173789689394084
  0
ARC
  5
D44C
  8
0
 10
4740.8561119196692744
 20
167.7678526293188099
 30
0.0
 40
0.6782807052388954
 50
80.0121238669617156
 51
84.5376500066363974
  0
ARC
  5
D44D
  8
0
 10
4740.9376785287404346
 20
168.2310129321028001
 30
0.0
 40
0.2079929446174912
 50
75.2817256873089207
 51
80.0121238669617156
  0
LINE
  5
D44E
  8
0
 10
4740.7150617902461818
 20
168.4099388455719009
 30
0.0
 11
4740.7150617902461818
 21
168.4446653785865067
 31
0.0
  0
LINE
  5
D44F
  8
0
 10
4740.7025771727521715
 20
168.4156668337801079
 30
0.0
 11
4740.7025771727521715
 21
168.4442919947649955
 31
0.0
  0
LINE
  5
D450
  8
0
 10
4740.8535945615722085
 20
168.4261391092911992
 30
0.0
 11
4740.8535945615722085
 21
168.4484240243847069
 31
0.0
  0
ARC
  5
D451
  8
0
 10
4740.852004679071797
 20
168.9390397692816919
 30
0.0
 40
0.5243209945458899
 50
274.1396939365849903
 51
282.9682886814021003
  0
LINE
  5
D452
  8
0
 10
4740.9737527807692459
 20
168.4337093241742878
 30
0.0
 11
4740.9737527807692459
 21
168.4358536344817878
 31
0.0
  0
ARC
  5
D453
  8
0
 10
4740.9680995091575824
 20
168.4335261670686918
 30
0.0
 40
0.0056562378333698
 50
286.10419731620118
 51
1.8556440271461181
  0
ARC
  5
D454
  8
0
 10
4740.8611412439640844
 20
168.4255351128240932
 30
0.0
 40
0.0075708141484958
 50
175.4241031818150987
 51
244.853265800033796
  0
LINE
  5
D455
  8
0
 10
4740.8898545958290924
 20
168.4160867225145068
 30
0.0
 11
4740.8579241179259043
 21
168.4186818415672917
 31
0.0
  0
LINE
  5
D456
  8
0
 10
4740.9206785727401439
 20
168.4430532383310037
 30
0.0
 11
4740.9206104683262311
 21
168.4352593091063
 31
0.0
  0
ARC
  5
D457
  8
0
 10
4740.9913826020074339
 20
170.4709427160553048
 30
0.0
 40
2.0429662295784792
 50
268.1702894142462128
 51
269.391007144264222
  0
ARC
  5
D458
  8
0
 10
4740.8201327070555635
 20
168.8984907173463057
 30
0.0
 40
0.4812948659729567
 50
274.5035168349838841
 51
282.7255156519437946
  0
ARC
  5
D459
  8
0
 10
4740.9267225814610356
 20
168.4351055417182863
 30
0.0
 40
0.0061140470541215
 50
178.5588675854208986
 51
264.6511991025031989
  0
ARC
  5
D45A
  8
0
 10
4740.6328376400879279
 20
170.8828727422254019
 30
0.0
 40
2.4393016224554942
 50
270.0749703591084767
 51
274.319061730514079
  0
LINE
  5
D45B
  8
0
 10
4740.7138492052672518
 20
168.4072022071632091
 30
0.0
 11
4740.7039088775882192
 21
168.4109312672439955
 31
0.0
  0
ARC
  5
D45C
  8
0
 10
4740.7111843485872669
 20
168.4155322571874933
 30
0.0
 40
0.0086082278494945
 50
179.1042308548894937
 51
212.309159716706489
  0
ARC
  5
D45D
  8
0
 10
4740.7099640592950891
 20
168.4105606507471862
 30
0.0
 40
0.0051355138525454
 50
319.1588230090617913
 51
353.0455954038495179
  0
ARC
  5
D45E
  8
0
 10
4740.6290405152503808
 20
173.1339507840484089
 30
0.0
 40
4.7275093466844567
 50
270.0847030879290855
 51
271.0279071530786723
  0
ARC
  5
D45F
  8
0
 10
4744.6360294311543839
 20
171.4926788710266123
 30
0.0
 40
0.8366141855060194
 50
302.4286034987530911
 51
237.5713943473388952
  0
LINE
  5
D460
  8
0
 10
4740.5676136996044079
 20
168.4109312672439955
 30
0.0
 11
4740.7039088775882192
 21
168.4109312672439955
 31
0.0
  0
ENDSEC
  0
EOF
