  0
SECTION
  2
HEADER
  9
$ACADVER
  1
AC1009
  9
$INSBASE
 10
4715.4250708138761183
 20
173.3604625431966895
 30
0.0
  9
$EXTMIN
 10
4697.1233139100522749
 20
164.6830681220457961
 30
0.0
  9
$EXTMAX
 10
4723.0944209326244163
 20
182.5998326218966952
 30
0.0
  9
$LIMMIN
 10
0.0
 20
0.0
  9
$LIMMAX
 10
11.6929133858000007
 20
8.2677165353999982
  9
$ORTHOMODE
 70
     0
  9
$REGENMODE
 70
     1
  9
$FILLMODE
 70
     1
  9
$QTEXTMODE
 70
     0
  9
$MIRRTEXT
 70
     0
  9
$DRAGMODE
 70
     2
  9
$LTSCALE
 40
0.6431102362
  9
$OSMODE
 70
  4095
  9
$ATTMODE
 70
     1
  9
$TEXTSIZE
 40
0.2
  9
$TRACEWID
 40
0.05
  9
$TEXTSTYLE
  7
STANDARD
  9
$CLAYER
  8
0
  9
$CELTYPE
  6
BYLAYER
  9
$CECOLOR
 62
   256
  9
$DIMSCALE
 40
1.0
  9
$DIMASZ
 40
0.1875
  9
$DIMEXO
 40
0.0625
  9
$DIMDLI
 40
0.4443307087
  9
$DIMRND
 40
0.0
  9
$DIMDLE
 40
0.0
  9
$DIMEXE
 40
0.125
  9
$DIMTP
 40
0.01
  9
$DIMTM
 40
0.01
  9
$DIMTXT
 40
2.0
  9
$DIMCEN
 40
0.1052362205
  9
$DIMTSZ
 40
0.0
  9
$DIMTOL
 70
     1
  9
$DIMLIM
 70
     0
  9
$DIMTIH
 70
     1
  9
$DIMTOH
 70
     1
  9
$DIMSE1
 70
     0
  9
$DIMSE2
 70
     0
  9
$DIMTAD
 70
     0
  9
$DIMZIN
 70
     0
  9
$DIMBLK
  1

  9
$DIMASO
 70
     1
  9
$DIMSHO
 70
     1
  9
$DIMPOST
  1
\X
  9
$DIMAPOST
  1

  9
$DIMALT
 70
     1
  9
$DIMALTD
 70
     2
  9
$DIMALTF
 40
25.3999999999999986
  9
$DIMLFAC
 40
1.0
  9
$DIMTOFL
 70
     0
  9
$DIMTVP
 40
0.0
  9
$DIMTIX
 70
     0
  9
$DIMSOXD
 70
     0
  9
$DIMSAH
 70
     0
  9
$DIMBLK1
  1

  9
$DIMBLK2
  1

  9
$DIMSTYLE
  2
STANDARD
  9
$DIMCLRD
 70
     0
  9
$DIMCLRE
 70
     0
  9
$DIMCLRT
 70
     0
  9
$DIMTFAC
 40
1.0
  9
$DIMGAP
 40
0.09
  9
$LUNITS
 70
     2
  9
$LUPREC
 70
     4
  9
$SKETCHINC
 40
0.1
  9
$FILLETRAD
 40
0.0
  9
$AUNITS
 70
     0
  9
$AUPREC
 70
     0
  9
$MENU
  1
.
  9
$ELEVATION
 40
0.0
  9
$PELEVATION
 40
0.0
  9
$THICKNESS
 40
0.0
  9
$LIMCHECK
 70
     0
  9
$BLIPMODE
 70
     0
  9
$CHAMFERA
 40
0.0
  9
$CHAMFERB
 40
0.0
  9
$SKPOLY
 70
     0
  9
$TDCREATE
 40
2458060.468368056230247
  9
$TDUPDATE
 40
2459894.475729166995734
  9
$TDINDWG
 40
0.5162223379999999
  9
$TDUSRTIMER
 40
0.5162223379999999
  9
$USRTIMER
 70
     1
  9
$ANGBASE
 50
0.0
  9
$ANGDIR
 70
     0
  9
$PDMODE
 70
     0
  9
$PDSIZE
 40
0.3125
  9
$PLINEWID
 40
0.0
  9
$COORDS
 70
     1
  9
$SPLFRAME
 70
     0
  9
$SPLINETYPE
 70
     6
  9
$SPLINESEGS
 70
     8
  9
$ATTDIA
 70
     1
  9
$ATTREQ
 70
     1
  9
$HANDLING
 70
     1
  9
$HANDSEED
  5
D513
  9
$SURFTAB1
 70
     6
  9
$SURFTAB2
 70
     6
  9
$SURFTYPE
 70
     6
  9
$SURFU
 70
     6
  9
$SURFV
 70
     6
  9
$UCSNAME
  2

  9
$UCSORG
 10
0.0
 20
0.0
 30
0.0
  9
$UCSXDIR
 10
1.0
 20
0.0
 30
0.0
  9
$UCSYDIR
 10
0.0
 20
1.0
 30
0.0
  9
$PUCSNAME
  2

  9
$PUCSORG
 10
0.0
 20
0.0
 30
0.0
  9
$PUCSXDIR
 10
1.0
 20
0.0
 30
0.0
  9
$PUCSYDIR
 10
0.0
 20
1.0
 30
0.0
  9
$USERI1
 70
     0
  9
$USERI2
 70
     0
  9
$USERI3
 70
     0
  9
$USERI4
 70
     0
  9
$USERI5
 70
     0
  9
$USERR1
 40
0.0
  9
$USERR2
 40
0.0
  9
$USERR3
 40
0.0
  9
$USERR4
 40
0.0
  9
$USERR5
 40
0.0
  9
$WORLDVIEW
 70
     1
  9
$SHADEDGE
 70
     3
  9
$SHADEDIF
 70
    70
  9
$TILEMODE
 70
     1
  9
$MAXACTVP
 70
    64
  9
$PLIMCHECK
 70
     0
  9
$PEXTMIN
 10
1.0000000000000000E+20
 20
1.0000000000000000E+20
 30
1.0000000000000000E+20
  9
$PEXTMAX
 10
-1.0000000000000000E+20
 20
-1.0000000000000000E+20
 30
-1.0000000000000000E+20
  9
$PLIMMIN
 10
0.0
 20
0.0
  9
$PLIMMAX
 10
12.0
 20
9.0
  9
$UNITMODE
 70
     0
  9
$VISRETAIN
 70
     1
  9
$PLINEGEN
 70
     0
  9
$PSLTSCALE
 70
     1
  0
ENDSEC
  0
SECTION
  2
TABLES
  0
TABLE
  2
VPORT
 70
     1
  0
VPORT
  2
*ACTIVE
 70
     0
 10
0.0
 20
0.0
 11
1.0
 21
1.0
 12
911.9023596748745604
 22
47.3594050636064665
 13
0.0
 23
0.0
 14
1.0
 24
1.0
 15
0.0
 25
0.0
 16
0.0
 26
0.0
 36
17.1152628219792007
 17
3803.5440673828129547
 27
125.9952621967499056
 37
0.0
 40
0.0413408911392423
 41
2.498684210526315
 42
50.0
 43
0.0
 44
0.0
 50
0.0
 51
0.0
 71
     0
 72
   100
 73
     1
 74
     1
 75
     0
 76
     0
 77
     0
 78
     0
  0
ENDTAB
  0
TABLE
  2
LTYPE
 70
     2
  0
LTYPE
  2
CONTINUOUS
 70
     0
  3
Solid line
 72
    65
 73
     0
 40
0.0
  0
LTYPE
  2
PHANTOM2
 70
     0
  3
___ _ _ ___ _ _ ___ _ _ ___ _ _
 72
    65
 73
     6
 40
1.25
 49
0.625
 49
-0.125
 49
0.125
 49
-0.125
 49
0.125
 49
-0.125
  0
ENDTAB
  0
TABLE
  2
LAYER
 70
     2
  0
LAYER
  2
0
 70
     0
 62
   255
  6
CONTINUOUS
  0
LAYER
  2
DEFPOINTS
 70
     0
 62
     7
  6
CONTINUOUS
  0
ENDTAB
  0
TABLE
  2
STYLE
 70
     1
  0
STYLE
  2
STANDARD
 70
     0
 40
0.0
 41
0.8
 50
0.0
 71
     0
 42
0.2
  3
txt
  4

  0
ENDTAB
  0
TABLE
  2
VIEW
 70
     0
  0
ENDTAB
  0
TABLE
  2
UCS
 70
     0
  0
ENDTAB
  0
TABLE
  2
APPID
 70
     9
  0
APPID
  2
ACAD
 70
     0
  0
APPID
  2
ACAD_MLEADERVER
 70
     0
  0
APPID
  2
ACAD_EXEMPT_FROM_CAD_STANDARDS
 70
     0
  0
APPID
  2
ACAD_NAV_VCDISPLAY
 70
     0
  0
APPID
  2
ACAECLAYERSTANDARD
 70
     0
  0
APPID
  2
ACCMTRANSPARENCY
 70
     0
  0
APPID
  2
ACAD_DSTYLE_DIMJAG
 70
     0
  0
APPID
  2
ACAD_DSTYLE_DIMTALN
 70
     0
  0
APPID
  2
ACDBATTR
 70
     0
  0
ENDTAB
  0
TABLE
  2
DIMSTYLE
 70
     1
  0
DIMSTYLE
  2
STANDARD
 70
     0
  3

  4

  5

  6

  7

 40
1.0
 41
0.1875
 42
0.0625
 43
0.38
 44
0.125
 45
0.0
 46
0.0
 47
0.01
 48
0.01
140
0.15625
141
0.09
142
0.0
143
25.3999999999999986
144
1.0
145
0.0
146
1.0
147
0.09
 71
     1
 72
     0
 73
     1
 74
     1
 75
     0
 76
     0
 77
     0
 78
     4
170
     0
171
     2
172
     0
173
     0
174
     0
175
     0
176
     0
177
     0
178
     0
  0
ENDTAB
  0
ENDSEC
  0
SECTION
  2
BLOCKS
  0
BLOCK
  8
0
  2
$MODEL_SPACE
 70
     0
 10
0.0
 20
0.0
 30
0.0
  3
$MODEL_SPACE
  1

  0
ENDBLK
  5
21
  8
0
  0
BLOCK
 67
     1
  8
0
  2
$PAPER_SPACE
 70
     0
 10
0.0
 20
0.0
 30
0.0
  3
$PAPER_SPACE
  1

  0
ENDBLK
  5
1D
 67
     1
  8
0
  0
BLOCK
  8
0
  2
_FILLED
 70
     0
 10
0.0
 20
0.0
 30
0.0
  3
_FILLED
  1

  0
SOLID
  5
CFCE
  8
0
  6
BYBLOCK
 62
     0
 10
0.0
 20
0.0
 30
0.0
 11
-1.0
 21
0.1666666667
 31
0.0
 12
-1.0
 22
-0.1666666667
 32
0.0
 13
-1.0
 23
-0.1666666667
 33
0.0
  0
ENDBLK
  5
CFCF
  8
0
  6
BYBLOCK
 62
     0
  0
ENDSEC
  0
SECTION
  2
ENTITIES
  0
ATTDEF
  5
3930
  8
DEFPOINTS
 10
4715.4177393294212379
 20
173.358785500497703
 30
0.0
 40
0.001
  1
P26611-00
  3

  2
MODELNUMBER
 70
     0
1001
ACDBATTR
1070
     0
1070
     1
  0
ATTDEF
  5
3931
  8
DEFPOINTS
 10
4715.4177393294212379
 20
173.3571188338310947
 30
0.0
 40
0.001
  1
ONE
  3

  2
TRADENAME
 70
     0
1001
ACDBATTR
1070
     0
1070
     1
  0
ATTDEF
  5
3932
  8
DEFPOINTS
 10
4715.4177393294212379
 20
173.3554521671644011
 30
0.0
 40
0.001
  1
BATHROOM SINK FAUCET
  3

  2
PRODUCT
 70
     0
1001
ACDBATTR
1070
     0
1070
     1
  0
ARC
  5
D3CD
  8
0
 10
4714.3813743853506821
 20
173.6596751414215873
 30
0.0
 40
0.0748031497750829
 50
90.000000057529661
 51
179.9999998658944094
  0
ARC
  5
D3CE
  8
0
 10
4714.3164137552757893
 20
173.3703050628967048
 30
0.0
 40
0.0098425196999998
 50
179.9999999999967031
 51
270.0
  0
LINE
  5
D3CF
  8
0
 10
4714.306571235575575
 20
173.3703050628967048
 30
0.0
 11
4714.306571235575575
 21
173.6596751414215873
 31
0.0
  0
LINE
  5
D3D0
  8
0
 10
4714.3164137552757893
 20
173.3604625431966895
 30
0.0
 11
4716.5337278724764474
 21
173.3604625431966895
 31
0.0
  0
LINE
  5
D3D1
  8
0
 10
4716.4687672424761331
 20
173.7344782911966945
 30
0.0
 11
4714.3813743853506821
 21
173.7344782911966945
 31
0.0
  0
ARC
  5
D3D2
  8
0
 10
4714.720350763175702
 20
173.7443208108967099
 30
0.0
 40
0.0098425196999985
 50
179.9999999999934914
 51
270.0
  0
ARC
  5
D3D3
  8
0
 10
4716.468767242400645
 20
173.6596751414215873
 30
0.0
 40
0.0748031497750829
 50
0.00000013410562
 51
89.9999999424703248
  0
ARC
  5
D3D4
  8
0
 10
4716.5337278724764474
 20
173.3703050628967048
 30
0.0
 40
0.0098425196999998
 50
270.0
 51
0.0000000000032569
  0
LINE
  5
D3D5
  8
0
 10
4716.5435703921748427
 20
173.3703050628967048
 30
0.0
 11
4716.5435703921748427
 21
173.6596751414215873
 31
0.0
  0
ARC
  5
D3D6
  8
0
 10
4716.1297877807910481
 20
173.7443282558126896
 30
0.0
 40
0.0098499650987315
 50
270.0179379192534839
 51
359.9566940286454724
  0
LINE
  5
D3D7
  8
0
 10
4716.139637742976447
 20
178.4804014819966937
 30
0.0
 11
4716.139637743077401
 21
182.2029822281967881
 31
0.0
  0
LINE
  5
D3D8
  8
0
 10
4716.139637742976447
 20
177.6746286943966879
 30
0.0
 11
4716.139637743077401
 21
173.7443208108967099
 31
0.0
  0
ARC
  5
D3D9
  8
0
 10
4722.05194853840203
 20
178.0775150881966908
 30
0.0
 40
5.9260219699243724
 50
176.1016834416342078
 51
183.8983165583657069
  0
ARC
  5
D3DA
  8
0
 10
4717.1269812119762719
 20
178.9045036607967063
 30
0.0
 40
0.0196850394000019
 50
0.0000000000065138
 51
90.0
  0
ARC
  5
D3DB
  8
0
 10
4717.1269812119762719
 20
178.7273383064967049
 30
0.0
 40
0.0196850394000028
 50
270.0
 51
359.9999999999935199
  0
ARC
  5
D3DC
  8
0
 10
4716.6742253064749093
 20
178.4222201961966903
 30
0.0
 40
0.2854330708999986
 50
90.0
 51
159.9999999999558895
  0
ARC
  5
D3DD
  8
0
 10
4716.6742253067359343
 20
178.4222201959244956
 30
0.0
 40
0.5019685042722033
 50
90.0000000297028038
 51
159.9999999761791969
  0
LINE
  5
D3DE
  8
0
 10
4716.2025292074340541
 20
178.5939035357804983
 30
0.0
 11
4716.1352004801592557
 21
178.4089193780125981
 31
0.0
  0
LINE
  5
D3DF
  8
0
 10
4716.4060059560761147
 20
178.5198440559967139
 30
0.0
 11
4716.1338079166507669
 21
177.7719860892541135
 31
0.0
  0
LINE
  5
D3E0
  8
0
 10
4716.6742253064749093
 20
178.9241887000966926
 30
0.0
 11
4717.1269812119762719
 21
178.9241887000966926
 31
0.0
  0
LINE
  5
D3E1
  8
0
 10
4717.146666251375791
 20
178.9045036607967063
 30
0.0
 11
4717.146666251375791
 21
178.7273383064967049
 31
0.0
  0
LINE
  5
D3E2
  8
0
 10
4717.1269812119762719
 20
178.7076532670967026
 30
0.0
 11
4716.6742253064749093
 21
178.7076532670967026
 31
0.0
  0
ARC
  5
D3E3
  8
0
 10
4712.0612999423610745
 20
182.5762105745023121
 30
0.0
 40
0.0236220473943787
 50
90.0000002074507393
 51
185.0001995833719093
  0
LINE
  5
D3E4
  8
0
 10
4712.037767791161059
 20
182.5741516954448116
 30
0.0
 11
4712.0500823283764475
 21
182.4333958909967066
 31
0.0
  0
ARC
  5
D3E5
  8
0
 10
4712.0736144689526554
 20
182.4354546480759041
 30
0.0
 40
0.0236220261792169
 50
184.9999070942027117
 51
270.0000468702139074
  0
LINE
  5
D3E6
  8
0
 10
4712.0736144882748704
 20
182.411832621896707
 30
0.0
 11
4714.6711338060758862
 21
182.411832621896707
 31
0.0
  0
LINE
  5
D3E7
  8
0
 10
4716.1160156927762728
 20
182.5998326218966952
 30
0.0
 11
4712.061299942363803
 21
182.5998326218966952
 31
0.0
  0
LINE
  5
D3E8
  8
0
 10
4716.139637742976447
 20
182.5762105746966881
 30
0.0
 11
4716.139637742976447
 21
182.2947145116966965
 31
0.0
  0
LINE
  5
D3E9
  8
0
 10
4714.7203464044750945
 20
182.2848719919967095
 30
0.0
 11
4716.1297952233762771
 21
182.2848719919967095
 31
0.0
  0
LINE
  5
D3EA
  8
0
 10
4714.7105038847757896
 20
182.3724625431966899
 30
0.0
 11
4714.7105038847757896
 21
182.2947145116966965
 31
0.0
  0
LINE
  5
D3EB
  8
0
 10
4714.7105082434763972
 20
173.7443208108967099
 30
0.0
 11
4714.7105038847757896
 21
179.8053442996967135
 31
0.0
  0
LINE
  5
D3EC
  8
0
 10
4714.7105046007718556
 20
180.9193213222602026
 30
0.0
 11
4714.7105038847757896
 21
182.2029822281967881
 31
0.0
  0
LINE
  5
D3ED
  8
0
 10
4714.7203464057756719
 20
182.2128247478966898
 30
0.0
 11
4716.1297952233762771
 21
182.2128247478966898
 31
0.0
  0
ARC
  5
D3EE
  8
0
 10
4714.7203464044750945
 20
182.2029822281967881
 30
0.0
 40
0.0098425196999995
 50
89.9999924323992815
 51
180.0000000000065086
  0
ARC
  5
D3EF
  8
0
 10
4715.4402440414933153
 20
181.0162621867542896
 30
0.0
 40
1.372992432836827
 50
112.4857979856095938
 51
118.2442712267696976
  0
ARC
  5
D3F0
  8
0
 10
4714.7998354675601149
 20
182.2084525208996979
 30
0.0
 40
0.0196850393999943
 50
118.3078363950686054
 51
168.7836105428166036
  0
ARC
  5
D3F1
  8
0
 10
4716.0123632531785915
 20
182.2390316791565965
 30
0.0
 40
0.0098425197387337
 50
63.7053119459957529
 51
110.852655849393301
  0
ARC
  5
D3F2
  8
0
 10
4716.0123632531758631
 20
182.2390316791968132
 30
0.0
 40
0.0098425197000064
 50
110.8526559133530043
 51
157.9999999985903116
  0
ARC
  5
D3F3
  8
0
 10
4716.0490865618758107
 20
182.2090017051968118
 30
0.0
 40
0.0196850394000014
 50
11.2059961172069897
 51
61.6921636055229712
  0
LINE
  5
D3F4
  8
0
 10
4716.016723372067645
 20
182.2478557688025091
 30
0.0
 11
4716.058421377407285
 21
182.2263326600225071
 31
0.0
  0
LINE
  5
D3F5
  8
0
 10
4716.0032374278216594
 20
182.2427187519724043
 30
0.0
 11
4716.0007349968764174
 21
182.2364616805967898
 31
0.0
  0
ARC
  5
D3F6
  8
0
 10
4715.9983600358536933
 20
182.2809253138701138
 30
0.0
 40
0.0445270156615529
 50
265.4628571810981725
 51
273.0574662071463194
  0
ARC
  5
D3F7
  8
0
 10
4716.0111368428742935
 20
182.4183903391642048
 30
0.0
 40
0.1825814756799839
 50
258.7918778256502037
 51
264.878361521502427
  0
ARC
  5
D3F8
  8
0
 10
4716.0671075637974354
 20
182.6986202019616883
 30
0.0
 40
0.4683461064121298
 50
254.5093097438036125
 51
258.7387847891798742
  0
ARC
  5
D3F9
  8
0
 10
4716.2514596229575545
 20
183.353835474219494
 30
0.0
 40
1.1490000951410591
 50
248.4882486662262977
 51
254.3767071046150079
  0
ARC
  5
D3FA
  8
0
 10
4714.6711338060758862
 20
182.3724625431966899
 30
0.0
 40
0.0393700786999984
 50
0.0
 51
90.0
  0
ARC
  5
D3FB
  8
0
 10
4714.7203464044750945
 20
182.2947145116966965
 30
0.0
 40
0.0098425196999994
 50
179.9999999999934914
 51
270.0
  0
ARC
  5
D3FC
  8
0
 10
4716.1160156957748768
 20
182.5762105746966881
 30
0.0
 40
0.0236220472000019
 50
0.0000000000032569
 51
90.0000072765652135
  0
ARC
  5
D3FD
  8
0
 10
4716.1297952234717741
 20
182.2947145114997909
 30
0.0
 40
0.0098425195030689
 50
269.9999994357506807
 51
0.0000011463854912
  0
ARC
  5
D3FE
  8
0
 10
4716.1297952234472177
 20
182.2029822283674036
 30
0.0
 40
0.0098425195292871
 50
359.9999990062356119
 51
90.0000004116185437
  0
ARC
  5
D3FF
  8
0
 10
4714.5525845575493804
 20
180.9199580657140984
 30
0.0
 40
0.1579213269126801
 50
270.1589237723393921
 51
359.7689810990034971
  0
ARC
  5
D400
  8
0
 10
4714.553025130898277
 20
179.8053459940194045
 30
0.0
 40
0.1574787538869347
 50
359.9993835515251135
 51
90.0006326388201217
  0
ARC
  5
D401
  8
0
 10
4709.2931810501140717
 20
178.6321160864966942
 30
0.0
 40
0.0196850394000006
 50
180.0
 51
270.0
  0
ARC
  5
D402
  8
0
 10
4710.0530235698915931
 20
178.6321160864966942
 30
0.0
 40
0.0196850393999997
 50
270.0
 51
0.0000000000032569
  0
LINE
  5
D403
  8
0
 10
4709.2734960108136875
 20
179.1124373466402915
 30
0.0
 11
4709.2734960107127336
 21
178.6321160865007869
 31
0.0
  0
LINE
  5
D404
  8
0
 10
4709.2931810508125636
 20
178.6124310470966918
 30
0.0
 11
4710.0530235698915931
 21
178.6124310470966918
 31
0.0
  0
LINE
  5
D405
  8
0
 10
4710.0727086092911122
 20
178.6321160864966942
 30
0.0
 11
4710.0727086092128957
 21
179.1124247477594906
 31
0.0
  0
LINE
  5
D406
  8
0
 10
4710.9230960108143336
 20
180.7620373462966938
 30
0.0
 11
4714.5530225901757149
 21
180.7620373462966938
 31
0.0
  0
ARC
  5
D407
  8
0
 10
4710.9230960108143336
 20
179.1124373462967014
 30
0.0
 40
1.6495999999999991
 50
90.0
 51
179.9999999880650989
  0
LINE
  5
D408
  8
0
 10
4714.5530233920771934
 20
179.9628247478966898
 30
0.0
 11
4710.9231086092131591
 21
179.9628247478966898
 31
0.0
  0
ARC
  5
D409
  8
0
 10
4710.9231086092131591
 20
179.1124247478967106
 30
0.0
 40
0.8504
 50
90.0
 51
180.0000000092445873
  0
ARC
  5
D40A
  8
0
 10
4713.6629593394918629
 20
180.306299734079488
 30
0.0
 40
1.2136609014975981
 50
2.6508516322760669
 51
30.3303771566679004
  0
ARC
  5
D40B
  8
0
 10
4713.6808793480213353
 20
180.4155109899741092
 30
0.0
 40
1.1956210040457109
 50
329.4457373575461929
 51
357.4555008572233987
  0
ENDSEC
  0
EOF
