  0
SECTION
  2
HEADER
  9
$ACADVER
  1
AC1009
  9
$INSBASE
 10
4731.2893245759441925
 20
162.0946355652536965
 30
0.0
  9
$EXTMIN
 10
4716.6909289484592591
 20
151.6609405020788017
 30
0.0
  9
$EXTMAX
 10
4738.9586746946906715
 20
168.1784938329537056
 30
0.0
  9
$LIMMIN
 10
0.0
 20
0.0
  9
$LIMMAX
 10
11.6929133858000007
 20
8.2677165353999982
  9
$ORTHOMODE
 70
     0
  9
$REGENMODE
 70
     1
  9
$FILLMODE
 70
     1
  9
$QTEXTMODE
 70
     0
  9
$MIRRTEXT
 70
     0
  9
$DRAGMODE
 70
     2
  9
$LTSCALE
 40
0.6431102362
  9
$OSMODE
 70
  4095
  9
$ATTMODE
 70
     1
  9
$TEXTSIZE
 40
0.2
  9
$TRACEWID
 40
0.05
  9
$TEXTSTYLE
  7
STANDARD
  9
$CLAYER
  8
0
  9
$CELTYPE
  6
BYLAYER
  9
$CECOLOR
 62
   256
  9
$DIMSCALE
 40
1.0
  9
$DIMASZ
 40
0.1875
  9
$DIMEXO
 40
0.0625
  9
$DIMDLI
 40
0.4443307087
  9
$DIMRND
 40
0.0
  9
$DIMDLE
 40
0.0
  9
$DIMEXE
 40
0.125
  9
$DIMTP
 40
0.01
  9
$DIMTM
 40
0.01
  9
$DIMTXT
 40
2.0
  9
$DIMCEN
 40
0.1052362205
  9
$DIMTSZ
 40
0.0
  9
$DIMTOL
 70
     1
  9
$DIMLIM
 70
     0
  9
$DIMTIH
 70
     1
  9
$DIMTOH
 70
     1
  9
$DIMSE1
 70
     0
  9
$DIMSE2
 70
     0
  9
$DIMTAD
 70
     0
  9
$DIMZIN
 70
     0
  9
$DIMBLK
  1

  9
$DIMASO
 70
     1
  9
$DIMSHO
 70
     1
  9
$DIMPOST
  1
\X
  9
$DIMAPOST
  1

  9
$DIMALT
 70
     1
  9
$DIMALTD
 70
     2
  9
$DIMALTF
 40
25.3999999999999986
  9
$DIMLFAC
 40
1.0
  9
$DIMTOFL
 70
     0
  9
$DIMTVP
 40
0.0
  9
$DIMTIX
 70
     0
  9
$DIMSOXD
 70
     0
  9
$DIMSAH
 70
     0
  9
$DIMBLK1
  1

  9
$DIMBLK2
  1

  9
$DIMSTYLE
  2
STANDARD
  9
$DIMCLRD
 70
     0
  9
$DIMCLRE
 70
     0
  9
$DIMCLRT
 70
     0
  9
$DIMTFAC
 40
1.0
  9
$DIMGAP
 40
0.09
  9
$LUNITS
 70
     2
  9
$LUPREC
 70
     4
  9
$SKETCHINC
 40
0.1
  9
$FILLETRAD
 40
0.0
  9
$AUNITS
 70
     0
  9
$AUPREC
 70
     0
  9
$MENU
  1
.
  9
$ELEVATION
 40
0.0
  9
$PELEVATION
 40
0.0
  9
$THICKNESS
 40
0.0
  9
$LIMCHECK
 70
     0
  9
$BLIPMODE
 70
     0
  9
$CHAMFERA
 40
0.0
  9
$CHAMFERB
 40
0.0
  9
$SKPOLY
 70
     0
  9
$TDCREATE
 40
2458060.468368056230247
  9
$TDUPDATE
 40
2459894.4657754627987742
  9
$TDINDWG
 40
0.509659838
  9
$TDUSRTIMER
 40
0.509659838
  9
$USRTIMER
 70
     1
  9
$ANGBASE
 50
0.0
  9
$ANGDIR
 70
     0
  9
$PDMODE
 70
     0
  9
$PDSIZE
 40
0.3125
  9
$PLINEWID
 40
0.0
  9
$COORDS
 70
     1
  9
$SPLFRAME
 70
     0
  9
$SPLINETYPE
 70
     6
  9
$SPLINESEGS
 70
     8
  9
$ATTDIA
 70
     1
  9
$ATTREQ
 70
     1
  9
$HANDLING
 70
     1
  9
$HANDSEED
  5
D388
  9
$SURFTAB1
 70
     6
  9
$SURFTAB2
 70
     6
  9
$SURFTYPE
 70
     6
  9
$SURFU
 70
     6
  9
$SURFV
 70
     6
  9
$UCSNAME
  2

  9
$UCSORG
 10
0.0
 20
0.0
 30
0.0
  9
$UCSXDIR
 10
1.0
 20
0.0
 30
0.0
  9
$UCSYDIR
 10
0.0
 20
1.0
 30
0.0
  9
$PUCSNAME
  2

  9
$PUCSORG
 10
0.0
 20
0.0
 30
0.0
  9
$PUCSXDIR
 10
1.0
 20
0.0
 30
0.0
  9
$PUCSYDIR
 10
0.0
 20
1.0
 30
0.0
  9
$USERI1
 70
     0
  9
$USERI2
 70
     0
  9
$USERI3
 70
     0
  9
$USERI4
 70
     0
  9
$USERI5
 70
     0
  9
$USERR1
 40
0.0
  9
$USERR2
 40
0.0
  9
$USERR3
 40
0.0
  9
$USERR4
 40
0.0
  9
$USERR5
 40
0.0
  9
$WORLDVIEW
 70
     1
  9
$SHADEDGE
 70
     3
  9
$SHADEDIF
 70
    70
  9
$TILEMODE
 70
     1
  9
$MAXACTVP
 70
    64
  9
$PLIMCHECK
 70
     0
  9
$PEXTMIN
 10
1.0000000000000000E+20
 20
1.0000000000000000E+20
 30
1.0000000000000000E+20
  9
$PEXTMAX
 10
-1.0000000000000000E+20
 20
-1.0000000000000000E+20
 30
-1.0000000000000000E+20
  9
$PLIMMIN
 10
0.0
 20
0.0
  9
$PLIMMAX
 10
12.0
 20
9.0
  9
$UNITMODE
 70
     0
  9
$VISRETAIN
 70
     1
  9
$PLINEGEN
 70
     0
  9
$PSLTSCALE
 70
     1
  0
ENDSEC
  0
SECTION
  2
TABLES
  0
TABLE
  2
VPORT
 70
     1
  0
VPORT
  2
*ACTIVE
 70
     0
 10
0.0
 20
0.0
 11
1.0
 21
1.0
 12
927.7479925273083836
 22
36.0988753720899211
 13
0.0
 23
0.0
 14
1.0
 24
1.0
 15
0.0
 25
0.0
 16
0.0
 26
0.0
 36
17.1152628219792007
 17
3803.5440673828129547
 27
125.9952621967499056
 37
0.0
 40
0.0094880349668571
 41
2.498684210526315
 42
50.0
 43
0.0
 44
0.0
 50
0.0
 51
0.0
 71
     0
 72
   100
 73
     1
 74
     1
 75
     0
 76
     0
 77
     0
 78
     0
  0
ENDTAB
  0
TABLE
  2
LTYPE
 70
     2
  0
LTYPE
  2
CONTINUOUS
 70
     0
  3
Solid line
 72
    65
 73
     0
 40
0.0
  0
LTYPE
  2
PHANTOM2
 70
     0
  3
___ _ _ ___ _ _ ___ _ _ ___ _ _
 72
    65
 73
     6
 40
1.25
 49
0.625
 49
-0.125
 49
0.125
 49
-0.125
 49
0.125
 49
-0.125
  0
ENDTAB
  0
TABLE
  2
LAYER
 70
     2
  0
LAYER
  2
0
 70
     0
 62
   255
  6
CONTINUOUS
  0
LAYER
  2
DEFPOINTS
 70
     0
 62
     7
  6
CONTINUOUS
  0
ENDTAB
  0
TABLE
  2
STYLE
 70
     1
  0
STYLE
  2
STANDARD
 70
     0
 40
0.0
 41
0.8
 50
0.0
 71
     0
 42
0.2
  3
txt
  4

  0
ENDTAB
  0
TABLE
  2
VIEW
 70
     0
  0
ENDTAB
  0
TABLE
  2
UCS
 70
     0
  0
ENDTAB
  0
TABLE
  2
APPID
 70
     9
  0
APPID
  2
ACAD
 70
     0
  0
APPID
  2
ACAD_MLEADERVER
 70
     0
  0
APPID
  2
ACAD_EXEMPT_FROM_CAD_STANDARDS
 70
     0
  0
APPID
  2
ACAD_NAV_VCDISPLAY
 70
     0
  0
APPID
  2
ACAECLAYERSTANDARD
 70
     0
  0
APPID
  2
ACCMTRANSPARENCY
 70
     0
  0
APPID
  2
ACAD_DSTYLE_DIMJAG
 70
     0
  0
APPID
  2
ACAD_DSTYLE_DIMTALN
 70
     0
  0
APPID
  2
ACDBATTR
 70
     0
  0
ENDTAB
  0
TABLE
  2
DIMSTYLE
 70
     1
  0
DIMSTYLE
  2
STANDARD
 70
     0
  3

  4

  5

  6

  7

 40
1.0
 41
0.1875
 42
0.0625
 43
0.38
 44
0.125
 45
0.0
 46
0.0
 47
0.01
 48
0.01
140
0.15625
141
0.09
142
0.0
143
25.3999999999999986
144
1.0
145
0.0
146
1.0
147
0.09
 71
     1
 72
     0
 73
     1
 74
     1
 75
     0
 76
     0
 77
     0
 78
     4
170
     0
171
     2
172
     0
173
     0
174
     0
175
     0
176
     0
177
     0
178
     0
  0
ENDTAB
  0
ENDSEC
  0
SECTION
  2
BLOCKS
  0
BLOCK
  8
0
  2
$MODEL_SPACE
 70
     0
 10
0.0
 20
0.0
 30
0.0
  3
$MODEL_SPACE
  1

  0
ENDBLK
  5
21
  8
0
  0
BLOCK
 67
     1
  8
0
  2
$PAPER_SPACE
 70
     0
 10
0.0
 20
0.0
 30
0.0
  3
$PAPER_SPACE
  1

  0
ENDBLK
  5
1D
 67
     1
  8
0
  0
BLOCK
  8
0
  2
_FILLED
 70
     0
 10
0.0
 20
0.0
 30
0.0
  3
_FILLED
  1

  0
SOLID
  5
CFCE
  8
0
  6
BYBLOCK
 62
     0
 10
0.0
 20
0.0
 30
0.0
 11
-1.0
 21
0.1666666667
 31
0.0
 12
-1.0
 22
-0.1666666667
 32
0.0
 13
-1.0
 23
-0.1666666667
 33
0.0
  0
ENDBLK
  5
CFCF
  8
0
  6
BYBLOCK
 62
     0
  0
ENDSEC
  0
SECTION
  2
ENTITIES
  0
ATTDEF
  5
3930
  8
DEFPOINTS
 10
4731.2821943434310015
 20
162.092574390311313
 30
0.0
 40
0.001
  1
P26610-00
  3

  2
MODELNUMBER
 70
     0
1001
ACDBATTR
1070
     0
1070
     1
  0
ATTDEF
  5
3931
  8
DEFPOINTS
 10
4731.2821943434310015
 20
162.090907723644591
 30
0.0
 40
0.001
  1
ONE
  3

  2
TRADENAME
 70
     0
1001
ACDBATTR
1070
     0
1070
     1
  0
ATTDEF
  5
3932
  8
DEFPOINTS
 10
4731.2821943434310015
 20
162.0892410569780111
 30
0.0
 40
0.001
  1
BATHROOM SINK FAUCET
  3

  2
PRODUCT
 70
     0
1001
ACDBATTR
1070
     0
1070
     1
  0
ARC
  5
D242
  8
0
 10
4730.2456281474196658
 20
162.3938481634785944
 30
0.0
 40
0.0748031497750829
 50
90.000000057529661
 51
179.9999998658944094
  0
ARC
  5
D243
  8
0
 10
4730.1806675173438634
 20
162.1044780849537119
 30
0.0
 40
0.0098425196999998
 50
179.9999999999967031
 51
270.0
  0
LINE
  5
D244
  8
0
 10
4730.1708249976445586
 20
162.1044780849537119
 30
0.0
 11
4730.1708249976445586
 21
162.3938481634785944
 31
0.0
  0
LINE
  5
D245
  8
0
 10
4730.1806675173438634
 20
162.0946355652536965
 30
0.0
 11
4732.397981634543612
 21
162.0946355652536965
 31
0.0
  0
LINE
  5
D246
  8
0
 10
4732.3330210045442072
 20
162.4686513132537016
 30
0.0
 11
4730.2456281474196658
 21
162.4686513132537016
 31
0.0
  0
ARC
  5
D247
  8
0
 10
4730.5846045252437762
 20
162.4784938329536885
 30
0.0
 40
0.0098425196999985
 50
179.9999999999934914
 51
270.0
  0
ARC
  5
D248
  8
0
 10
4732.3330210044678097
 20
162.3938481634785944
 30
0.0
 40
0.0748031497750829
 50
0.00000013410562
 51
89.9999999424703248
  0
ARC
  5
D249
  8
0
 10
4732.397981634543612
 20
162.1044780849537119
 30
0.0
 40
0.0098425196999998
 50
270.0
 51
0.0000000000032569
  0
LINE
  5
D24A
  8
0
 10
4732.4078241542429168
 20
162.1044780849537119
 30
0.0
 11
4732.4078241542429168
 21
162.3938481634785944
 31
0.0
  0
ARC
  5
D24B
  8
0
 10
4731.9940415428591223
 20
162.4785012778696967
 30
0.0
 40
0.0098499650987315
 50
270.0179379192534839
 51
359.9566940286454724
  0
LINE
  5
D24C
  8
0
 10
4732.0038915050436117
 20
164.4271729291536985
 30
0.0
 11
4732.0038915051436561
 21
167.7816434392537985
 31
0.0
  0
LINE
  5
D24D
  8
0
 10
4732.0038915050436117
 20
163.6214001415536927
 30
0.0
 11
4732.0038915051436561
 21
162.4784938329536885
 31
0.0
  0
ARC
  5
D24E
  8
0
 10
4737.9162023004701041
 20
164.0242865353536956
 30
0.0
 40
5.9260219699243724
 50
176.1016834416342078
 51
183.8983165583657069
  0
ARC
  5
D24F
  8
0
 10
4732.991234974044346
 20
164.8512751079537111
 30
0.0
 40
0.0196850394000019
 50
0.0000000000065138
 51
90.0
  0
ARC
  5
D250
  8
0
 10
4732.991234974044346
 20
164.6741097536537097
 30
0.0
 40
0.0196850394000028
 50
270.0
 51
359.9999999999935199
  0
ARC
  5
D251
  8
0
 10
4732.5384790685429834
 20
164.3689916433536951
 30
0.0
 40
0.2854330708999986
 50
90.0
 51
159.9999999999558895
  0
ARC
  5
D252
  8
0
 10
4732.5384790688040084
 20
164.3689916430815003
 30
0.0
 40
0.5019685042722033
 50
90.0000000297028038
 51
159.9999999761791969
  0
LINE
  5
D253
  8
0
 10
4732.0667829695021283
 20
164.540674982937503
 30
0.0
 11
4731.9994542422282393
 21
164.3556908251696029
 31
0.0
  0
LINE
  5
D254
  8
0
 10
4732.2702597181441888
 20
164.4666155031536903
 30
0.0
 11
4731.9980616787179315
 21
163.7187575364110899
 31
0.0
  0
LINE
  5
D255
  8
0
 10
4732.5384790685429834
 20
164.8709601472536974
 30
0.0
 11
4732.991234974044346
 21
164.8709601472536974
 31
0.0
  0
LINE
  5
D256
  8
0
 10
4733.0109200134438652
 20
164.8512751079537111
 30
0.0
 11
4733.0109200134438652
 21
164.6741097536537097
 31
0.0
  0
LINE
  5
D257
  8
0
 10
4732.991234974044346
 20
164.6544247142537074
 30
0.0
 11
4732.5384790685429834
 21
164.6544247142537074
 31
0.0
  0
ARC
  5
D258
  8
0
 10
4727.9255537044291486
 20
168.154871785559294
 30
0.0
 40
0.0236220473943787
 50
90.0000002074507393
 51
185.0001995833719093
  0
LINE
  5
D259
  8
0
 10
4727.9020215532291331
 20
168.1528129065019073
 30
0.0
 11
4727.9143360904454312
 21
168.0120571020536886
 31
0.0
  0
ARC
  5
D25A
  8
0
 10
4727.9378682310207296
 20
168.014115859132886
 30
0.0
 40
0.0236220261792169
 50
184.9999070942027117
 51
270.0000468702139074
  0
LINE
  5
D25B
  8
0
 10
4727.937868250343854
 20
167.990493832953689
 30
0.0
 11
4730.5353875681439604
 21
167.990493832953689
 31
0.0
  0
LINE
  5
D25C
  8
0
 10
4731.9802694548443469
 20
168.1784938329537056
 30
0.0
 11
4727.9255537044318771
 21
168.1784938329537056
 31
0.0
  0
LINE
  5
D25D
  8
0
 10
4732.0038915050436117
 20
168.1548717857536985
 30
0.0
 11
4732.0038915050436117
 21
167.8733757227537069
 31
0.0
  0
LINE
  5
D25E
  8
0
 10
4730.5846001665440781
 20
167.8635332030536915
 30
0.0
 11
4731.9940489854443513
 21
167.8635332030536915
 31
0.0
  0
LINE
  5
D25F
  8
0
 10
4730.5747576468438638
 20
167.9511237542537003
 30
0.0
 11
4730.5747576468438638
 21
167.8733757227537069
 31
0.0
  0
LINE
  5
D260
  8
0
 10
4730.5747620055435618
 20
162.4784938329536885
 30
0.0
 11
4730.5747576468438638
 21
165.3840055107536955
 31
0.0
  0
LINE
  5
D261
  8
0
 10
4730.5747583628399298
 20
166.497982533317213
 30
0.0
 11
4730.5747576468438638
 21
167.7816434392537985
 31
0.0
  0
LINE
  5
D262
  8
0
 10
4730.584600167843746
 20
167.7914859589538139
 30
0.0
 11
4731.9940489854443513
 21
167.7914859589538139
 31
0.0
  0
ARC
  5
D263
  8
0
 10
4730.5846001665440781
 20
167.7816434392537985
 30
0.0
 40
0.0098425196999995
 50
89.9999924323992815
 51
180.0000000000065086
  0
ARC
  5
D264
  8
0
 10
4731.3044978035595705
 20
166.5949233978113
 30
0.0
 40
1.372992432836827
 50
112.4857979856095938
 51
118.2442712267696976
  0
ARC
  5
D265
  8
0
 10
4730.6640892296281891
 20
167.7871137319567083
 30
0.0
 40
0.0196850393999943
 50
118.3078363950686054
 51
168.7836105428166036
  0
ARC
  5
D266
  8
0
 10
4731.8766170152475752
 20
167.8176928902136069
 30
0.0
 40
0.0098425197387337
 50
63.7053119459957529
 51
110.852655849393301
  0
ARC
  5
D267
  8
0
 10
4731.8766170152439372
 20
167.8176928902537952
 30
0.0
 40
0.0098425197000064
 50
110.8526559133530043
 51
157.9999999985903116
  0
ARC
  5
D268
  8
0
 10
4731.9133403239438849
 20
167.7876629162537938
 30
0.0
 40
0.0196850394000014
 50
11.2059961172069897
 51
61.6921636055229712
  0
LINE
  5
D269
  8
0
 10
4731.8809771341357191
 20
167.8265169798594911
 30
0.0
 11
4731.9226751394744497
 21
167.8049938710794891
 31
0.0
  0
LINE
  5
D26A
  8
0
 10
4731.8674911898897335
 20
167.8213799630295
 30
0.0
 11
4731.8649887589435821
 21
167.8151228916538003
 31
0.0
  0
ARC
  5
D26B
  8
0
 10
4731.8626137979226769
 20
167.8595865249272094
 30
0.0
 40
0.0445270156615529
 50
265.4628571810981725
 51
273.0574662071463194
  0
ARC
  5
D26C
  8
0
 10
4731.8753906049423676
 20
167.9970515502211867
 30
0.0
 40
0.1825814756799839
 50
258.7918778256502037
 51
264.878361521502427
  0
ARC
  5
D26D
  8
0
 10
4731.9313613258646001
 20
168.2772814130186987
 30
0.0
 40
0.4683461064121298
 50
254.5093097438036125
 51
258.7387847891798742
  0
ARC
  5
D26E
  8
0
 10
4732.1157133850256287
 20
168.9324966852765897
 30
0.0
 40
1.1490000951410591
 50
248.4882486662262977
 51
254.3767071046150079
  0
ARC
  5
D26F
  8
0
 10
4730.5353875681439604
 20
167.9511237542537003
 30
0.0
 40
0.0393700786999984
 50
0.0
 51
90.0
  0
ARC
  5
D270
  8
0
 10
4730.5846001665440781
 20
167.8733757227537069
 30
0.0
 40
0.0098425196999994
 50
179.9999999999934914
 51
270.0
  0
ARC
  5
D271
  8
0
 10
4731.9802694578438604
 20
168.1548717857536985
 30
0.0
 40
0.0236220472000019
 50
0.0000000000032569
 51
90.0000072765652135
  0
ARC
  5
D272
  8
0
 10
4731.9940489855398482
 20
167.8733757225568013
 30
0.0
 40
0.0098425195030689
 50
269.9999994357506807
 51
0.0000011463854912
  0
ARC
  5
D273
  8
0
 10
4731.9940489855152919
 20
167.7816434394244993
 30
0.0
 40
0.0098425195292871
 50
359.9999990062356119
 51
90.0000004116185437
  0
ARC
  5
D274
  8
0
 10
4730.416838319618364
 20
166.4986192767709952
 30
0.0
 40
0.1579213269126801
 50
270.1589237723393921
 51
359.7689810990034971
  0
ARC
  5
D275
  8
0
 10
4730.4172788929663511
 20
165.3840072050763865
 30
0.0
 40
0.1574787538869347
 50
359.9993835515251135
 51
90.0006326388201217
  0
ARC
  5
D276
  8
0
 10
4725.9094068717986374
 20
164.2107772975537046
 30
0.0
 40
0.0196850394000006
 50
180.0
 51
270.0
  0
ARC
  5
D277
  8
0
 10
4726.6692493915761588
 20
164.2107772975537046
 30
0.0
 40
0.0196850393999997
 50
270.0
 51
0.0000000000032569
  0
LINE
  5
D278
  8
0
 10
4725.8897218324918867
 20
164.6659985577024941
 30
0.0
 11
4725.8897218323972993
 21
164.2107772975577973
 31
0.0
  0
LINE
  5
D279
  8
0
 10
4725.9094068724980389
 20
164.1910922581537022
 30
0.0
 11
4726.6692493915761588
 21
164.1910922581537022
 31
0.0
  0
LINE
  5
D27A
  8
0
 10
4726.688934430973859
 20
164.2107772975537046
 30
0.0
 11
4726.6889344309038279
 21
164.6505859588100122
 31
0.0
  0
LINE
  5
D27B
  8
0
 10
4727.5644218324932808
 20
166.3406985573537042
 30
0.0
 11
4730.417276352243789
 21
166.3406985573537042
 31
0.0
  0
ARC
  5
D27C
  8
0
 10
4727.5644218324932808
 20
164.6659985573537028
 30
0.0
 40
1.6747000000000001
 50
90.0
 51
179.9999999880650989
  0
LINE
  5
D27D
  8
0
 10
4730.4172771541452676
 20
165.5414859589537002
 30
0.0
 11
4727.5798344309041568
 21
165.5414859589537002
 31
0.0
  0
ARC
  5
D27E
  8
0
 10
4727.5798344309041568
 20
164.6505859589537124
 30
0.0
 40
0.8909
 50
90.0
 51
180.0000000092445873
  0
ARC
  5
D27F
  8
0
 10
4729.5272131015590276
 20
165.8849609451364984
 30
0.0
 40
1.2136609014975981
 50
2.6508516322760669
 51
30.3303771566679004
  0
ARC
  5
D280
  8
0
 10
4729.5451331100875905
 20
165.9941722010310912
 30
0.0
 40
1.1956210040457109
 50
329.4457373575461929
 51
357.4555008572233987
  0
ENDSEC
  0
EOF
