  0
SECTION
  2
HEADER
  9
$ACADVER
  1
AC1009
  9
$INSBASE
 10
362.4749270622305062
 20
29.8661841669746906
 30
0.0
  9
$EXTMIN
 10
356.1025873955451857
 20
-7.9265244867205382
 30
-0.0000000349181948
  9
$EXTMAX
 10
364.1026450800346197
 20
38.4425160656054175
 30
0.0000000814935746
  9
$LIMMIN
 10
0.0
 20
0.0
  9
$LIMMAX
 10
22.0
 20
17.0
  9
$ORTHOMODE
 70
     0
  9
$REGENMODE
 70
     1
  9
$FILLMODE
 70
     1
  9
$QTEXTMODE
 70
     0
  9
$MIRRTEXT
 70
     0
  9
$DRAGMODE
 70
     2
  9
$LTSCALE
 40
1.2099999999999991
  9
$OSMODE
 70
     7
  9
$ATTMODE
 70
     1
  9
$TEXTSIZE
 40
0.2
  9
$TRACEWID
 40
0.05
  9
$TEXTSTYLE
  7
STANDARD
  9
$CLAYER
  8
0
  9
$CELTYPE
  6
BYLAYER
  9
$CECOLOR
 62
   256
  9
$DIMSCALE
 40
1.0
  9
$DIMASZ
 40
0.1875
  9
$DIMEXO
 40
0.0625
  9
$DIMDLI
 40
0.38
  9
$DIMRND
 40
0.0
  9
$DIMDLE
 40
0.0
  9
$DIMEXE
 40
0.125
  9
$DIMTP
 40
1.5
  9
$DIMTM
 40
1.5
  9
$DIMTXT
 40
1.5
  9
$DIMCEN
 40
0.09
  9
$DIMTSZ
 40
0.0
  9
$DIMTOL
 70
     0
  9
$DIMLIM
 70
     0
  9
$DIMTIH
 70
     1
  9
$DIMTOH
 70
     1
  9
$DIMSE1
 70
     0
  9
$DIMSE2
 70
     0
  9
$DIMTAD
 70
     0
  9
$DIMZIN
 70
     4
  9
$DIMBLK
  1

  9
$DIMASO
 70
     1
  9
$DIMSHO
 70
     1
  9
$DIMPOST
  1

  9
$DIMAPOST
  1

  9
$DIMALT
 70
     0
  9
$DIMALTD
 70
     2
  9
$DIMALTF
 40
25.3999999999999986
  9
$DIMLFAC
 40
1.0
  9
$DIMTOFL
 70
     0
  9
$DIMTVP
 40
0.0
  9
$DIMTIX
 70
     0
  9
$DIMSOXD
 70
     0
  9
$DIMSAH
 70
     0
  9
$DIMBLK1
  1

  9
$DIMBLK2
  1

  9
$DIMSTYLE
  2
STANDARD
  9
$DIMCLRD
 70
     0
  9
$DIMCLRE
 70
     0
  9
$DIMCLRT
 70
     0
  9
$DIMTFAC
 40
1.0
  9
$DIMGAP
 40
0.09
  9
$LUNITS
 70
     2
  9
$LUPREC
 70
     4
  9
$SKETCHINC
 40
0.1
  9
$FILLETRAD
 40
0.0
  9
$AUNITS
 70
     0
  9
$AUPREC
 70
     0
  9
$MENU
  1
.
  9
$ELEVATION
 40
0.0
  9
$PELEVATION
 40
0.0
  9
$THICKNESS
 40
0.0
  9
$LIMCHECK
 70
     0
  9
$BLIPMODE
 70
     0
  9
$CHAMFERA
 40
0.0
  9
$CHAMFERB
 40
0.0
  9
$SKPOLY
 70
     0
  9
$TDCREATE
 40
2457827.4934837957844138
  9
$TDUPDATE
 40
2459485.4651967599056661
  9
$TDINDWG
 40
0.4150251157
  9
$TDUSRTIMER
 40
0.4150251157
  9
$USRTIMER
 70
     1
  9
$ANGBASE
 50
0.0
  9
$ANGDIR
 70
     0
  9
$PDMODE
 70
     0
  9
$PDSIZE
 40
0.3125
  9
$PLINEWID
 40
0.0
  9
$COORDS
 70
     1
  9
$SPLFRAME
 70
     0
  9
$SPLINETYPE
 70
     6
  9
$SPLINESEGS
 70
     8
  9
$ATTDIA
 70
     1
  9
$ATTREQ
 70
     1
  9
$HANDLING
 70
     1
  9
$HANDSEED
  5
6E7C
  9
$SURFTAB1
 70
     6
  9
$SURFTAB2
 70
     6
  9
$SURFTYPE
 70
     6
  9
$SURFU
 70
     6
  9
$SURFV
 70
     6
  9
$UCSNAME
  2

  9
$UCSORG
 10
0.0
 20
0.0
 30
0.0
  9
$UCSXDIR
 10
1.0
 20
0.0
 30
0.0
  9
$UCSYDIR
 10
0.0
 20
1.0
 30
0.0
  9
$PUCSNAME
  2

  9
$PUCSORG
 10
0.0
 20
0.0
 30
0.0
  9
$PUCSXDIR
 10
1.0
 20
0.0
 30
0.0
  9
$PUCSYDIR
 10
0.0
 20
1.0
 30
0.0
  9
$USERI1
 70
     0
  9
$USERI2
 70
     0
  9
$USERI3
 70
     0
  9
$USERI4
 70
     0
  9
$USERI5
 70
     0
  9
$USERR1
 40
0.0
  9
$USERR2
 40
0.0
  9
$USERR3
 40
0.0
  9
$USERR4
 40
0.0
  9
$USERR5
 40
0.0
  9
$WORLDVIEW
 70
     1
  9
$SHADEDGE
 70
     3
  9
$SHADEDIF
 70
    70
  9
$TILEMODE
 70
     1
  9
$MAXACTVP
 70
    48
  9
$PLIMCHECK
 70
     0
  9
$PEXTMIN
 10
1.0000000000000000E+20
 20
1.0000000000000000E+20
 30
1.0000000000000000E+20
  9
$PEXTMAX
 10
-1.0000000000000000E+20
 20
-1.0000000000000000E+20
 30
-1.0000000000000000E+20
  9
$PLIMMIN
 10
0.0
 20
0.0
  9
$PLIMMAX
 10
12.0
 20
9.0
  9
$UNITMODE
 70
     0
  9
$VISRETAIN
 70
     1
  9
$PLINEGEN
 70
     0
  9
$PSLTSCALE
 70
     1
  0
ENDSEC
  0
SECTION
  2
TABLES
  0
TABLE
  2
VPORT
 70
     1
  0
VPORT
  2
*ACTIVE
 70
     0
 10
0.0
 20
0.0
 11
1.0
 21
1.0
 12
149.1236886254851868
 22
8.055546603881881
 13
0.0
 23
0.0
 14
1.0
 24
1.0
 15
0.0
 25
0.0
 16
-0.0000000000000284
 26
0.0
 36
157.2215818301446859
 17
210.9789276123046875
 27
7.2024491855605604
 37
0.0
 40
46.6906755156946929
 41
2.2118055555555549
 42
50.0
 43
0.0
 44
0.0
 50
0.0
 51
0.0
 71
     0
 72
   100
 73
     1
 74
     1
 75
     0
 76
     0
 77
     0
 78
     0
  0
ENDTAB
  0
TABLE
  2
LTYPE
 70
     2
  0
LTYPE
  2
CONTINUOUS
 70
     0
  3
Solid line
 72
    65
 73
     0
 40
0.0
  0
LTYPE
  2
PHANTOM2
 70
     0
  3
___ _ _ ___ _ _ ___ _ _ ___ _ _
 72
    65
 73
     6
 40
1.25
 49
0.625
 49
-0.125
 49
0.125
 49
-0.125
 49
0.125
 49
-0.125
  0
ENDTAB
  0
TABLE
  2
LAYER
 70
     2
  0
LAYER
  2
0
 70
     0
 62
     7
  6
CONTINUOUS
  0
LAYER
  2
DEFPOINTS
 70
     0
 62
     7
  6
CONTINUOUS
  0
ENDTAB
  0
TABLE
  2
STYLE
 70
     1
  0
STYLE
  2
STANDARD
 70
     0
 40
0.0
 41
0.8
 50
0.0
 71
     0
 42
0.2
  3
txt
  4

  0
ENDTAB
  0
TABLE
  2
VIEW
 70
     0
  0
ENDTAB
  0
TABLE
  2
UCS
 70
     0
  0
ENDTAB
  0
TABLE
  2
APPID
 70
     9
  0
APPID
  2
ACAD
 70
     0
  0
APPID
  2
ACAD_MLEADERVER
 70
     0
  0
APPID
  2
ACAD_EXEMPT_FROM_CAD_STANDARDS
 70
     0
  0
APPID
  2
ACAD_NAV_VCDISPLAY
 70
     0
  0
APPID
  2
ACADANNOMONITORALERTICONDI
 70
     0
  0
APPID
  2
ACAD_DSTYLE_DIMJAG
 70
     0
  0
APPID
  2
ACAD_DSTYLE_DIMTALN
 70
     0
  0
APPID
  2
ACDBATTR
 70
     0
  0
APPID
  2
DCO15
 70
     0
  0
ENDTAB
  0
TABLE
  2
DIMSTYLE
 70
     1
  0
DIMSTYLE
  2
STANDARD
 70
     0
  3

  4

  5

  6

  7

 40
1.0
 41
0.1875
 42
0.0625
 43
0.38
 44
0.125
 45
0.0
 46
0.0
 47
1.5
 48
1.5
140
1.5
141
0.09
142
0.0
143
25.3999999999999986
144
1.0
145
0.0
146
1.0
147
0.09
 71
     0
 72
     0
 73
     1
 74
     1
 75
     0
 76
     0
 77
     0
 78
     4
170
     0
171
     2
172
     0
173
     0
174
     0
175
     0
176
     0
177
     0
178
     0
  0
ENDTAB
  0
ENDSEC
  0
SECTION
  2
BLOCKS
  0
BLOCK
  8
0
  2
$MODEL_SPACE
 70
     0
 10
0.0
 20
0.0
 30
0.0
  3
$MODEL_SPACE
  1

  0
ENDBLK
  5
21
  8
0
  0
BLOCK
 67
     1
  8
0
  2
$PAPER_SPACE
 70
     0
 10
0.0
 20
0.0
 30
0.0
  3
$PAPER_SPACE
  1

  0
ENDBLK
  5
1D
 67
     1
  8
0
  0
ENDSEC
  0
SECTION
  2
ENTITIES
  0
ATTDEF
  5
4EF9
  8
DEFPOINTS
 10
362.4749310784391128
 20
29.8695350319626591
 30
0.0
 40
0.001
  1
P25656-00
  3

  2
MODELNUMBER
 70
     0
1001
ACDBATTR
1070
     0
1070
     1
  0
ATTDEF
  5
4EFA
  8
DEFPOINTS
 10
362.4749310784391128
 20
29.8678683652959904
 30
0.0
 40
0.001
  1

  3

  2
TRADENAME
 70
     0
1001
ACDBATTR
1070
     0
1070
     1
  0
ATTDEF
  5
4EFB
  8
DEFPOINTS
 10
362.4749310784391128
 20
29.8662016986293111
 30
0.0
 40
0.001
  1
HANDSHOWER
  3

  2
PRODUCT
 70
     0
1001
ACDBATTR
1070
     0
1070
     1
  0
LINE
  5
6CA8
  8
0
 10
357.0176829677304795
 20
10.4936768901746902
 30
0.0
 11
356.1121711567304828
 21
10.4936768901746902
 31
0.0
  0
LINE
  5
6CA9
  8
0
 10
356.1121711567304828
 20
9.8899575416746899
 30
0.0
 11
356.1121711567304828
 21
10.4936768901746902
 31
0.0
  0
LINE
  5
6CAA
  8
0
 10
356.1161081646304751
 20
9.883440669674691
 30
0.0
 11
357.0176829677304795
 21
9.883440669674691
 31
0.0
  0
LINE
  5
6CAB
  8
0
 10
356.2657144638304771
 20
9.7613934255746901
 30
0.0
 11
356.2657144638304771
 21
9.883440669674691
 31
0.0
  0
LINE
  5
6CAC
  8
0
 10
356.2657144638304771
 20
9.7613934255746901
 30
0.0
 11
356.8641396606304852
 21
9.7613934255746901
 31
0.0
  0
LINE
  5
6CAD
  8
0
 10
356.1121711567304828
 20
9.8899575416746899
 30
0.0
 11
356.1161081646304751
 21
9.883440669674691
 31
0.0
  0
LINE
  5
6CAE
  8
0
 10
356.5649270622304812
 20
10.4936768901746902
 30
0.0
 11
356.5649270622304812
 21
9.883440669674691
 31
0.0
  0
LINE
  5
6CAF
  8
0
 10
356.2736296042305071
 20
9.7613934255746901
 30
0.0
 11
356.2736296042305071
 21
-4.6787883888827011
 31
0.0
  0
LINE
  5
6CB0
  8
0
 10
362.7662179063304961
 20
-4.6787883888827011
 30
0.0
 11
362.7662179063304961
 21
29.3150030646746913
 31
0.0
  0
ARC
  5
6CB1
  8
0
 10
359.5199237552805016
 20
-4.6787883888827011
 30
0.0
 40
3.2462941510500012
 50
180.0
 51
0.0
  0
ARC
  5
6CB2
  8
0
 10
359.5199237552805016
 20
-4.6787883888827011
 30
0.0
 40
2.6636992350500011
 50
180.0
 51
0.0
  0
LINE
  5
6CB3
  8
0
 10
357.0176829677304795
 20
9.8899575416746899
 30
0.0
 11
357.0176829677304795
 21
10.4936768901746902
 31
0.0
  0
LINE
  5
6CB4
  8
0
 10
356.8641396606304852
 20
9.7613934255746901
 30
0.0
 11
356.8641396606304852
 21
9.883440669674691
 31
0.0
  0
LINE
  5
6CB5
  8
0
 10
357.0176829677304795
 20
9.8899575416746899
 30
0.0
 11
357.0137459598304872
 21
9.883440669674691
 31
0.0
  0
LINE
  5
6CB6
  8
0
 10
356.8562245202305121
 20
9.7613934255746901
 30
0.0
 11
356.8562245202305121
 21
-4.6787883888827011
 31
0.0
  0
LINE
  5
6CB7
  8
0
 10
362.1836229903304911
 20
-4.6787883888827011
 30
0.0
 11
362.1836229903304911
 21
29.3150030646746913
 31
0.0
  0
CIRCLE
  5
6CB8
  8
0
 10
362.4749270622305062
 20
36.8410031631746904
 30
0.0
 40
1.599999999999999
  0
CIRCLE
  5
6CB9
  8
0
 10
362.4749270622305062
 20
36.8410031631746904
 30
0.0
 40
0.4120000000000026
  0
CIRCLE
  5
6CBA
  8
0
 10
362.4749270622305062
 20
36.8410031631746904
 30
0.0
 40
1.5529999999999999
  0
CIRCLE
  5
6CBB
  8
0
 10
362.4749270622305062
 20
36.8410031631746904
 30
0.0
 40
1.487601113759399
  0
LINE
  5
6CBC
  8
0
 10
361.9749270622305062
 20
34.4610031631746807
 30
0.0
 11
361.9749270622305062
 21
30.4810030646746988
 31
0.0
  0
LINE
  5
6CBD
  8
0
 10
361.9349270622305994
 20
34.5910031631746904
 30
0.0
 11
363.0149270622305266
 21
34.5910031631746904
 31
0.0
  0
LINE
  5
6CBE
  8
0
 10
361.9349270622304857
 20
34.4710031631746929
 30
0.0
 11
363.0149270622305266
 21
34.4710031631746929
 31
0.0
  0
LINE
  5
6CBF
  8
0
 10
361.9249270622304948
 20
34.4810031631746909
 30
0.0
 11
361.9249270622304948
 21
34.5810031631746213
 31
0.0
  0
ARC
  5
6CC0
  8
0
 10
361.9349270622304857
 20
34.5810031631746924
 30
0.0
 40
0.0099999999999945
 50
89.9999999988991704
 51
180.0000000000202931
  0
ARC
  5
6CC1
  8
0
 10
361.9349270622304857
 20
34.4810031631746909
 30
0.0
 40
0.0100000000000016
 50
180.0
 51
270.0
  0
ARC
  5
6CC2
  8
0
 10
361.9849270622304971
 20
34.4610031631746807
 30
0.0
 40
0.0100000000000122
 50
90.0000000000618741
 51
179.9999999999388933
  0
LINE
  5
6CC3
  8
0
 10
361.9749270622305062
 20
34.4610031631746807
 30
0.0
 11
361.9749270622305062
 21
30.4810030646746988
 31
0.0
  0
LINE
  5
6CC4
  8
0
 10
361.9749270622305062
 20
34.6010031631747097
 30
0.0
 11
361.9749270622305062
 21
35.3211347478176307
 31
0.0
  0
ARC
  5
6CC5
  8
0
 10
361.9649270622304016
 20
34.6010031631747097
 30
0.0
 40
0.0100000000000087
 50
270.000000000019611
 51
359.9999999999593001
  0
LINE
  5
6CC6
  8
0
 10
363.0249270622305175
 20
34.4810031631746909
 30
0.0
 11
363.0249270622305175
 21
34.5810031631746213
 31
0.0
  0
ARC
  5
6CC7
  8
0
 10
363.0149270622305266
 20
34.5810031631746924
 30
0.0
 40
0.0099999999999945
 50
359.9999999999797069
 51
90.0000000010975469
  0
ARC
  5
6CC8
  8
0
 10
363.0149270622305266
 20
34.4810031631746909
 30
0.0
 40
0.0100000000000016
 50
270.0
 51
0.0
  0
ARC
  5
6CC9
  8
0
 10
362.9649270622305153
 20
34.4610031631746807
 30
0.0
 40
0.0100000000000122
 50
0.0000000000610666
 51
89.9999999999381117
  0
LINE
  5
6CCA
  8
0
 10
362.9749270622303925
 20
34.4610031631746807
 30
0.0
 11
362.9749270622303925
 21
30.4810030646746988
 31
0.0
  0
LINE
  5
6CCB
  8
0
 10
362.9749270622303925
 20
34.6010031631747097
 30
0.0
 11
362.9749270622303925
 21
35.3211347478176307
 31
0.0
  0
ARC
  5
6CCC
  8
0
 10
362.9849270622304971
 20
34.6010031631747097
 30
0.0
 40
0.0100000000000087
 50
180.0000000000406999
 51
269.999999999980389
  0
LINE
  5
6CCD
  8
0
 10
361.9849270622303834
 20
30.4710030646747008
 30
0.0
 11
362.9649270622305153
 21
30.4710030646747008
 31
0.0
  0
ARC
  5
6CCE
  8
0
 10
361.9849270622303834
 20
30.4810030646746988
 30
0.0
 40
0.0100000000000016
 50
180.0000000000202931
 51
270.0
  0
LINE
  5
6CCF
  8
0
 10
362.0151737347305243
 20
30.4710030646747008
 30
0.0
 11
362.0360291055304742
 21
29.8737833835746898
 31
0.0
  0
ARC
  5
6CD0
  8
0
 10
362.0438983246805833
 20
29.8740581827624503
 30
0.0
 40
0.007874015787762
 50
181.999999998113708
 51
270.0000054566943959
  0
LINE
  5
6CD1
  8
0
 10
362.9059557997803722
 20
29.8661841669746906
 30
0.0
 11
362.0438983246805833
 21
29.8661841669746906
 31
0.0
  0
LINE
  5
6CD2
  8
0
 10
362.0471904650102033
 20
29.7874440095746884
 30
0.0
 11
362.9026636594506954
 21
29.7874440095746884
 31
0.0
  0
LINE
  5
6CD3
  8
0
 10
362.0840565765508927
 20
29.3150030646746913
 30
0.0
 11
362.865797547838099
 21
29.3150030646746913
 31
0.0
  0
LINE
  5
6CD4
  8
0
 10
362.0545470049216874
 20
29.3435001267232494
 30
0.0
 11
362.039328705830485
 21
29.7792951945747006
 31
0.0
  0
ARC
  5
6CD5
  8
0
 10
362.0471979284204167
 20
29.7795699938821699
 30
0.0
 40
0.0078740192296259
 50
90.0543079655364096
 51
181.9999999951947984
  0
LINE
  5
6CD6
  8
0
 10
362.0871317866304935
 20
29.8583101511039892
 30
0.0
 11
362.0871317866304935
 21
29.8556759348172811
 31
0.0
  0
ARC
  5
6CD7
  8
0
 10
362.079257770759682
 20
29.8583101511039892
 30
0.0
 40
0.007874015870712
 50
0.0000012421669031
 51
89.9999994854768346
  0
ARC
  5
6CD8
  8
0
 10
362.1009113142304727
 20
29.8234597575746996
 30
0.0
 40
0.0350393700999973
 50
113.1574008528551047
 51
245.1825260337984957
  0
ARC
  5
6CD9
  8
0
 10
362.0792787039554241
 20
29.7952433992979699
 30
0.0
 40
0.0077994178148873
 50
269.8462217081226981
 51
332.6180490585397251
  0
LINE
  5
6CDA
  8
0
 10
362.0862042774251108
 20
29.7916562903830702
 30
0.0
 11
362.8636498470359015
 21
29.7916562903830702
 31
0.0
  0
LINE
  5
6CDB
  8
0
 10
362.0871212985022112
 20
29.8556714468073316
 30
0.0
 11
362.8627223378305189
 21
29.8556714468073316
 31
0.0
  0
ARC
  5
6CDC
  8
0
 10
362.9649270622305153
 20
30.4810030646746988
 30
0.0
 40
0.0100000000000016
 50
270.0
 51
359.9999999999797069
  0
LINE
  5
6CDD
  8
0
 10
362.9346803897304881
 20
30.4710030646747008
 30
0.0
 11
362.9138250189304813
 21
29.8737833835746898
 31
0.0
  0
ARC
  5
6CDE
  8
0
 10
362.9059557997803722
 20
29.8740581827624503
 30
0.0
 40
0.007874015787762
 50
269.9999945433057178
 51
358.0000000018860078
  0
LINE
  5
6CDF
  8
0
 10
362.8953071195560938
 20
29.343500126706509
 30
0.0
 11
362.9105254186305274
 21
29.7792951945747006
 31
0.0
  0
ARC
  5
6CE0
  8
0
 10
362.9026561960405957
 20
29.7795699938821699
 30
0.0
 40
0.0078740192296259
 50
358.0000000048050879
 51
89.9456920344635762
  0
LINE
  5
6CE1
  8
0
 10
362.8627223378305189
 20
29.8583101511039892
 30
0.0
 11
362.8627223378305189
 21
29.8556714468073316
 31
0.0
  0
ARC
  5
6CE2
  8
0
 10
362.8705963537012167
 20
29.8583101511039892
 30
0.0
 40
0.007874015870712
 50
90.0000005145231654
 51
179.9999987578329979
  0
ARC
  5
6CE3
  8
0
 10
362.8489463191165783
 20
29.8234575499423684
 30
0.0
 40
0.035035893635401
 50
294.8137809779368013
 51
66.8464085044420955
  0
ARC
  5
6CE4
  8
0
 10
362.8705754205055882
 20
29.7952433992979699
 30
0.0
 40
0.0077994178148873
 50
207.3819509414603033
 51
270.1537782918773019
  0
ARC
  5
6CE5
  8
0
 10
362.865797547838099
 20
29.344530623655821
 30
0.0
 40
0.0295275590811244
 50
269.9999999852007022
 51
358.000000135244477
  0
ARC
  5
6CE6
  8
0
 10
362.0840565765508927
 20
29.3445306234777696
 30
0.0
 40
0.029527558903071
 50
181.9999995311160035
 51
270.0000001544025281
  0
LINE
  5
6CE7
  8
0
 10
362.2704546234305099
 20
29.5118534583746914
 30
0.0
 11
362.6793995010303888
 21
29.5118534583746914
 31
0.0
  0
LINE
  5
6CE8
  8
0
 10
362.2704546234305099
 20
29.5118534583746914
 30
0.0
 11
362.2830113817041138
 21
29.3434998183413285
 31
0.0
  0
ARC
  5
6CE9
  8
0
 10
362.298536949601214
 20
29.3446578022323017
 30
0.0
 40
0.0155686924698289
 50
184.2655423838720026
 51
226.5968978705290908
  0
ARC
  5
6CEA
  8
0
 10
362.3249919400362273
 20
29.3726301363810087
 30
0.0
 40
0.0540695755329465
 50
226.5968978705292898
 51
261.677062806068875
  0
ARC
  5
6CEB
  8
0
 10
362.3579867645482864
 20
29.5175594963450507
 30
0.0
 40
0.2025849237272477
 50
258.3751209922974112
 51
269.0390494035005986
  0
LINE
  5
6CEC
  8
0
 10
362.6793995010303888
 20
29.5118534583746914
 30
0.0
 11
362.6668427427567849
 21
29.3434998183413285
 31
0.0
  0
ARC
  5
6CED
  8
0
 10
362.6513171748596847
 20
29.3446578022323017
 30
0.0
 40
0.0155686924698289
 50
313.4031021294708808
 51
355.7344576161279974
  0
ARC
  5
6CEE
  8
0
 10
362.624862184424785
 20
29.3726301363810087
 30
0.0
 40
0.0540695755329465
 50
278.322937193931125
 51
313.4031021294707102
  0
ARC
  5
6CEF
  8
0
 10
362.591867359912726
 20
29.5175594963450507
 30
0.0
 40
0.2025849237272477
 50
270.9609505964992877
 51
281.6248790077025888
  0
CIRCLE
  5
6CF0
  8
0
 10
362.0862769669689101
 20
38.0371443571747676
 30
0.0
 40
0.0204217282634475
  0
CIRCLE
  5
6CF1
  8
0
 10
362.0867929593804888
 20
38.0355571018746872
 30
0.0
 40
0.0533021201451613
  0
CIRCLE
  5
6CF2
  8
0
 10
362.0894226594439829
 20
38.0273870280246911
 30
0.0
 40
0.0664859901629592
  0
CIRCLE
  5
6CF3
  8
0
 10
362.0892641204305278
 20
38.0279516500746908
 30
0.0
 40
0.0728346457000004
  0
CIRCLE
  5
6CF4
  8
0
 10
362.4749270644547892
 20
37.7390937458349711
 30
0.0
 40
0.02042012296028
  0
ARC
  5
6CF5
  8
0
 10
362.4749220223549173
 20
37.7324482069349685
 30
0.0
 40
0.02042012296028
 50
9.3213614881892983
 51
170.5916956772992989
  0
CIRCLE
  5
6CF6
  8
0
 10
362.4749270622305062
 20
37.7379034287246924
 30
0.0
 40
0.0534299568499996
  0
CIRCLE
  5
6CF7
  8
0
 10
362.4749270622502877
 20
37.7319577695776118
 30
0.0
 40
0.0652802145970792
  0
CIRCLE
  5
6CF8
  8
0
 10
362.4749270622305062
 20
37.7327354466746883
 30
0.0
 40
0.0728346456999987
  0
ARC
  5
6CF9
  8
0
 10
362.0890739199302857
 20
38.0279496294695392
 30
0.0
 40
0.0204217282634475
 50
30.5289632182403317
 51
183.309609556023986
  0
CIRCLE
  5
6CFA
  8
0
 10
361.4652483724304943
 20
37.5745776709746977
 30
0.0
 40
0.0728346457000004
  0
CIRCLE
  5
6CFB
  8
0
 10
361.4663182965902024
 20
37.5738003255149735
 30
0.0
 40
0.0668582707744581
  0
CIRCLE
  5
6CFC
  8
0
 10
361.4587787886939054
 20
37.5792780986949779
 30
0.0
 40
0.0535626246249823
  0
CIRCLE
  5
6CFD
  8
0
 10
361.457427837480509
 20
37.5802596221746867
 30
0.0
 40
0.020472201046635
  0
ARC
  5
6CFE
  8
0
 10
361.465032566017328
 20
37.5747970695390023
 30
0.0
 40
0.020472201046635
 50
67.5294968145775982
 51
221.0903720899231075
  0
CIRCLE
  5
6CFF
  8
0
 10
361.9470371864857725
 20
37.5675476396465626
 30
0.0
 40
0.0204464611307001
  0
ARC
  5
6D00
  8
0
 10
361.9510290728363202
 20
37.5619299282987171
 30
0.0
 40
0.0204464611307001
 50
45.0994082842208428
 51
205.6949899235671921
  0
CIRCLE
  5
6D01
  8
0
 10
361.9477423133805019
 20
37.5666107202746886
 30
0.0
 40
0.0534299568396762
  0
CIRCLE
  5
6D02
  8
0
 10
361.951425818101427
 20
37.5615177801918634
 30
0.0
 40
0.0652333326135293
  0
CIRCLE
  5
6D03
  8
0
 10
361.9507799770304928
 20
37.5624297349746996
 30
0.0
 40
0.0728346457000004
  0
CIRCLE
  5
6D04
  8
0
 10
362.1584498051304877
 20
37.2766137833746924
 30
0.0
 40
0.0204633012999995
  0
ARC
  5
6D05
  8
0
 10
362.1607921598305211
 20
37.2733879998747
 30
0.0
 40
0.0204651541000004
 50
41.6008094309621086
 51
210.3686288393199959
  0
CIRCLE
  5
6D06
  8
0
 10
362.1589006621305202
 20
37.2760639165746923
 30
0.0
 40
0.0535118826000005
  0
CIRCLE
  5
6D07
  8
0
 10
362.1609975689303837
 20
37.2732004002747033
 30
0.0
 40
0.0653238594999994
  0
CIRCLE
  5
6D08
  8
0
 10
362.1602073996303943
 20
37.2741776168746881
 30
0.0
 40
0.0728346457000004
  0
CIRCLE
  5
6D09
  8
0
 10
361.6208090982304952
 20
37.1184935426746918
 30
0.0
 40
0.0204470299999997
  0
ARC
  5
6D0A
  8
0
 10
361.6271403285304018
 20
37.1164417816746877
 30
0.0
 40
0.0204568729999997
 50
81.4917596048199186
 51
242.5963457318534893
  0
CIRCLE
  5
6D0B
  8
0
 10
361.6219242202803912
 20
37.1181605874746907
 30
0.0
 40
0.053429956878951
  0
CIRCLE
  5
6D0C
  8
0
 10
361.6270805478076795
 20
37.1159470005067504
 30
0.0
 40
0.0652333325925845
  0
CIRCLE
  5
6D0D
  8
0
 10
361.6268392633305098
 20
37.1165635931747033
 30
0.0
 40
0.0728346457000004
  0
CIRCLE
  5
6D0E
  8
0
 10
361.2172294950303808
 20
36.8410031631746904
 30
0.0
 40
0.0203728721999994
  0
ARC
  5
6D0F
  8
0
 10
361.2265678689440165
 20
36.8410031631746904
 30
0.0
 40
0.0203728721999994
 50
103.2491814255973992
 51
256.750818574402615
  0
CIRCLE
  5
6D10
  8
0
 10
361.2188987209303832
 20
36.8410031631746904
 30
0.0
 40
0.0533021200999993
  0
CIRCLE
  5
6D11
  8
0
 10
361.2282180651804993
 20
36.8410031631746904
 30
0.0
 40
0.0665335728499996
  0
CIRCLE
  5
6D12
  8
0
 10
361.2268955662304961
 20
36.8410031631746904
 30
0.0
 40
0.0728346457000004
  0
CIRCLE
  5
6D13
  8
0
 10
361.9628460888304744
 20
36.6746074340746873
 30
0.0
 40
0.0204633031999997
  0
ARC
  5
6D14
  8
0
 10
361.9666316249305282
 20
36.6758573799747012
 30
0.0
 40
0.0204651559000002
 50
113.8888515709220002
 51
282.6565542024263209
  0
CIRCLE
  5
6D15
  8
0
 10
361.9635021695303863
 20
36.6748853623746882
 30
0.0
 40
0.0535118826000005
  0
CIRCLE
  5
6D16
  8
0
 10
361.6208091461305116
 20
36.5635127650746909
 30
0.0
 40
0.0204470703999996
  0
ARC
  5
6D17
  8
0
 10
361.6271544358303913
 20
36.5655211550746913
 30
0.0
 40
0.0204568824999999
 50
117.0111060774489999
 51
278.1157895329719167
  0
CIRCLE
  5
6D18
  8
0
 10
361.6219242202803912
 20
36.56384573887469
 30
0.0
 40
0.0534299568789523
  0
CIRCLE
  5
6D19
  8
0
 10
361.6282569286805142
 20
36.5657527167077134
 30
0.0
 40
0.0652333328025795
  0
CIRCLE
  5
6D1A
  8
0
 10
361.6268392633305098
 20
36.5654427331746916
 30
0.0
 40
0.0728346457000004
  0
CIRCLE
  5
6D1B
  8
0
 10
361.4574283565805217
 20
36.1017470813246888
 30
0.0
 40
0.0203728722270274
  0
ARC
  5
6D1C
  8
0
 10
361.4649254087574946
 20
36.10730846997469
 30
0.0
 40
0.0203728722270274
 50
139.8121310192200042
 51
293.3246598482912759
  0
CIRCLE
  5
6D1D
  8
0
 10
361.4587787886804904
 20
36.102728227674703
 30
0.0
 40
0.0533021201364952
  0
CIRCLE
  5
6D1E
  8
0
 10
361.4663182966804129
 20
36.1082060008747021
 30
0.0
 40
0.0665354529116164
  0
CIRCLE
  5
6D1F
  8
0
 10
361.4652483724304943
 20
36.1074286553746902
 30
0.0
 40
0.0728346457000004
  0
CIRCLE
  5
6D20
  8
0
 10
361.9470810625305148
 20
36.1144379508747022
 30
0.0
 40
0.0204470299999997
  0
ARC
  5
6D21
  8
0
 10
361.950951944930523
 20
36.1198521006746915
 30
0.0
 40
0.0204568729999997
 50
153.884851865805814
 51
314.9888993636546957
  0
CIRCLE
  5
6D22
  8
0
 10
361.9477423133805019
 20
36.115395606124693
 30
0.0
 40
0.0534299567992275
  0
CIRCLE
  5
6D23
  8
0
 10
361.9508246331586179
 20
36.1204434230738727
 30
0.0
 40
0.0652333327967119
  0
CIRCLE
  5
6D24
  8
0
 10
361.9507799770304928
 20
36.11957659147469
 30
0.0
 40
0.0728346457000004
  0
CIRCLE
  5
6D25
  8
0
 10
362.0862771402304929
 20
35.64486169637469
 30
0.0
 40
0.0339034616185789
  0
CIRCLE
  5
6D26
  8
0
 10
362.0862771401805276
 20
35.6448616963746971
 30
0.0
 40
0.0203728722415909
  0
ARC
  5
6D27
  8
0
 10
362.089027356443296
 20
35.6538495170480232
 30
0.0
 40
0.0203728722415909
 50
176.3232623221543918
 51
329.6491791769660722
  0
CIRCLE
  5
6D28
  8
0
 10
362.0867929593804888
 20
35.6464492244746936
 30
0.0
 40
0.0533021201451632
  0
CIRCLE
  5
6D29
  8
0
 10
362.0895675902838207
 20
35.6555850276849498
 30
0.0
 40
0.0664859902912437
  0
CIRCLE
  5
6D2A
  8
0
 10
362.0892641204305278
 20
35.6540546762746899
 30
0.0
 40
0.0728346457000004
  0
CIRCLE
  5
6D2B
  8
0
 10
361.9668735265304917
 20
36.6759947672746875
 30
0.0
 40
0.06536307726067
  0
CIRCLE
  5
6D2C
  8
0
 10
361.9656999512304765
 20
36.6755452449746926
 30
0.0
 40
0.0728346456999995
  0
CIRCLE
  5
6D2D
  8
0
 10
362.4749370812303937
 20
36.3025452835747018
 30
0.0
 40
0.0204633013000013
  0
ARC
  5
6D2E
  8
0
 10
362.4749181072305078
 20
36.3065526217746921
 30
0.0
 40
0.0204651558999984
 50
185.9166122414499966
 51
354.6259533931312262
  0
CIRCLE
  5
6D2F
  8
0
 10
362.4749786285304936
 20
36.3032759627746913
 30
0.0
 40
0.0535118826000005
  0
CIRCLE
  5
6D30
  8
0
 10
362.4749919291303968
 20
36.3068240999746905
 30
0.0
 40
0.0653238598999995
  0
CIRCLE
  5
6D31
  8
0
 10
362.4749270622305062
 20
36.3055700922746922
 30
0.0
 40
0.0728346457000004
  0
ARC
  5
6D32
  8
0
 10
362.4749042423305241
 20
35.9495948442746922
 30
0.0
 40
0.0204568651000017
 50
189.9192377362440141
 51
350.4719400031356145
  0
CIRCLE
  5
6D33
  8
0
 10
362.4749270644550734
 20
35.9429093598349709
 30
0.0
 40
0.02042012296028
  0
CIRCLE
  5
6D34
  8
0
 10
362.4749270622305062
 20
35.9441028976246884
 30
0.0
 40
0.0534299568500014
  0
CIRCLE
  5
6D35
  8
0
 10
362.4749270623075859
 20
35.9500485568308008
 30
0.0
 40
0.0652811499180141
  0
CIRCLE
  5
6D36
  8
0
 10
362.4749270622305062
 20
35.9492708797746872
 30
0.0
 40
0.0728346457000004
  0
CIRCLE
  5
6D37
  8
0
 10
362.8635771574919886
 20
38.0371443571747676
 30
0.0
 40
0.0204217282634475
  0
CIRCLE
  5
6D38
  8
0
 10
362.8630611650805236
 20
38.0355571018746872
 30
0.0
 40
0.0533021201451613
  0
CIRCLE
  5
6D39
  8
0
 10
362.8604314650169158
 20
38.0273870280246911
 30
0.0
 40
0.0664859901629592
  0
CIRCLE
  5
6D3A
  8
0
 10
362.8605900040304846
 20
38.0279516500746908
 30
0.0
 40
0.0728346457000004
  0
ARC
  5
6D3B
  8
0
 10
362.860780204530613
 20
38.0279496294695392
 30
0.0
 40
0.0204217282634475
 50
356.6903904439759003
 51
149.4710367817596079
  0
CIRCLE
  5
6D3C
  8
0
 10
363.4846057520304043
 20
37.5745776709746977
 30
0.0
 40
0.0728346457000004
  0
CIRCLE
  5
6D3D
  8
0
 10
363.48353582787081
 20
37.5738003255149735
 30
0.0
 40
0.0668582707744581
  0
CIRCLE
  5
6D3E
  8
0
 10
363.4910753357671069
 20
37.5792780986949779
 30
0.0
 40
0.0535626246249823
  0
CIRCLE
  5
6D3F
  8
0
 10
363.4924262869803897
 20
37.5802596221746867
 30
0.0
 40
0.020472201046635
  0
ARC
  5
6D40
  8
0
 10
363.4848215584436275
 20
37.5747970695390023
 30
0.0
 40
0.020472201046635
 50
318.9096279100767788
 51
112.4705031854224018
  0
CIRCLE
  5
6D41
  8
0
 10
363.0028169379751262
 20
37.5675476396465626
 30
0.0
 40
0.0204464611307001
  0
ARC
  5
6D42
  8
0
 10
362.9988250516245785
 20
37.5619299282987171
 30
0.0
 40
0.0204464611307001
 50
334.3050100764327794
 51
134.9005917157790861
  0
CIRCLE
  5
6D43
  8
0
 10
363.0021118110803968
 20
37.5666107202746886
 30
0.0
 40
0.0534299568396762
  0
CIRCLE
  5
6D44
  8
0
 10
362.9984283063595853
 20
37.5615177801918634
 30
0.0
 40
0.0652333326135293
  0
CIRCLE
  5
6D45
  8
0
 10
362.9990741474305196
 20
37.5624297349746996
 30
0.0
 40
0.0728346457000004
  0
CIRCLE
  5
6D46
  8
0
 10
362.7914043193305247
 20
37.2766137833746924
 30
0.0
 40
0.0204633012999995
  0
ARC
  5
6D47
  8
0
 10
362.7890619646304913
 20
37.2733879998747
 30
0.0
 40
0.0204651541000004
 50
329.6313711606799757
 51
138.3991905690378985
  0
CIRCLE
  5
6D48
  8
0
 10
362.7909534623304921
 20
37.2760639165746923
 30
0.0
 40
0.0535118826000005
  0
CIRCLE
  5
6D49
  8
0
 10
362.7888565555305149
 20
37.2732004002747033
 30
0.0
 40
0.0653238594999994
  0
CIRCLE
  5
6D4A
  8
0
 10
362.7896467248305044
 20
37.2741776168746881
 30
0.0
 40
0.0728346457000004
  0
CIRCLE
  5
6D4B
  8
0
 10
363.3290450262304034
 20
37.1184935426746918
 30
0.0
 40
0.0204470299999997
  0
ARC
  5
6D4C
  8
0
 10
363.3227137959304969
 20
37.1164417816746877
 30
0.0
 40
0.0204568729999997
 50
297.4036542681465107
 51
98.5082403951801098
  0
CIRCLE
  5
6D4D
  8
0
 10
363.3279299041805075
 20
37.1181605874746907
 30
0.0
 40
0.053429956878951
  0
CIRCLE
  5
6D4E
  8
0
 10
363.3227735766532192
 20
37.1159470005067504
 30
0.0
 40
0.0652333325925845
  0
CIRCLE
  5
6D4F
  8
0
 10
363.3230148611303889
 20
37.1165635931747033
 30
0.0
 40
0.0728346457000004
  0
CIRCLE
  5
6D50
  8
0
 10
363.7326246294305179
 20
36.8410031631746904
 30
0.0
 40
0.0203728721999994
  0
ARC
  5
6D51
  8
0
 10
363.7232862555168822
 20
36.8410031631746904
 30
0.0
 40
0.0203728721999994
 50
283.249181425597385
 51
76.7508185744025866
  0
CIRCLE
  5
6D52
  8
0
 10
363.7309554035305155
 20
36.8410031631746904
 30
0.0
 40
0.0533021200999993
  0
CIRCLE
  5
6D53
  8
0
 10
363.7216360592803994
 20
36.8410031631746904
 30
0.0
 40
0.0665335728499996
  0
CIRCLE
  5
6D54
  8
0
 10
363.7229585582304026
 20
36.8410031631746904
 30
0.0
 40
0.0728346457000004
  0
CIRCLE
  5
6D55
  8
0
 10
362.9870080356304811
 20
36.6746074340746873
 30
0.0
 40
0.0204633031999997
  0
ARC
  5
6D56
  8
0
 10
362.9832224995304841
 20
36.6758573799747012
 30
0.0
 40
0.0204651559000002
 50
257.3434457975706096
 51
66.111148429077943
  0
CIRCLE
  5
6D57
  8
0
 10
362.9863519549305124
 20
36.6748853623746882
 30
0.0
 40
0.0535118826000005
  0
CIRCLE
  5
6D58
  8
0
 10
363.329044978330387
 20
36.5635127650746909
 30
0.0
 40
0.0204470703999996
  0
ARC
  5
6D59
  8
0
 10
363.3226996886305074
 20
36.5655211550746913
 30
0.0
 40
0.0204568824999999
 50
261.8842104670281969
 51
62.9888939225510427
  0
CIRCLE
  5
6D5A
  8
0
 10
363.3279299041805075
 20
36.56384573887469
 30
0.0
 40
0.0534299568789523
  0
CIRCLE
  5
6D5B
  8
0
 10
363.3215971957803845
 20
36.5657527167077134
 30
0.0
 40
0.0652333328025795
  0
CIRCLE
  5
6D5C
  8
0
 10
363.3230148611303889
 20
36.5654427331746916
 30
0.0
 40
0.0728346457000004
  0
CIRCLE
  5
6D5D
  8
0
 10
363.4924257678804906
 20
36.1017470813246888
 30
0.0
 40
0.0203728722270274
  0
ARC
  5
6D5E
  8
0
 10
363.4849287157035178
 20
36.10730846997469
 30
0.0
 40
0.0203728722270274
 50
246.6753401517086957
 51
40.1878689807800029
  0
CIRCLE
  5
6D5F
  8
0
 10
363.491075335780522
 20
36.102728227674703
 30
0.0
 40
0.0533021201364952
  0
CIRCLE
  5
6D60
  8
0
 10
363.4835358277804858
 20
36.1082060008747021
 30
0.0
 40
0.0665354529116164
  0
CIRCLE
  5
6D61
  8
0
 10
363.4846057520304043
 20
36.1074286553746902
 30
0.0
 40
0.0728346457000004
  0
CIRCLE
  5
6D62
  8
0
 10
363.0027730619303838
 20
36.1144379508747022
 30
0.0
 40
0.0204470299999997
  0
ARC
  5
6D63
  8
0
 10
362.9989021795304893
 20
36.1198521006746915
 30
0.0
 40
0.0204568729999997
 50
225.0111006363453043
 51
26.1151481341941611
  0
CIRCLE
  5
6D64
  8
0
 10
363.0021118110803968
 20
36.115395606124693
 30
0.0
 40
0.0534299567992275
  0
CIRCLE
  5
6D65
  8
0
 10
362.9990294913023945
 20
36.1204434230738727
 30
0.0
 40
0.0652333327967119
  0
CIRCLE
  5
6D66
  8
0
 10
362.9990741474305196
 20
36.11957659147469
 30
0.0
 40
0.0728346457000004
  0
CIRCLE
  5
6D67
  8
0
 10
362.8635769842305194
 20
35.64486169637469
 30
0.0
 40
0.0339034616185789
  0
CIRCLE
  5
6D68
  8
0
 10
362.8635769842804848
 20
35.6448616963746971
 30
0.0
 40
0.0203728722415909
  0
ARC
  5
6D69
  8
0
 10
362.8608267680177164
 20
35.6538495170480232
 30
0.0
 40
0.0203728722415909
 50
210.3508208230338994
 51
3.6767376778455301
  0
CIRCLE
  5
6D6A
  8
0
 10
362.8630611650805236
 20
35.6464492244746936
 30
0.0
 40
0.0533021201451632
  0
CIRCLE
  5
6D6B
  8
0
 10
362.860286534177078
 20
35.6555850276849498
 30
0.0
 40
0.0664859902912437
  0
CIRCLE
  5
6D6C
  8
0
 10
362.8605900040304846
 20
35.6540546762746899
 30
0.0
 40
0.0728346457000004
  0
CIRCLE
  5
6D6D
  8
0
 10
362.9829805979305206
 20
36.6759947672746875
 30
0.0
 40
0.06536307726067
  0
CIRCLE
  5
6D6E
  8
0
 10
362.984154173230479
 20
36.6755452449746926
 30
0.0
 40
0.0728346456999995
  0
ARC
  5
6D70
  8
0
 10
356.338549109480482
 20
10.2006434901643495
 30
0.0
 40
0.2274633738017428
 50
5.5995594844360657
 51
174.4004405155639006
  0
ARC
  5
6D71
  8
0
 10
356.7913050149804803
 20
10.2006434901643495
 30
0.0
 40
0.2274633738017428
 50
5.5995594844360657
 51
174.4004405155639006
  0
ARC
  5
6D72
  8
0
 10
356.338549109480482
 20
10.17647406958503
 30
0.0
 40
0.2274633738017428
 50
185.5995594844360141
 51
354.4004405155640143
  0
ARC
  5
6D73
  8
0
 10
356.7913050149804803
 20
10.17647406958503
 30
0.0
 40
0.2274633738017428
 50
185.5995594844360141
 51
354.4004405155640143
  0
ENDSEC
  0
EOF
