  0
SECTION
  2
HEADER
  9
$ACADVER
  1
AC1009
  9
$INSBASE
 10
3328.1348170134251632
 20
233.9617703083283118
 30
0.0
  9
$EXTMIN
 10
3322.6365286007830946
 20
233.9557505156344064
 30
0.0
  9
$EXTMAX
 10
3333.6331054260681412
 20
247.1552500059846977
 30
0.0
  9
$LIMMIN
 10
0.0
 20
0.0
  9
$LIMMAX
 10
11.6929133858000007
 20
8.2677165353999982
  9
$ORTHOMODE
 70
     0
  9
$REGENMODE
 70
     1
  9
$FILLMODE
 70
     1
  9
$QTEXTMODE
 70
     0
  9
$MIRRTEXT
 70
     0
  9
$DRAGMODE
 70
     2
  9
$LTSCALE
 40
0.6431102362
  9
$OSMODE
 70
  4095
  9
$ATTMODE
 70
     1
  9
$TEXTSIZE
 40
0.2
  9
$TRACEWID
 40
0.05
  9
$TEXTSTYLE
  7
STANDARD
  9
$CLAYER
  8
0
  9
$CELTYPE
  6
BYLAYER
  9
$CECOLOR
 62
   256
  9
$DIMSCALE
 40
1.0
  9
$DIMASZ
 40
0.1875
  9
$DIMEXO
 40
0.0625
  9
$DIMDLI
 40
0.4443307087
  9
$DIMRND
 40
0.0
  9
$DIMDLE
 40
0.0
  9
$DIMEXE
 40
0.125
  9
$DIMTP
 40
0.01
  9
$DIMTM
 40
0.01
  9
$DIMTXT
 40
2.0
  9
$DIMCEN
 40
0.1052362205
  9
$DIMTSZ
 40
0.0
  9
$DIMTOL
 70
     1
  9
$DIMLIM
 70
     0
  9
$DIMTIH
 70
     1
  9
$DIMTOH
 70
     1
  9
$DIMSE1
 70
     0
  9
$DIMSE2
 70
     0
  9
$DIMTAD
 70
     0
  9
$DIMZIN
 70
     0
  9
$DIMBLK
  1

  9
$DIMASO
 70
     1
  9
$DIMSHO
 70
     1
  9
$DIMPOST
  1
\X
  9
$DIMAPOST
  1

  9
$DIMALT
 70
     1
  9
$DIMALTD
 70
     2
  9
$DIMALTF
 40
25.3999999999999986
  9
$DIMLFAC
 40
1.0
  9
$DIMTOFL
 70
     0
  9
$DIMTVP
 40
0.0
  9
$DIMTIX
 70
     0
  9
$DIMSOXD
 70
     0
  9
$DIMSAH
 70
     0
  9
$DIMBLK1
  1

  9
$DIMBLK2
  1

  9
$DIMSTYLE
  2
STANDARD
  9
$DIMCLRD
 70
     0
  9
$DIMCLRE
 70
     0
  9
$DIMCLRT
 70
     0
  9
$DIMTFAC
 40
1.0
  9
$DIMGAP
 40
0.09
  9
$LUNITS
 70
     2
  9
$LUPREC
 70
     4
  9
$SKETCHINC
 40
0.1
  9
$FILLETRAD
 40
0.0
  9
$AUNITS
 70
     0
  9
$AUPREC
 70
     0
  9
$MENU
  1
.
  9
$ELEVATION
 40
0.0
  9
$PELEVATION
 40
0.0
  9
$THICKNESS
 40
0.0
  9
$LIMCHECK
 70
     0
  9
$BLIPMODE
 70
     0
  9
$CHAMFERA
 40
0.0
  9
$CHAMFERB
 40
0.0
  9
$SKPOLY
 70
     0
  9
$TDCREATE
 40
2458060.468368056230247
  9
$TDUPDATE
 40
2459541.4342361111193895
  9
$TDINDWG
 40
0.4550070602
  9
$TDUSRTIMER
 40
0.4550070602
  9
$USRTIMER
 70
     1
  9
$ANGBASE
 50
0.0
  9
$ANGDIR
 70
     0
  9
$PDMODE
 70
     0
  9
$PDSIZE
 40
0.3125
  9
$PLINEWID
 40
0.0
  9
$COORDS
 70
     1
  9
$SPLFRAME
 70
     0
  9
$SPLINETYPE
 70
     6
  9
$SPLINESEGS
 70
     8
  9
$ATTDIA
 70
     1
  9
$ATTREQ
 70
     1
  9
$HANDLING
 70
     1
  9
$HANDSEED
  5
E025
  9
$SURFTAB1
 70
     6
  9
$SURFTAB2
 70
     6
  9
$SURFTYPE
 70
     6
  9
$SURFU
 70
     6
  9
$SURFV
 70
     6
  9
$UCSNAME
  2

  9
$UCSORG
 10
0.0
 20
0.0
 30
0.0
  9
$UCSXDIR
 10
1.0
 20
0.0
 30
0.0
  9
$UCSYDIR
 10
0.0
 20
1.0
 30
0.0
  9
$PUCSNAME
  2

  9
$PUCSORG
 10
0.0
 20
0.0
 30
0.0
  9
$PUCSXDIR
 10
1.0
 20
0.0
 30
0.0
  9
$PUCSYDIR
 10
0.0
 20
1.0
 30
0.0
  9
$USERI1
 70
     0
  9
$USERI2
 70
     0
  9
$USERI3
 70
     0
  9
$USERI4
 70
     0
  9
$USERI5
 70
     0
  9
$USERR1
 40
0.0
  9
$USERR2
 40
0.0
  9
$USERR3
 40
0.0
  9
$USERR4
 40
0.0
  9
$USERR5
 40
0.0
  9
$WORLDVIEW
 70
     1
  9
$SHADEDGE
 70
     3
  9
$SHADEDIF
 70
    70
  9
$TILEMODE
 70
     1
  9
$MAXACTVP
 70
    64
  9
$PLIMCHECK
 70
     0
  9
$PEXTMIN
 10
1.0000000000000000E+20
 20
1.0000000000000000E+20
 30
1.0000000000000000E+20
  9
$PEXTMAX
 10
-1.0000000000000000E+20
 20
-1.0000000000000000E+20
 30
-1.0000000000000000E+20
  9
$PLIMMIN
 10
0.0
 20
0.0
  9
$PLIMMAX
 10
12.0
 20
9.0
  9
$UNITMODE
 70
     0
  9
$VISRETAIN
 70
     1
  9
$PLINEGEN
 70
     0
  9
$PSLTSCALE
 70
     1
  0
ENDSEC
  0
SECTION
  2
TABLES
  0
TABLE
  2
VPORT
 70
     1
  0
VPORT
  2
*ACTIVE
 70
     0
 10
0.0
 20
0.0
 11
1.0
 21
1.0
 12
0.0
 22
0.0
 13
0.0
 23
0.0
 14
1.0
 24
1.0
 15
0.0
 25
0.0
 16
0.0
 26
0.0
 36
48.6790477668956783
 17
3328.134765625
 27
240.5554967177781123
 37
0.0
 40
17.1799713649602097
 41
2.1186252771618621
 42
50.0
 43
0.0
 44
0.0
 50
0.0
 51
0.0
 71
     0
 72
   100
 73
     1
 74
     1
 75
     0
 76
     0
 77
     0
 78
     0
  0
ENDTAB
  0
TABLE
  2
LTYPE
 70
     2
  0
LTYPE
  2
CONTINUOUS
 70
     0
  3
Solid line
 72
    65
 73
     0
 40
0.0
  0
LTYPE
  2
PHANTOM2
 70
     0
  3
___ _ _ ___ _ _ ___ _ _ ___ _ _
 72
    65
 73
     6
 40
1.25
 49
0.625
 49
-0.125
 49
0.125
 49
-0.125
 49
0.125
 49
-0.125
  0
ENDTAB
  0
TABLE
  2
LAYER
 70
     2
  0
LAYER
  2
0
 70
     0
 62
   255
  6
CONTINUOUS
  0
LAYER
  2
DEFPOINTS
 70
     0
 62
     7
  6
CONTINUOUS
  0
ENDTAB
  0
TABLE
  2
STYLE
 70
     1
  0
STYLE
  2
STANDARD
 70
     0
 40
0.0
 41
0.8
 50
0.0
 71
     0
 42
0.2
  3
txt
  4

  0
ENDTAB
  0
TABLE
  2
VIEW
 70
     0
  0
ENDTAB
  0
TABLE
  2
UCS
 70
     0
  0
ENDTAB
  0
TABLE
  2
APPID
 70
     9
  0
APPID
  2
ACAD
 70
     0
  0
APPID
  2
ACAD_MLEADERVER
 70
     0
  0
APPID
  2
ACAD_EXEMPT_FROM_CAD_STANDARDS
 70
     0
  0
APPID
  2
ACAD_NAV_VCDISPLAY
 70
     0
  0
APPID
  2
ACAECLAYERSTANDARD
 70
     0
  0
APPID
  2
ACCMTRANSPARENCY
 70
     0
  0
APPID
  2
ACAD_DSTYLE_DIMJAG
 70
     0
  0
APPID
  2
ACAD_DSTYLE_DIMTALN
 70
     0
  0
APPID
  2
ACDBATTR
 70
     0
  0
ENDTAB
  0
TABLE
  2
DIMSTYLE
 70
     1
  0
DIMSTYLE
  2
STANDARD
 70
     0
  3

  4

  5

  6

  7

 40
1.0
 41
0.1875
 42
0.0625
 43
0.38
 44
0.125
 45
0.0
 46
0.0
 47
0.01
 48
0.01
140
0.15625
141
0.09
142
0.0
143
25.3999999999999986
144
1.0
145
0.0
146
1.0
147
0.09
 71
     1
 72
     0
 73
     1
 74
     1
 75
     0
 76
     0
 77
     0
 78
     4
170
     0
171
     2
172
     0
173
     0
174
     0
175
     0
176
     0
177
     0
178
     0
  0
ENDTAB
  0
ENDSEC
  0
SECTION
  2
BLOCKS
  0
BLOCK
  8
0
  2
$MODEL_SPACE
 70
     0
 10
0.0
 20
0.0
 30
0.0
  3
$MODEL_SPACE
  1

  0
ENDBLK
  5
21
  8
0
  0
BLOCK
 67
     1
  8
0
  2
$PAPER_SPACE
 70
     0
 10
0.0
 20
0.0
 30
0.0
  3
$PAPER_SPACE
  1

  0
ENDBLK
  5
1D
 67
     1
  8
0
  0
BLOCK
  8
0
  2
_FILLED
 70
     0
 10
0.0
 20
0.0
 30
0.0
  3
_FILLED
  1

  0
SOLID
  5
7321
  8
0
  6
BYBLOCK
 62
     0
 10
0.0
 20
0.0
 30
0.0
 11
-1.0
 21
0.1666666667
 31
0.0
 12
-1.0
 22
-0.1666666667
 32
0.0
 13
-1.0
 23
-0.1666666667
 33
0.0
  0
ENDBLK
  5
7322
  8
0
  6
BYBLOCK
 62
     0
  0
ENDSEC
  0
SECTION
  2
ENTITIES
  0
ATTDEF
  5
3930
  8
DEFPOINTS
 10
3328.1320716334571443
 20
233.9590838489677083
 30
0.0
 40
0.001
  1
P25520-CR
  3

  2
MODELNUMBER
 70
     0
1001
ACDBATTR
1070
     0
1070
     1
  0
ATTDEF
  5
3931
  8
DEFPOINTS
 10
3328.1320716334571443
 20
233.9574171823011
 30
0.0
 40
0.001
  1
ONE
  3

  2
TRADENAME
 70
     0
1001
ACDBATTR
1070
     0
1070
     1
  0
ATTDEF
  5
3932
  8
DEFPOINTS
 10
3328.1320716334571443
 20
233.9557505156344064
 30
0.0
 40
0.001
  1
BATH FAUCET
  3

  2
PRODUCT
 70
     0
1001
ACDBATTR
1070
     0
1070
     1
  0
LINE
  5
DF19
  8
0
 10
3325.5098170134260727
 20
233.9617703083283118
 30
0.0
 11
3322.7598170134251632
 21
233.9617703083283118
 31
0.0
  0
LINE
  5
DF1A
  8
0
 10
3322.7598170134251632
 20
233.9617703083283118
 30
0.0
 11
3322.7598170134251632
 21
234.4817703083282936
 31
0.0
  0
ARC
  5
DF1B
  8
0
 10
3322.7698170134249267
 20
234.4817703083282936
 30
0.0
 40
0.0100000000000001
 50
90.0
 51
179.9999999999984084
  0
LINE
  5
DF1C
  8
0
 10
3322.7698170134249267
 20
234.4917703083283129
 30
0.0
 11
3325.49981701332581
 21
234.4917703083283982
 31
0.0
  0
LINE
  5
DF1D
  8
0
 10
3323.7798170134260545
 20
234.4917703083283129
 30
0.0
 11
3323.7798170134260545
 21
235.8137703083282872
 31
0.0
  0
LINE
  5
DF1E
  8
0
 10
3325.5515189501247733
 20
235.8137703083282872
 30
0.0
 11
3322.7181150766250539
 21
235.8137703083282872
 31
0.0
  0
ARC
  5
DF1F
  8
0
 10
3322.7181150766250539
 20
235.8437703083282884
 30
0.0
 40
0.0299999999999992
 50
183.344402822820399
 51
270.0
  0
LINE
  5
DF20
  8
0
 10
3322.6881661694419563
 20
235.842020177328294
 30
0.0
 11
3322.6365286007830946
 21
236.7265414520923912
 31
0.0
  0
ARC
  5
DF21
  8
0
 10
3322.6665286005099915
 20
236.7265377034242135
 30
0.0
 40
0.0299999999616049
 50
92.9051698382258877
 51
179.9928405709472088
  0
ARC
  5
DF22
  8
0
 10
3324.1622490370928062
 20
207.072761309929291
 30
0.0
 40
29.7214740949838294
 50
90.0528822829592457
 51
92.8875388394115333
  0
ARC
  5
DF23
  8
0
 10
3323.9847749984428447
 20
236.7605437763820078
 30
0.0
 40
0.0332412411490523
 50
94.3225644685850426
 51
180.8010300399108985
  0
LINE
  5
DF24
  8
0
 10
3323.9515370058661574
 20
236.7600790586394055
 30
0.0
 11
3323.9983642410247739
 21
235.8422419995283121
 31
0.0
  0
ARC
  5
DF25
  8
0
 10
3324.0289721482549794
 20
235.8441736282474039
 30
0.0
 40
0.030668798061157
 50
183.6110797872117075
 51
262.4557266237902127
  0
LINE
  5
DF26
  8
0
 10
3325.5098170134260727
 20
233.9617703083283118
 30
0.0
 11
3325.5098170134260727
 21
234.4817703083282936
 31
0.0
  0
ARC
  5
DF27
  8
0
 10
3325.4998170134249449
 20
234.4817703083282936
 30
0.0
 40
0.0100000000000001
 50
0.0000000000016284
 51
90.0
  0
LINE
  5
DF28
  8
0
 10
3324.4898170134251814
 20
234.4917703083283129
 30
0.0
 11
3324.4898170134251814
 21
235.8137703083282872
 31
0.0
  0
ARC
  5
DF29
  8
0
 10
3325.5515189502261819
 20
235.8437703083282884
 30
0.0
 40
0.0299999999999992
 50
270.0
 51
356.6555971771795726
  0
LINE
  5
DF2A
  8
0
 10
3325.5814678574088248
 20
235.842020177328294
 30
0.0
 11
3325.6331054260681412
 21
236.7265414520923912
 31
0.0
  0
ARC
  5
DF2B
  8
0
 10
3325.6031054263407896
 20
236.7265377034242135
 30
0.0
 40
0.0299999999616049
 50
0.0071594290528002
 51
87.0948301617740981
  0
ARC
  5
DF2C
  8
0
 10
3324.1073849897570653
 20
207.072761309929291
 30
0.0
 40
29.7214740949838401
 50
87.1124611605884667
 51
89.9471177170407259
  0
ARC
  5
DF2D
  8
0
 10
3324.2848590284079364
 20
236.7605437763820078
 30
0.0
 40
0.0332412411490524
 50
359.1989699600890731
 51
85.6774355314149432
  0
LINE
  5
DF2E
  8
0
 10
3324.3180970209841689
 20
236.7600790586394055
 30
0.0
 11
3324.2712697858250976
 21
235.8422419995283121
 31
0.0
  0
ARC
  5
DF2F
  8
0
 10
3324.2406618785948922
 20
235.8441736282474039
 30
0.0
 40
0.030668798061157
 50
277.5442733762097873
 51
356.3889202127866724
  0
LINE
  5
DF30
  8
0
 10
3329.5098170134260727
 20
233.9617703083283118
 30
0.0
 11
3326.7598170134251632
 21
233.9617703083283118
 31
0.0
  0
LINE
  5
DF31
  8
0
 10
3326.7598170134251632
 20
233.9617703083283118
 30
0.0
 11
3326.7598170134251632
 21
234.4717703083283027
 31
0.0
  0
ARC
  5
DF32
  8
0
 10
3326.7698170134249267
 20
234.4717703083283027
 30
0.0
 40
0.0100000000000001
 50
90.0
 51
179.9999999999984084
  0
LINE
  5
DF33
  8
0
 10
3326.7698170134249267
 20
234.4817703083282936
 30
0.0
 11
3329.49981701332581
 21
234.4817703083282936
 31
0.0
  0
LINE
  5
DF34
  8
0
 10
3329.5098170134260727
 20
233.9617703083283118
 30
0.0
 11
3329.5098170134260727
 21
234.4717703083283027
 31
0.0
  0
ARC
  5
DF35
  8
0
 10
3329.4998170134249449
 20
234.4717703083283027
 30
0.0
 40
0.0100000000000001
 50
0.0000000000016284
 51
90.0
  0
LINE
  5
DF36
  8
0
 10
3327.6048170134249631
 20
234.4817703083282936
 30
0.0
 11
3327.6048170134249631
 21
246.6367703083282947
 31
0.0
  0
ARC
  5
DF37
  8
0
 10
3328.1465814496650637
 20
246.6130961841114981
 30
0.0
 40
0.5422814477111824
 50
91.2430914465087426
 51
177.4978700739447106
  0
LINE
  5
DF38
  8
0
 10
3327.6048170134249631
 20
241.5067703083282993
 30
0.0
 11
3328.664817013425818
 21
241.5067703083282993
 31
0.0
  0
LINE
  5
DF39
  8
0
 10
3329.5098170134260727
 20
233.9617703083283118
 30
0.0
 11
3329.5098170134260727
 21
234.4717703083283027
 31
0.0
  0
ARC
  5
DF3A
  8
0
 10
3329.4998170134249449
 20
234.4717703083283027
 30
0.0
 40
0.0100000000000001
 50
0.0000000000016284
 51
90.0
  0
LINE
  5
DF3B
  8
0
 10
3328.664817013425818
 20
234.4817703083282936
 30
0.0
 11
3328.664817013425818
 21
246.6367703083282947
 31
0.0
  0
ARC
  5
DF3C
  8
0
 10
3328.1275783380438043
 20
246.6177225046128001
 30
0.0
 40
0.5375762393860259
 50
2.0305719898950829
 51
89.2284664896427842
  0
LINE
  5
DF3D
  8
0
 10
3330.7598170134260727
 20
233.9617703083283118
 30
0.0
 11
3333.5098170134251632
 21
233.9617703083283118
 31
0.0
  0
LINE
  5
DF3E
  8
0
 10
3333.5098170134251632
 20
233.9617703083283118
 30
0.0
 11
3333.5098170134251632
 21
234.4817703083282936
 31
0.0
  0
ARC
  5
DF3F
  8
0
 10
3333.4998170134249449
 20
234.4817703083282936
 30
0.0
 40
0.0100000000000001
 50
0.0000000000016284
 51
90.0
  0
LINE
  5
DF40
  8
0
 10
3333.4998170134249449
 20
234.4917703083283129
 30
0.0
 11
3330.7698170135249711
 21
234.4917703083283982
 31
0.0
  0
LINE
  5
DF41
  8
0
 10
3332.4898170134260909
 20
234.4917703083283129
 30
0.0
 11
3332.4898170134260909
 21
235.8137703083282872
 31
0.0
  0
LINE
  5
DF42
  8
0
 10
3330.7181150767250983
 20
235.8137703083282872
 30
0.0
 11
3333.5515189502248177
 21
235.8137703083282872
 31
0.0
  0
ARC
  5
DF43
  8
0
 10
3333.5515189502248177
 20
235.8437703083282884
 30
0.0
 40
0.0299999999999992
 50
270.0
 51
356.6555971771795726
  0
LINE
  5
DF44
  8
0
 10
3333.5814678574088248
 20
235.842020177328294
 30
0.0
 11
3333.6331054260681412
 21
236.7265414520923912
 31
0.0
  0
ARC
  5
DF45
  8
0
 10
3333.6031054263398801
 20
236.7265377034242135
 30
0.0
 40
0.0299999999616049
 50
0.0071594290528002
 51
87.0948301617740981
  0
ARC
  5
DF46
  8
0
 10
3332.1073815304262098
 20
207.0726703871717973
 30
0.0
 40
29.7215650765664385
 50
87.1124633300071167
 51
89.9469950757443542
  0
ARC
  5
DF47
  8
0
 10
3332.284858955531945
 20
236.7605437487648032
 30
0.0
 40
0.0332413136314389
 50
359.1990193133552793
 51
85.6773185373607191
  0
LINE
  5
DF48
  8
0
 10
3332.3180970209841689
 20
236.7600790586394055
 30
0.0
 11
3332.2712697858250976
 21
235.8422419995283121
 31
0.0
  0
ARC
  5
DF49
  8
0
 10
3332.2406618785948922
 20
235.8441736282474039
 30
0.0
 40
0.030668798061157
 50
277.5442733762097873
 51
356.3889202127866724
  0
LINE
  5
DF4A
  8
0
 10
3330.7598170134260727
 20
233.9617703083283118
 30
0.0
 11
3330.7598170134260727
 21
234.4817703083282936
 31
0.0
  0
ARC
  5
DF4B
  8
0
 10
3330.7698170134249267
 20
234.4817703083282936
 30
0.0
 40
0.0100000000000001
 50
90.0
 51
179.9999999999984084
  0
LINE
  5
DF4C
  8
0
 10
3331.779817013425145
 20
234.4917703083283129
 30
0.0
 11
3331.779817013425145
 21
235.8137703083282872
 31
0.0
  0
ARC
  5
DF4D
  8
0
 10
3330.7181150766259634
 20
235.8437703083282884
 30
0.0
 40
0.0299999999999992
 50
183.344402822820399
 51
270.0
  0
LINE
  5
DF4E
  8
0
 10
3330.6881661694419563
 20
235.842020177328294
 30
0.0
 11
3330.6365286007830946
 21
236.7265414520923912
 31
0.0
  0
ARC
  5
DF4F
  8
0
 10
3330.6665286005099915
 20
236.7265377034242135
 30
0.0
 40
0.0299999999616049
 50
92.9051698382258877
 51
179.9928405709472088
  0
ARC
  5
DF50
  8
0
 10
3332.1622455862197967
 20
207.0728520103849064
 30
0.0
 40
29.7213833358470012
 50
90.052759656827206
 51
92.8875410035343378
  0
ARC
  5
DF51
  8
0
 10
3331.9847749257460237
 20
236.760543803931796
 30
0.0
 40
0.0332411688436849
 50
94.322447759751384
 51
180.8010792728730962
  0
LINE
  5
DF52
  8
0
 10
3331.9515370058661574
 20
236.7600790586394055
 30
0.0
 11
3331.9983642410247739
 21
235.8422419995283121
 31
0.0
  0
ARC
  5
DF53
  8
0
 10
3332.0289721482549794
 20
235.8441736282474039
 30
0.0
 40
0.030668798061157
 50
183.6110797872117075
 51
262.4557266237902127
  0
ARC
  5
DF55
  8
0
 10
3323.8702479668331762
 20
236.763364114690404
 30
0.0
 40
0.030003419502331
 50
101.7353042455383019
 51
182.6889161406218136
  0
LINE
  5
DF56
  8
0
 10
3323.8402775820250099
 20
236.761956557828313
 30
0.0
 11
3323.8154351111329561
 21
235.8431361143125002
 31
0.0
  0
ARC
  5
DF57
  8
0
 10
3323.8440499904750141
 20
235.8423462413068989
 30
0.0
 40
0.0286257789258533
 50
178.4188330901280892
 51
266.6182854953156038
  0
ARC
  5
DF58
  8
0
 10
3324.3993860599180152
 20
236.763364114690404
 30
0.0
 40
0.030003419502331
 50
357.3110838593780727
 51
78.2646957544617123
  0
LINE
  5
DF59
  8
0
 10
3324.4293564447261815
 20
236.761956557828313
 30
0.0
 11
3324.4541989156168711
 21
235.8431361143125002
 31
0.0
  0
ARC
  5
DF5A
  8
0
 10
3324.4255840362748131
 20
235.8423462413068989
 30
0.0
 40
0.0286257789258533
 50
273.3817145046843962
 51
1.581166909871891
  0
ARC
  5
DF5B
  8
0
 10
3331.8702479669332206
 20
236.763364114690404
 30
0.0
 40
0.030003419502331
 50
101.7353042455383019
 51
182.6889161406218136
  0
LINE
  5
DF5C
  8
0
 10
3331.8402775821250543
 20
236.761956557828313
 30
0.0
 11
3331.8154351112330005
 21
235.8431361143125002
 31
0.0
  0
ARC
  5
DF5D
  8
0
 10
3331.8440499905750585
 20
235.8423462413068989
 30
0.0
 40
0.0286257789258533
 50
178.4188330901280892
 51
266.6182854953156038
  0
ARC
  5
DF5E
  8
0
 10
3332.3993860600180597
 20
236.763364114690404
 30
0.0
 40
0.030003419502331
 50
357.3110838593780727
 51
78.2646957544613855
  0
LINE
  5
DF5F
  8
0
 10
3332.4293564448248617
 20
236.761956557828313
 30
0.0
 11
3332.454198915717825
 21
235.8431361143125002
 31
0.0
  0
ARC
  5
DF60
  8
0
 10
3332.4255840363748575
 20
235.8423462413068989
 30
0.0
 40
0.0286257789258533
 50
273.3817145046843962
 51
1.581166909871891
  0
ENDSEC
  0
EOF
