  0
SECTION
  2
HEADER
  9
$ACADVER
  1
AC1009
  9
$INSBASE
 10
4492.3008261773966296
 20
156.4285885388736119
 30
0.0
  9
$EXTMIN
 10
4481.9207989590522629
 20
156.4185849425182084
 30
-0.0000000349181948
  9
$EXTMAX
 10
4493.8312023735816183
 20
173.3862387712975135
 30
0.0000000814935746
  9
$LIMMIN
 10
0.0
 20
0.0
  9
$LIMMAX
 10
11.6929133858000007
 20
8.2677165353999982
  9
$ORTHOMODE
 70
     0
  9
$REGENMODE
 70
     1
  9
$FILLMODE
 70
     1
  9
$QTEXTMODE
 70
     0
  9
$MIRRTEXT
 70
     0
  9
$DRAGMODE
 70
     2
  9
$LTSCALE
 40
0.6431102362
  9
$OSMODE
 70
  4095
  9
$ATTMODE
 70
     1
  9
$TEXTSIZE
 40
0.2
  9
$TRACEWID
 40
0.05
  9
$TEXTSTYLE
  7
STANDARD
  9
$CLAYER
  8
0
  9
$CELTYPE
  6
BYLAYER
  9
$CECOLOR
 62
   256
  9
$DIMSCALE
 40
1.0
  9
$DIMASZ
 40
0.1875
  9
$DIMEXO
 40
0.0625
  9
$DIMDLI
 40
0.4443307087
  9
$DIMRND
 40
0.0
  9
$DIMDLE
 40
0.0
  9
$DIMEXE
 40
0.125
  9
$DIMTP
 40
0.01
  9
$DIMTM
 40
0.01
  9
$DIMTXT
 40
2.0
  9
$DIMCEN
 40
0.1052362205
  9
$DIMTSZ
 40
0.0
  9
$DIMTOL
 70
     1
  9
$DIMLIM
 70
     0
  9
$DIMTIH
 70
     1
  9
$DIMTOH
 70
     1
  9
$DIMSE1
 70
     0
  9
$DIMSE2
 70
     0
  9
$DIMTAD
 70
     0
  9
$DIMZIN
 70
     0
  9
$DIMBLK
  1

  9
$DIMASO
 70
     1
  9
$DIMSHO
 70
     1
  9
$DIMPOST
  1
\X
  9
$DIMAPOST
  1

  9
$DIMALT
 70
     1
  9
$DIMALTD
 70
     2
  9
$DIMALTF
 40
25.3999999999999986
  9
$DIMLFAC
 40
1.0
  9
$DIMTOFL
 70
     0
  9
$DIMTVP
 40
0.0
  9
$DIMTIX
 70
     0
  9
$DIMSOXD
 70
     0
  9
$DIMSAH
 70
     0
  9
$DIMBLK1
  1

  9
$DIMBLK2
  1

  9
$DIMSTYLE
  2
STANDARD
  9
$DIMCLRD
 70
     0
  9
$DIMCLRE
 70
     0
  9
$DIMCLRT
 70
     0
  9
$DIMTFAC
 40
1.0
  9
$DIMGAP
 40
0.09
  9
$LUNITS
 70
     2
  9
$LUPREC
 70
     4
  9
$SKETCHINC
 40
0.1
  9
$FILLETRAD
 40
0.0
  9
$AUNITS
 70
     0
  9
$AUPREC
 70
     0
  9
$MENU
  1
.
  9
$ELEVATION
 40
0.0
  9
$PELEVATION
 40
0.0
  9
$THICKNESS
 40
0.0
  9
$LIMCHECK
 70
     0
  9
$BLIPMODE
 70
     0
  9
$CHAMFERA
 40
0.0
  9
$CHAMFERB
 40
0.0
  9
$SKPOLY
 70
     0
  9
$TDCREATE
 40
2458060.468368056230247
  9
$TDUPDATE
 40
2459600.6388541669584811
  9
$TDINDWG
 40
0.402796412
  9
$TDUSRTIMER
 40
0.402796412
  9
$USRTIMER
 70
     1
  9
$ANGBASE
 50
0.0
  9
$ANGDIR
 70
     0
  9
$PDMODE
 70
     0
  9
$PDSIZE
 40
0.3125
  9
$PLINEWID
 40
0.0
  9
$COORDS
 70
     1
  9
$SPLFRAME
 70
     0
  9
$SPLINETYPE
 70
     6
  9
$SPLINESEGS
 70
     8
  9
$ATTDIA
 70
     1
  9
$ATTREQ
 70
     1
  9
$HANDLING
 70
     1
  9
$HANDSEED
  5
C45E
  9
$SURFTAB1
 70
     6
  9
$SURFTAB2
 70
     6
  9
$SURFTYPE
 70
     6
  9
$SURFU
 70
     6
  9
$SURFV
 70
     6
  9
$UCSNAME
  2

  9
$UCSORG
 10
0.0
 20
0.0
 30
0.0
  9
$UCSXDIR
 10
1.0
 20
0.0
 30
0.0
  9
$UCSYDIR
 10
0.0
 20
1.0
 30
0.0
  9
$PUCSNAME
  2

  9
$PUCSORG
 10
0.0
 20
0.0
 30
0.0
  9
$PUCSXDIR
 10
1.0
 20
0.0
 30
0.0
  9
$PUCSYDIR
 10
0.0
 20
1.0
 30
0.0
  9
$USERI1
 70
     0
  9
$USERI2
 70
     0
  9
$USERI3
 70
     0
  9
$USERI4
 70
     0
  9
$USERI5
 70
     0
  9
$USERR1
 40
0.0
  9
$USERR2
 40
0.0
  9
$USERR3
 40
0.0
  9
$USERR4
 40
0.0
  9
$USERR5
 40
0.0
  9
$WORLDVIEW
 70
     1
  9
$SHADEDGE
 70
     3
  9
$SHADEDIF
 70
    70
  9
$TILEMODE
 70
     1
  9
$MAXACTVP
 70
    64
  9
$PLIMCHECK
 70
     0
  9
$PEXTMIN
 10
1.0000000000000000E+20
 20
1.0000000000000000E+20
 30
1.0000000000000000E+20
  9
$PEXTMAX
 10
-1.0000000000000000E+20
 20
-1.0000000000000000E+20
 30
-1.0000000000000000E+20
  9
$PLIMMIN
 10
0.0
 20
0.0
  9
$PLIMMAX
 10
12.0
 20
9.0
  9
$UNITMODE
 70
     0
  9
$VISRETAIN
 70
     1
  9
$PLINEGEN
 70
     0
  9
$PSLTSCALE
 70
     1
  0
ENDSEC
  0
SECTION
  2
TABLES
  0
TABLE
  2
VPORT
 70
     1
  0
VPORT
  2
*ACTIVE
 70
     0
 10
0.0
 20
0.0
 11
1.0
 21
1.0
 12
684.3319332835044406
 22
38.9071496601579412
 13
0.0
 23
0.0
 14
1.0
 24
1.0
 15
0.0
 25
0.0
 16
0.0
 26
0.0
 36
17.1152628219792007
 17
3803.5440673828129547
 27
125.9952621967499056
 37
0.0
 40
17.1198300963019285
 41
2.8398203592814371
 42
50.0
 43
0.0
 44
0.0
 50
0.0
 51
0.0
 71
     0
 72
   100
 73
     1
 74
     1
 75
     0
 76
     0
 77
     0
 78
     0
  0
ENDTAB
  0
TABLE
  2
LTYPE
 70
     2
  0
LTYPE
  2
CONTINUOUS
 70
     0
  3
Solid line
 72
    65
 73
     0
 40
0.0
  0
LTYPE
  2
PHANTOM2
 70
     0
  3
___ _ _ ___ _ _ ___ _ _ ___ _ _
 72
    65
 73
     6
 40
1.25
 49
0.625
 49
-0.125
 49
0.125
 49
-0.125
 49
0.125
 49
-0.125
  0
ENDTAB
  0
TABLE
  2
LAYER
 70
     2
  0
LAYER
  2
0
 70
     0
 62
   255
  6
CONTINUOUS
  0
LAYER
  2
DEFPOINTS
 70
     0
 62
     7
  6
CONTINUOUS
  0
ENDTAB
  0
TABLE
  2
STYLE
 70
     1
  0
STYLE
  2
STANDARD
 70
     0
 40
0.0
 41
0.8
 50
0.0
 71
     0
 42
0.2
  3
txt
  4

  0
ENDTAB
  0
TABLE
  2
VIEW
 70
     0
  0
ENDTAB
  0
TABLE
  2
UCS
 70
     0
  0
ENDTAB
  0
TABLE
  2
APPID
 70
     9
  0
APPID
  2
ACAD
 70
     0
  0
APPID
  2
ACAD_MLEADERVER
 70
     0
  0
APPID
  2
ACAD_EXEMPT_FROM_CAD_STANDARDS
 70
     0
  0
APPID
  2
ACAD_NAV_VCDISPLAY
 70
     0
  0
APPID
  2
ACAECLAYERSTANDARD
 70
     0
  0
APPID
  2
ACCMTRANSPARENCY
 70
     0
  0
APPID
  2
ACAD_DSTYLE_DIMJAG
 70
     0
  0
APPID
  2
ACAD_DSTYLE_DIMTALN
 70
     0
  0
APPID
  2
ACDBATTR
 70
     0
  0
ENDTAB
  0
TABLE
  2
DIMSTYLE
 70
     1
  0
DIMSTYLE
  2
STANDARD
 70
     0
  3

  4

  5

  6

  7

 40
1.0
 41
0.1875
 42
0.0625
 43
0.38
 44
0.125
 45
0.0
 46
0.0
 47
0.01
 48
0.01
140
0.15625
141
0.09
142
0.0
143
25.3999999999999986
144
1.0
145
0.0
146
1.0
147
0.09
 71
     1
 72
     0
 73
     1
 74
     1
 75
     0
 76
     0
 77
     0
 78
     4
170
     0
171
     2
172
     0
173
     0
174
     0
175
     0
176
     0
177
     0
178
     0
  0
ENDTAB
  0
ENDSEC
  0
SECTION
  2
BLOCKS
  0
BLOCK
  8
0
  2
$MODEL_SPACE
 70
     0
 10
0.0
 20
0.0
 30
0.0
  3
$MODEL_SPACE
  1

  0
ENDBLK
  5
21
  8
0
  0
BLOCK
 67
     1
  8
0
  2
$PAPER_SPACE
 70
     0
 10
0.0
 20
0.0
 30
0.0
  3
$PAPER_SPACE
  1

  0
ENDBLK
  5
1D
 67
     1
  8
0
  0
ENDSEC
  0
SECTION
  2
ENTITIES
  0
ATTDEF
  5
3930
  8
DEFPOINTS
 10
4492.2960526296310491
 20
156.4349063019894004
 30
0.0
 40
0.001
  1
P25516-00
  3

  2
MODELNUMBER
 70
     0
1001
ACDBATTR
1070
     0
1070
     1
  0
ATTDEF
  5
3931
  8
DEFPOINTS
 10
4492.2960526296310491
 20
156.4332396353227068
 30
0.0
 40
0.001
  1

  3

  2
TRADENAME
 70
     0
1001
ACDBATTR
1070
     0
1070
     1
  0
ATTDEF
  5
3932
  8
DEFPOINTS
 10
4492.2960526296310491
 20
156.4315729686560132
 30
0.0
 40
0.001
  1
KITCHEN SINK FAUCET
  3

  2
PRODUCT
 70
     0
1001
ACDBATTR
1070
     0
1070
     1
  0
LINE
  5
C2C5
  8
0
 10
4490.9258261774475613
 20
156.7285885388735096
 30
0.0
 11
4490.9258261774475613
 21
156.4285885388734982
 31
0.0
  0
LINE
  5
C2C6
  8
0
 10
4491.0158261774477069
 20
156.8085885388736074
 30
0.0
 11
4491.0158261774477069
 21
156.7285885388735096
 31
0.0
  0
LINE
  5
C2C7
  8
0
 10
4491.0958261774467246
 20
156.8885885388735062
 30
0.0
 11
4491.0958261774467246
 21
156.8085885388736074
 31
0.0
  0
LINE
  5
C2C8
  8
0
 10
4491.2383261774466519
 20
161.7285885388735096
 30
0.0
 11
4491.2383261774466519
 21
156.8885885388735062
 31
0.0
  0
LINE
  5
C2C9
  8
0
 10
4491.3758261774473795
 20
161.8085885388736074
 30
0.0
 11
4491.3758261774473795
 21
161.7285885388735096
 31
0.0
  0
LINE
  5
C2CA
  8
0
 10
4491.4558261774473067
 20
161.8885885388735062
 30
0.0
 11
4491.4558261774473067
 21
161.8085885388736074
 31
0.0
  0
LINE
  5
C2CB
  8
0
 10
4490.9258261774475613
 20
156.7285885388735096
 30
0.0
 11
4493.6758261773466074
 21
156.7285885388735096
 31
0.0
  0
LINE
  5
C2CC
  8
0
 10
4491.0158261774477069
 20
156.8085885388736074
 30
0.0
 11
4493.5858261773473714
 21
156.8085885388736074
 31
0.0
  0
LINE
  5
C2CD
  8
0
 10
4491.0958261774467246
 20
156.8885885388735062
 30
0.0
 11
4493.5058261773474442
 21
156.8885885388735062
 31
0.0
  0
LINE
  5
C2CE
  8
0
 10
4491.2383261774466519
 20
161.7285885388735096
 30
0.0
 11
4492.176646028497089
 21
161.7285885388735096
 31
0.0
  0
LINE
  5
C2CF
  8
0
 10
4492.9260457882974151
 20
161.7285885388735096
 30
0.0
 11
4493.3633261773466074
 21
161.7285885388735096
 31
0.0
  0
LINE
  5
C2D0
  8
0
 10
4491.3758261774473795
 20
161.8085885388736074
 30
0.0
 11
4492.176646028497089
 21
161.8085885388736074
 31
0.0
  0
LINE
  5
C2D1
  8
0
 10
4492.9260457882974151
 20
161.8085885388736074
 30
0.0
 11
4493.2258261773467893
 21
161.8085885388736074
 31
0.0
  0
LINE
  5
C2D2
  8
0
 10
4491.4558261774473067
 20
161.8885885388735062
 30
0.0
 11
4492.176646028497089
 21
161.8885885388735062
 31
0.0
  0
LINE
  5
C2D3
  8
0
 10
4492.9260457882974151
 20
161.8885885388735062
 30
0.0
 11
4493.1458261773477716
 21
161.8885885388735062
 31
0.0
  0
LINE
  5
C2D4
  8
0
 10
4490.9258261774475613
 20
156.4285885388734982
 30
0.0
 11
4493.6758261773466074
 21
156.4285885388736119
 31
0.0
  0
LINE
  5
C2D5
  8
0
 10
4491.7683261774473067
 20
161.9185885388735073
 30
0.0
 11
4492.176646028497089
 21
161.9185885388735073
 31
0.0
  0
LINE
  5
C2D6
  8
0
 10
4491.7383261774466519
 20
161.9485885388735085
 30
0.0
 11
4491.7383261774466519
 21
168.2606642962205967
 31
0.0
  0
LINE
  5
C2D7
  8
0
 10
4491.7483261774468701
 20
161.8985885388736108
 30
0.0
 11
4491.7483261774468701
 21
161.8885885388735062
 31
0.0
  0
ARC
  5
C2D8
  8
0
 10
4491.7683261774473067
 20
161.8985885388736108
 30
0.0
 40
0.02
 50
90.0
 51
180.0
  0
ARC
  5
C2D9
  8
0
 10
4491.7683261774473067
 20
161.9485885388735085
 30
0.0
 40
0.03
 50
180.0000000000065086
 51
270.0
  0
LINE
  5
C2DA
  8
0
 10
4493.6758261773466074
 20
156.7285885388735096
 30
0.0
 11
4493.6758261773466074
 21
156.4285885388734982
 31
0.0
  0
LINE
  5
C2DB
  8
0
 10
4493.5858261773473714
 20
156.8085885388736074
 30
0.0
 11
4493.5858261773473714
 21
156.7285885388735096
 31
0.0
  0
LINE
  5
C2DC
  8
0
 10
4493.5058261773474442
 20
156.8885885388735062
 30
0.0
 11
4493.5058261773474442
 21
156.8085885388736074
 31
0.0
  0
LINE
  5
C2DD
  8
0
 10
4493.3633261773466074
 20
161.7285885388735096
 30
0.0
 11
4493.3633261773466074
 21
160.3472734220389952
 31
0.0
  0
LINE
  5
C2DE
  8
0
 10
4493.3633261773466074
 20
159.1799036557081024
 30
0.0
 11
4493.3633261773466074
 21
156.8885885388735062
 31
0.0
  0
LINE
  5
C2DF
  8
0
 10
4493.2258261773467893
 20
161.8085885388736074
 30
0.0
 11
4493.2258261773467893
 21
161.7285885388735096
 31
0.0
  0
LINE
  5
C2E0
  8
0
 10
4493.1458261773477716
 20
161.8885885388735062
 30
0.0
 11
4493.1458261773477716
 21
161.8085885388736074
 31
0.0
  0
LINE
  5
C2E1
  8
0
 10
4492.8633261773484264
 20
163.0835885388736131
 30
0.0
 11
4492.8633261773484264
 21
168.2520923014060088
 31
0.0
  0
ARC
  5
C2E2
  8
0
 10
4492.5513459083977068
 20
159.7635885388735062
 30
0.0
 40
1.0
 50
112.0057648010506028
 51
67.9942351989493403
  0
ARC
  5
C2E3
  8
0
 10
4492.5513459083977068
 20
159.7635885388735062
 30
0.0
 40
0.8749992125999987
 50
115.3552089918109971
 51
64.6447910081890029
  0
ARC
  5
C2E4
  8
0
 10
4492.5513459083977068
 20
159.7635885388735062
 30
0.0
 40
0.7499992125999988
 50
119.9735638404198994
 51
60.0264361595800722
  0
ARC
  5
C2E5
  8
0
 10
4492.5513459083977068
 20
159.7635885388735062
 30
0.0
 40
0.3350000000000008
 50
180.0
 51
0.0
  0
LINE
  5
C2E6
  8
0
 10
4492.749933980597234
 20
160.193588538873513
 30
0.0
 11
4492.7470459637970635
 21
160.193588538873513
 31
0.0
  0
LINE
  5
C2E7
  8
0
 10
4492.693403051196583
 20
160.193588538873513
 30
0.0
 11
4492.6808791515977646
 21
160.193588538873513
 31
0.0
  0
LINE
  5
C2E8
  8
0
 10
4492.6314129454976865
 20
160.193588538873513
 30
0.0
 11
4492.6097677124962502
 21
160.193588538873513
 31
0.0
  0
LINE
  5
C2E9
  8
0
 10
4492.5663459083971247
 20
160.193588538873513
 30
0.0
 11
4492.5363459083973794
 21
160.193588538873513
 31
0.0
  0
LINE
  5
C2EA
  8
0
 10
4492.492957367397139
 20
160.193588538873513
 30
0.0
 11
4492.4712788712977272
 21
160.193588538873513
 31
0.0
  0
LINE
  5
C2EB
  8
0
 10
4492.421812665197649
 20
160.193588538873513
 30
0.0
 11
4492.4092887655970117
 21
160.193588538873513
 31
0.0
  0
LINE
  5
C2EC
  8
0
 10
4492.3556458529974407
 20
160.193588538873513
 30
0.0
 11
4492.3527578360972257
 21
160.193588538873513
 31
0.0
  0
LINE
  5
C2ED
  8
0
 10
4492.176646028497089
 20
160.193588538873513
 30
0.0
 11
4492.9260457882974151
 21
160.193588538873513
 31
0.0
  0
LINE
  5
C2EE
  8
0
 10
4492.176646028497089
 20
162.9835885388735051
 30
0.0
 11
4492.9260457882974151
 21
162.9835885388735051
 31
0.0
  0
LINE
  5
C2EF
  8
0
 10
4492.8713458645970604
 20
163.0835885388736131
 30
0.0
 11
4492.2313459521974437
 21
163.0835885388736131
 31
0.0
  0
LINE
  5
C2F0
  8
0
 10
4492.176646028497089
 20
160.193588538873513
 30
0.0
 11
4492.176646028497089
 21
162.9835885388735051
 31
0.0
  0
LINE
  5
C2F1
  8
0
 10
4492.1809194267971179
 20
162.9835885388735051
 30
0.0
 11
4492.1809194267971179
 21
160.193588538873513
 31
0.0
  0
LINE
  5
C2F2
  8
0
 10
4492.1867721363969395
 20
160.193588538873513
 30
0.0
 11
4492.1867721363969395
 21
162.9835885388735051
 31
0.0
  0
LINE
  5
C2F3
  8
0
 10
4492.1994281069983117
 20
162.9835885388735051
 30
0.0
 11
4492.1994281069983117
 21
160.193588538873513
 31
0.0
  0
LINE
  5
C2F4
  8
0
 10
4492.2109086099972046
 20
160.193588538873513
 30
0.0
 11
4492.2109086099972046
 21
162.9835885388735051
 31
0.0
  0
LINE
  5
C2F5
  8
0
 10
4492.2113459083966518
 20
163.0635885388734891
 30
0.0
 11
4492.2113459083966518
 21
162.9835885388735051
 31
0.0
  0
LINE
  5
C2F6
  8
0
 10
4492.2314607909966071
 20
162.9835885388735051
 30
0.0
 11
4492.2314607909966071
 21
160.193588538873513
 31
0.0
  0
LINE
  5
C2F7
  8
0
 10
4492.2481278979967101
 20
160.193588538873513
 30
0.0
 11
4492.2481278979967101
 21
162.9835885388735051
 31
0.0
  0
LINE
  5
C2F8
  8
0
 10
4492.2757864806972066
 20
162.9835885388735051
 30
0.0
 11
4492.2757864806972066
 21
160.193588538873513
 31
0.0
  0
LINE
  5
C2F9
  8
0
 10
4492.2969996840965905
 20
160.193588538873513
 30
0.0
 11
4492.2969996840965905
 21
162.9835885388735051
 31
0.0
  0
LINE
  5
C2FA
  8
0
 10
4492.3307017645965971
 20
162.9835885388735051
 30
0.0
 11
4492.3307017645965971
 21
160.193588538873513
 31
0.0
  0
LINE
  5
C2FB
  8
0
 10
4492.3527578360972257
 20
160.193588538873513
 30
0.0
 11
4492.3527578360972257
 21
162.9835885388735051
 31
0.0
  0
LINE
  5
C2FC
  8
0
 10
4492.3556458529974407
 20
160.193588538873513
 30
0.0
 11
4492.3556458529974407
 21
162.9835885388735051
 31
0.0
  0
LINE
  5
C2FD
  8
0
 10
4492.3940962792967184
 20
162.9835885388735051
 30
0.0
 11
4492.3940962792967184
 21
160.193588538873513
 31
0.0
  0
LINE
  5
C2FE
  8
0
 10
4492.4092887655970117
 20
160.193588538873513
 30
0.0
 11
4492.4092887655970117
 21
162.9835885388735051
 31
0.0
  0
LINE
  5
C2FF
  8
0
 10
4492.421812665197649
 20
160.193588538873513
 30
0.0
 11
4492.421812665197649
 21
162.9835885388735051
 31
0.0
  0
LINE
  5
C300
  8
0
 10
4492.4635338089974539
 20
162.9835885388735051
 30
0.0
 11
4492.4635338089974539
 21
160.193588538873513
 31
0.0
  0
LINE
  5
C301
  8
0
 10
4492.4712788712977272
 20
160.193588538873513
 30
0.0
 11
4492.4712788712977272
 21
162.9835885388735051
 31
0.0
  0
LINE
  5
C302
  8
0
 10
4492.492957367397139
 20
160.193588538873513
 30
0.0
 11
4492.492957367397139
 21
162.9835885388735051
 31
0.0
  0
LINE
  5
C303
  8
0
 10
4492.5363459083973794
 20
162.9835885388735051
 30
0.0
 11
4492.5363459083973794
 21
160.193588538873513
 31
0.0
  0
LINE
  5
C304
  8
0
 10
4492.5663459083971247
 20
160.193588538873513
 30
0.0
 11
4492.5663459083971247
 21
162.9835885388735051
 31
0.0
  0
LINE
  5
C305
  8
0
 10
4492.6097344493982746
 20
162.9835885388735051
 30
0.0
 11
4492.6097344493982746
 21
160.193588538873513
 31
0.0
  0
LINE
  5
C306
  8
0
 10
4492.6314129454976865
 20
160.193588538873513
 30
0.0
 11
4492.6314129454976865
 21
162.9835885388735051
 31
0.0
  0
LINE
  5
C307
  8
0
 10
4492.6391580077961407
 20
160.193588538873513
 30
0.0
 11
4492.6391580077961407
 21
162.9835885388735051
 31
0.0
  0
LINE
  5
C308
  8
0
 10
4492.6808791515977646
 20
162.9835885388735051
 30
0.0
 11
4492.6808791515977646
 21
160.193588538873513
 31
0.0
  0
LINE
  5
C309
  8
0
 10
4492.693403051196583
 20
160.193588538873513
 30
0.0
 11
4492.693403051196583
 21
162.9835885388735051
 31
0.0
  0
LINE
  5
C30A
  8
0
 10
4492.7085955374968762
 20
160.193588538873513
 30
0.0
 11
4492.7085955374968762
 21
162.9835885388735051
 31
0.0
  0
LINE
  5
C30B
  8
0
 10
4492.7470459637970635
 20
162.9835885388735051
 30
0.0
 11
4492.7470459637970635
 21
160.193588538873513
 31
0.0
  0
LINE
  5
C30C
  8
0
 10
4492.749933980597234
 20
160.193588538873513
 30
0.0
 11
4492.749933980597234
 21
162.9835885388735051
 31
0.0
  0
LINE
  5
C30D
  8
0
 10
4492.7719900521960881
 20
160.193588538873513
 30
0.0
 11
4492.7719900521960881
 21
162.9835885388735051
 31
0.0
  0
LINE
  5
C30E
  8
0
 10
4492.8056921326970041
 20
162.9835885388735051
 30
0.0
 11
4492.8056921326970041
 21
160.193588538873513
 31
0.0
  0
LINE
  5
C30F
  8
0
 10
4492.8269053360972975
 20
160.193588538873513
 30
0.0
 11
4492.8269053360972975
 21
162.9835885388735051
 31
0.0
  0
LINE
  5
C310
  8
0
 10
4492.854563918795975
 20
162.9835885388735051
 30
0.0
 11
4492.854563918795975
 21
160.193588538873513
 31
0.0
  0
LINE
  5
C311
  8
0
 10
4492.8712310257969875
 20
160.193588538873513
 30
0.0
 11
4492.8712310257969875
 21
162.9835885388735051
 31
0.0
  0
LINE
  5
C312
  8
0
 10
4492.8913459083969428
 20
163.0635885388734891
 30
0.0
 11
4492.8913459083969428
 21
162.9835885388735051
 31
0.0
  0
LINE
  5
C313
  8
0
 10
4492.8917832067972995
 20
162.9835885388735051
 30
0.0
 11
4492.8917832067972995
 21
160.193588538873513
 31
0.0
  0
LINE
  5
C314
  8
0
 10
4492.9032637097971019
 20
160.193588538873513
 30
0.0
 11
4492.9032637097971019
 21
162.9835885388735051
 31
0.0
  0
LINE
  5
C315
  8
0
 10
4492.9159196802984297
 20
162.9835885388735051
 30
0.0
 11
4492.9159196802984297
 21
160.193588538873513
 31
0.0
  0
LINE
  5
C316
  8
0
 10
4492.9217723899973862
 20
160.193588538873513
 30
0.0
 11
4492.9217723899973862
 21
162.9835885388735051
 31
0.0
  0
LINE
  5
C317
  8
0
 10
4492.9260457882974151
 20
162.9835885388735051
 30
0.0
 11
4492.9260457882974151
 21
160.193588538873513
 31
0.0
  0
ARC
  5
C318
  8
0
 10
4492.2313459083970884
 20
163.0635885388734891
 30
0.0
 40
0.02
 50
89.999874469792104
 51
180.0
  0
ARC
  5
C319
  8
0
 10
4492.8713459083974158
 20
163.0635885388734891
 30
0.0
 40
0.02
 50
0.0
 51
90.000125530207896
  0
LINE
  5
C31A
  8
0
 10
4492.2163459083967609
 20
160.193588538873513
 30
0.0
 11
4492.2163459083967609
 21
159.7635885388735062
 31
0.0
  0
LINE
  5
C31B
  8
0
 10
4492.8863459083977432
 20
160.193588538873513
 30
0.0
 11
4492.8863459083977432
 21
159.7635885388735062
 31
0.0
  0
LINE
  5
C31C
  8
0
 10
4483.9356993756728116
 20
169.0072754001338922
 30
0.0
 11
4483.8605097147974448
 21
168.5808536432749918
 31
0.0
  0
LINE
  5
C31D
  8
0
 10
4482.8277906535586226
 20
169.2026295999569072
 30
0.0
 11
4482.7526009926923507
 21
168.7762078431464943
 31
0.0
  0
ARC
  5
C31E
  8
0
 10
4476.186303566708375
 20
166.913728364642111
 30
0.0
 40
7.6465616173043269
 50
349.8773067416929052
 51
353.7195846940334718
  0
LINE
  5
C31F
  8
0
 10
4482.7394498304984154
 20
168.7095277486301086
 30
0.0
 11
4482.1333218009103803
 21
165.8499371700164886
 31
0.0
  0
ARC
  5
C320
  8
0
 10
4487.8074089614938202
 20
168.3245885388695058
 30
0.0
 40
3.9314369469037702
 50
359.0683430087003103
 51
170.0000000005690879
  0
ARC
  5
C321
  8
0
 10
4487.8074089614965487
 20
168.3245885388735132
 30
0.0
 40
5.0564369469000026
 50
359.1784984561219858
 51
170.0000000001371916
  0
LINE
  5
C322
  8
0
 10
4482.7769357799534191
 20
168.7414541652275091
 30
0.0
 11
4483.817628396524924
 21
168.5579519782968134
 31
0.0
  0
ARC
  5
C323
  8
0
 10
4482.7821452252819654
 20
168.7709983978178911
 30
0.0
 40
0.03
 50
170.0000000026450948
 51
259.999999999730278
  0
ARC
  5
C324
  8
0
 10
4483.8309654822069206
 20
168.5860630886037086
 30
0.0
 40
0.03
 50
259.9999999997303917
 51
350.0000000026242901
  0
ARC
  5
C325
  8
0
 10
4488.2494119835091624
 20
167.8858423557439892
 30
0.0
 40
4.4442749849185157
 50
171.8785022524477881
 51
175.0488510284133099
  0
ARC
  5
C326
  8
0
 10
4483.8108040231418272
 20
168.519249033603387
 30
0.0
 40
0.0393
 50
351.8785022524479018
 51
79.9999999997304627
  0
ARC
  5
C327
  8
0
 10
4482.777895664145035
 20
168.7013786458992115
 30
0.0
 40
0.0393
 50
79.9999999997304627
 51
168.0325302911157905
  0
LINE
  5
C328
  8
0
 10
4482.164943261173903
 20
165.8030851225921083
 30
0.0
 11
4483.668323474897079
 21
165.5379986287045142
 31
0.0
  0
ARC
  5
C329
  8
0
 10
4482.1717676345560903
 20
165.8417880672857052
 30
0.0
 40
0.0393
 50
168.0325302911109873
 51
260.0000000020062885
  0
ARC
  5
C32A
  8
0
 10
4483.6751478482783568
 20
165.5767015733981111
 30
0.0
 40
0.0393
 50
260.0000000020061748
 51
349.8773067416992717
  0
ARC
  5
C32B
  8
0
 10
4483.8038867923060025
 20
168.270521981353113
 30
0.0
 40
0.017867912061233
 50
305.586270583482019
 51
356.4367460028208257
  0
ARC
  5
C32C
  8
0
 10
4484.231236835650634
 20
167.9249462710978946
 30
0.0
 40
0.5323906485983142
 50
141.5517096187969059
 51
210.4518390668193888
  0
ARC
  5
C32D
  8
0
 10
4483.7598745207224056
 20
167.6444191397455938
 30
0.0
 40
0.0163901583703297
 50
354.3364886911057852
 51
40.7744629451700504
  0
ARC
  5
C32E
  8
0
 10
4490.4677465316435701
 20
167.3299852562925025
 30
0.0
 40
6.6988696223508404
 50
177.3234917311336005
 51
180.0757181780884082
  0
ARC
  5
C32F
  8
0
 10
4483.7519542851878214
 20
167.321468915190593
 30
0.0
 40
0.0169318162925988
 50
309.7301854926229225
 51
358.8614971019949849
  0
ARC
  5
C330
  8
0
 10
4484.2069696483249572
 20
167.0574029438027992
 30
0.0
 40
0.5102261100052273
 50
150.5261904024876003
 51
184.3432493242571866
  0
ARC
  5
C331
  8
0
 10
4471.2233729690142354
 20
166.0039258480998114
 30
0.0
 40
12.5160466007816709
 50
2.7609164175993408
 51
4.6508116872461054
  0
ARC
  5
C332
  8
0
 10
4479.2054217700633671
 20
166.4232376069602992
 30
0.0
 40
4.5231959263901746
 50
359.8103372486168041
 51
2.325895755319936
  0
ARC
  5
C333
  8
0
 10
4484.647070349274145
 20
166.409253733860794
 30
0.0
 40
0.918477967103724
 50
180.0616926271914053
 51
200.4369149772668095
  0
ARC
  5
C334
  8
0
 10
4483.7583354571843302
 20
166.0814612854096879
 30
0.0
 40
0.0289481670425214
 50
351.6074749464788169
 51
14.1610497169796297
  0
ARC
  5
C335
  8
0
 10
4483.7653392683150742
 20
166.183678703836506
 30
0.0
 40
0.0413441714492868
 50
273.9709611009243986
 51
358.7245639150478951
  0
ARC
  5
C336
  8
0
 10
4484.2988530476914093
 20
166.2227558564080994
 30
0.0
 40
0.4938023892233365
 50
168.2279888312590117
 51
184.6459814136134128
  0
ARC
  5
C337
  8
0
 10
4512.7772221155219086
 20
158.8099543992171903
 30
0.0
 40
29.9205345226990787
 50
164.9521591989320086
 51
165.4563972919623893
  0
ARC
  5
C338
  8
0
 10
4483.8371349400158579
 20
166.589703888993597
 30
0.0
 40
0.0470042890287696
 50
345.6921398746122236
 51
18.6392247731461183
  0
ARC
  5
C339
  8
0
 10
4483.5734505094569613
 20
166.5656790599061878
 30
0.0
 40
0.3106869071537279
 50
7.2201472651753971
 51
13.5221377525829691
  0
ARC
  5
C33A
  8
0
 10
4483.9305746432892192
 20
166.6502711699498036
 30
0.0
 40
0.0563310395013119
 50
167.7554297758971131
 51
192.2445702240979983
  0
ARC
  5
C33B
  8
0
 10
4462.5889022728852069
 20
171.067262919042804
 30
0.0
 40
21.7376339434329502
 50
348.3082667148623273
 51
349.7094374403213806
  0
ARC
  5
C33C
  8
0
 10
4483.9383270628031823
 20
167.1918495628954133
 30
0.0
 40
0.0393293263006557
 50
348.5596339206978769
 51
77.8248627286678669
  0
ARC
  5
C33D
  8
0
 10
4517.8534567387396237
 20
323.7472416401478768
 30
0.0
 40
160.1475203644627072
 50
257.7028843485209109
 51
257.776685102438023
  0
ARC
  5
C33E
  8
0
 10
4482.4698517507431461
 20
167.8085364326936997
 30
0.0
 40
1.388432869089457
 50
337.3051941225991754
 51
339.2101374399331917
  0
ARC
  5
C33F
  8
0
 10
4480.2249310085680918
 20
165.285472160468089
 30
0.0
 40
3.6508735242165069
 50
12.6977494437328708
 51
13.5875183859472095
  0
LINE
  5
C340
  8
0
 10
4483.8502018356357439
 20
167.6651413085292006
 30
0.0
 11
4483.7578008610507823
 21
167.6814340934390088
 31
0.0
  0
LINE
  5
C341
  8
0
 10
4483.9462157884554472
 20
168.2078954175105139
 30
0.0
 11
4483.7977817132314158
 21
168.2340683498323983
 31
0.0
  0
ARC
  5
C342
  8
0
 10
4474.8661007573018651
 20
169.5349803711640106
 30
0.0
 40
9.2072090693275221
 50
348.4396138997282719
 51
351.4883180517093137
  0
ARC
  5
C343
  8
0
 10
4483.9407458708592458
 20
168.1768739732906965
 30
0.0
 40
0.0315
 50
351.4883180517028904
 51
79.9999999988836237
  0
ARC
  5
C344
  8
0
 10
4483.8556717532483162
 20
167.6961627527464032
 30
0.0
 40
0.0315
 50
259.9999999720027972
 51
348.4396138997234971
  0
ARC
  5
C345
  8
0
 10
4517.7865367452859573
 20
323.1543667170308254
 30
0.0
 40
160.1475203644627072
 50
257.718799171395176
 51
257.77515618654121
  0
LINE
  5
C346
  8
0
 10
4482.494338239105673
 20
165.6562060427717995
 30
0.0
 11
4483.3075193213417151
 21
165.5128202777835895
 31
0.0
  0
ARC
  5
C347
  8
0
 10
4482.45700099815258
 20
165.470979659975086
 30
0.0
 40
0.2097065818643369
 50
75.047961155371965
 51
93.0948029245281958
  0
ARC
  5
C348
  8
0
 10
4482.4995941603929168
 20
165.8811414432105948
 30
0.0
 40
0.2078745000198087
 50
254.9677610847066944
 51
273.1750029952008276
  0
ARC
  5
C349
  8
0
 10
4482.4901805888757735
 20
165.7899540652952908
 30
0.0
 40
0.1149967122989391
 50
255.0998968764284029
 51
273.1105943647003187
  0
ARC
  5
C34A
  8
0
 10
4482.4668091899638966
 20
165.5635910283685064
 30
0.0
 40
0.1153995948708235
 50
75.1315963937214377
 51
93.078894847388284
  0
ARC
  5
C34B
  8
0
 10
4482.5382799038179655
 20
165.5266389922971939
 30
0.0
 40
0.1419783072026574
 50
70.028155372589822
 51
96.7438300437589476
  0
ARC
  5
C34C
  8
0
 10
4482.5708247430284246
 20
165.8073148164029078
 30
0.0
 40
0.1480973141090683
 50
250.5896448907089962
 51
276.1823405256996011
  0
ARC
  5
C34D
  8
0
 10
4482.5452899569190777
 20
165.5864285310530875
 30
0.0
 40
0.0800676106493818
 50
70.3180835696597342
 51
96.3011838629897454
  0
ARC
  5
C34E
  8
0
 10
4482.5633750297320148
 20
165.7406031306620946
 30
0.0
 40
0.0792838232657639
 50
250.1873693598516013
 51
276.4318980728010047
  0
ARC
  5
C34F
  8
0
 10
4482.640813718334357
 20
165.5474284002015111
 30
0.0
 40
0.1054646115626088
 50
64.1654872169646211
 51
100.6122991022571966
  0
ARC
  5
C350
  8
0
 10
4482.6681368584713709
 20
165.7519034434475032
 30
0.0
 40
0.1111246657045205
 50
245.1237095238462871
 51
279.6540767953612772
  0
ARC
  5
C351
  8
0
 10
4482.6616354887009948
 20
165.7033327066143897
 30
0.0
 40
0.0596963220626284
 50
244.8385654108103893
 51
279.9315625603981061
  0
ARC
  5
C352
  8
0
 10
4482.6463820248009142
 20
165.5892401938226044
 30
0.0
 40
0.0609084635119003
 50
65.1987454090731831
 51
99.5713825621844535
  0
ARC
  5
C353
  8
0
 10
4482.7581540120945647
 20
165.5483728342925076
 30
0.0
 40
0.0862578201203326
 50
58.3451576380973265
 51
103.6508725372186035
  0
ARC
  5
C354
  8
0
 10
4482.783990019383964
 20
165.7114583978759015
 30
0.0
 40
0.0917423552768306
 50
239.7674405276401046
 51
282.228589647655383
  0
ARC
  5
C355
  8
0
 10
4482.777759956446971
 20
165.6709928899618944
 30
0.0
 40
0.0478733834533284
 50
239.0008857719058994
 51
283.0053447355642788
  0
ARC
  5
C356
  8
0
 10
4482.7642320548611679
 20
165.5855510141632863
 30
0.0
 40
0.0457791066636111
 50
57.9377131500243223
 51
104.0685173574352973
  0
ARC
  5
C357
  8
0
 10
4482.3984232328421058
 20
165.32185495117551
 30
0.0
 40
0.366293878796466
 50
82.723652651460327
 51
89.9409814839282262
  0
ARC
  5
C358
  8
0
 10
4482.4689771193434353
 20
166.0663448095062904
 30
0.0
 40
0.384651918216147
 50
259.4879812198922195
 51
266.4729952371866943
  0
ARC
  5
C359
  8
0
 10
4482.41137148712005
 20
165.4510615082859886
 30
0.0
 40
0.2357073252845833
 50
81.8059213369468665
 51
89.4250622118803165
  0
ARC
  5
C35A
  8
0
 10
4482.4546378852528505
 20
165.9121351860086975
 30
0.0
 40
0.2290583802044369
 50
259.7140083942260844
 51
267.6288660188238282
  0
ARC
  5
C35B
  8
0
 10
4482.4076535318899914
 20
165.7884542793169942
 30
0.0
 40
0.0998792767770994
 50
260.7651629913107172
 51
264.6855443037454734
  0
ARC
  5
C35C
  8
0
 10
4482.3933988517010221
 20
165.700781021221303
 30
0.0
 40
0.0110547526161288
 50
187.1371811241212981
 51
260.7651629913104898
  0
LINE
  5
C35D
  8
0
 10
4482.3824297566143287
 20
165.6994075189759883
 30
0.0
 11
4482.3695322666981156
 21
165.7670105609695099
 31
0.0
  0
LINE
  5
C35E
  8
0
 10
4482.3988005401679402
 20
165.6881486356460016
 30
0.0
 11
4482.3844978972047102
 21
165.7643717165281885
 31
0.0
  0
LINE
  5
C35F
  8
0
 10
4482.4456793090039355
 20
165.680380399782905
 30
0.0
 11
4482.4321399468999516
 21
165.7559711377525105
 31
0.0
  0
LINE
  5
C360
  8
0
 10
4482.5216073262972714
 20
165.6676349669735089
 30
0.0
 11
4482.5092084219013486
 21
165.7423818862507119
 31
0.0
  0
LINE
  5
C361
  8
0
 10
4482.6213911083541461
 20
165.6510891281249087
 30
0.0
 11
4482.6104499617349575
 21
165.7245302712132116
 31
0.0
  0
LINE
  5
C362
  8
0
 10
4482.5867737778025912
 20
165.6600788060790137
 30
0.0
 11
4482.6115514445718873
 21
165.7171366989078933
 31
0.0
  0
LINE
  5
C363
  8
0
 10
4482.6867723841469342
 20
165.6423525031927966
 30
0.0
 11
4482.7150474787613348
 21
165.7060869068504019
 31
0.0
  0
LINE
  5
C364
  8
0
 10
4482.7377967337106384
 20
165.6321940293966861
 30
0.0
 11
4482.729242133873413
 21
165.7035840061726901
 31
0.0
  0
LINE
  5
C365
  8
0
 10
4482.8034221955904286
 20
165.6217976468215909
 30
0.0
 11
4482.8333364856243861
 21
165.6852293634233035
 31
0.0
  0
LINE
  5
C366
  8
0
 10
4482.5111074766473394
 20
165.6735860257738864
 30
0.0
 11
4482.51790615810296
 21
165.6899474964862975
 31
0.0
  0
LINE
  5
C367
  8
0
 10
4482.9608782411878565
 20
165.662740310755197
 30
0.0
 11
4482.8566334148972601
 21
165.6811214862736108
 31
0.0
  0
ARC
  5
C368
  8
0
 10
4483.2627306521535502
 20
165.3267271174028963
 30
0.0
 40
0.209706581864337
 50
66.6045525640527671
 51
84.6513943332888772
  0
ARC
  5
C369
  8
0
 10
4483.36508723561019
 20
165.7261892504263017
 30
0.0
 40
0.2078745000198088
 50
246.5243524934462869
 51
264.7315944039240208
  0
ARC
  5
C36A
  8
0
 10
4483.3422789690212085
 20
165.6373999706964071
 30
0.0
 40
0.1149967122989392
 50
246.588761123948899
 51
264.599458612170622
  0
ARC
  5
C36B
  8
0
 10
4483.2856628583658676
 20
165.4169888484996136
 30
0.0
 40
0.1153995948708236
 50
66.6204606412400864
 51
84.5677590948773314
  0
ARC
  5
C36C
  8
0
 10
4483.2058111770593314
 20
165.4071285796750885
 30
0.0
 40
0.1419783072026574
 50
62.9555254448741408
 51
89.6712001160069292
  0
ARC
  5
C36D
  8
0
 10
4483.2726672705848614
 20
165.6816615422771974
 30
0.0
 40
0.1480973141090684
 50
243.5170149629574894
 51
269.1097105979296771
  0
ARC
  5
C36E
  8
0
 10
4483.2199803065559536
 20
165.4656364044373902
 30
0.0
 40
0.0800676106493818
 50
63.3981716256398116
 51
89.381271918954937
  0
ARC
  5
C36F
  8
0
 10
4483.2565088791998278
 20
165.6165090010339895
 30
0.0
 40
0.0792838232657639
 50
243.267457415811009
 51
269.5119861287748222
  0
ARC
  5
C370
  8
0
 10
4483.1168590532670351
 20
165.4622003716654035
 30
0.0
 40
0.1054646115626088
 50
59.0870563863568421
 51
95.5338682716779033
  0
ARC
  5
C371
  8
0
 10
4483.1621749287078273
 20
165.6634541138178065
 30
0.0
 40
0.1111246657045205
 50
240.0452786932700064
 51
274.5756459647736278
  0
ARC
  5
C372
  8
0
 10
4483.1514210334426025
 20
165.6156447212046032
 30
0.0
 40
0.0596963220626284
 50
239.767792928190687
 51
274.860790077779086
  0
ARC
  5
C373
  8
0
 10
4483.1261430649619797
 20
165.5033469298392959
 30
0.0
 40
0.0609084635119003
 50
60.1279729264430429
 51
94.5006100795090163
  0
ARC
  5
C374
  8
0
 10
4483.0071350159269059
 20
165.5037969114918042
 30
0.0
 40
0.0862578201203326
 50
56.0484829514311826
 51
101.3541978505108005
  0
ARC
  5
C375
  8
0
 10
4483.0394857282472003
 20
165.6657161250965942
 30
0.0
 40
0.0917423552768306
 50
237.4707658409593876
 51
279.931914960983022
  0
ARC
  5
C376
  8
0
 10
4483.0312894567532567
 20
165.6256026342421137
 30
0.0
 40
0.0478733834533284
 50
236.694010753095597
 51
280.698469716676982
  0
ARC
  5
C377
  8
0
 10
4483.0143333388850806
 20
165.5407745237588983
 30
0.0
 40
0.0457791066636111
 50
55.6308381311562172
 51
101.7616423385919973
  0
ARC
  5
C378
  8
0
 10
4483.2659316101426157
 20
165.1665419519491138
 30
0.0
 40
0.366293878796466
 50
69.7583740046909782
 51
76.9757028371634675
  0
ARC
  5
C379
  8
0
 10
4483.4580581046147927
 20
165.8892662494372132
 30
0.0
 40
0.3846519182161472
 50
253.2263602514487957
 51
260.2113742687262175
  0
ARC
  5
C37A
  8
0
 10
4483.2986153604906576
 20
165.2922151955312131
 30
0.0
 40
0.2357073252845834
 50
70.2742932767161363
 51
77.8934341516791307
  0
ARC
  5
C37B
  8
0
 10
4483.4180042144971594
 20
165.7396604089767038
 30
0.0
 40
0.229058380204437
 50
252.0704894697913971
 51
259.9853470944077003
  0
ARC
  5
C37C
  8
0
 10
4483.4191595154497918
 20
165.6073608949157006
 30
0.0
 40
0.0998792767770995
 50
255.0138111848912956
 51
258.9341924973193159
  0
ARC
  5
C37D
  8
0
 10
4483.4021108627457579
 20
165.5201878512991129
 30
0.0
 40
0.0110547526161288
 50
258.9341924973196001
 51
332.5621743645011179
  0
LINE
  5
C37E
  8
0
 10
4483.4119220814536675
 20
165.515093978225508
 30
0.0
 11
4483.4490638556999329
 21
165.5766600153407921
 31
0.0
  0
LINE
  5
C37F
  8
0
 10
4483.3926619417907204
 20
165.5102142212469971
 30
0.0
 11
4483.4340585544687201
 21
165.5793058548009071
 31
0.0
  0
LINE
  5
C380
  8
0
 10
4483.345999886257232
 20
165.5191929198958007
 30
0.0
 11
4483.386297981586722
 21
165.5877273324124133
 31
0.0
  0
LINE
  5
C381
  8
0
 10
4483.2703661558307431
 20
165.5335821064421964
 30
0.0
 11
4483.3090491783686957
 21
165.6013483806443958
 31
0.0
  0
LINE
  5
C382
  8
0
 10
4483.1710399242683707
 20
165.5526836160233017
 30
0.0
 11
4483.2075896628139162
 21
165.6192384306824863
 31
0.0
  0
LINE
  5
C383
  8
0
 10
4483.2066259350604014
 20
165.5491045490697104
 30
0.0
 11
4483.2031833514647587
 21
165.611214810080412
 31
0.0
  0
LINE
  5
C384
  8
0
 10
4483.1066886654971313
 20
165.5671734515701132
 30
0.0
 11
4483.10221517266109
 21
165.6378187963711071
 31
0.0
  0
LINE
  5
C385
  8
0
 10
4483.0553092478794497
 20
165.5753486753253014
 30
0.0
 11
4483.0885574392650597
 21
165.6402270232636909
 31
0.0
  0
LINE
  5
C386
  8
0
 10
4482.9901531240229815
 20
165.5883665684573884
 30
0.0
 11
4482.9840684796408823
 21
165.6586512460276026
 31
0.0
  0
LINE
  5
C387
  8
0
 10
4483.2822785049029335
 20
165.5355206324605888
 30
0.0
 11
4483.2815786734472567
 21
165.5532245876495949
 31
0.0
  0
LINE
  5
C388
  8
0
 10
4483.4626959499282748
 20
165.5742563093253068
 30
0.0
 11
4483.4228402420976636
 21
165.5074010352734888
 31
0.0
  0
LINE
  5
C389
  8
0
 10
4483.4228402420976636
 20
165.5074010352734888
 30
0.0
 11
4483.4080548132697004
 21
165.5108670676644067
 31
0.0
  0
ARC
  5
C38A
  8
0
 10
4482.9103524295805983
 20
165.682891354632801
 30
0.0
 40
0.0857050835994062
 50
237.5368065258813033
 51
282.7325333113038823
  0
ARC
  5
C38B
  8
0
 10
4482.8854862468087958
 20
165.5399037539008873
 30
0.0
 40
0.0737680756101735
 50
53.619083244637153
 51
106.6502565925503063
  0
ARC
  5
C38C
  8
0
 10
4482.9033705137553625
 20
165.6434307175121887
 30
0.0
 40
0.0423722142719734
 50
234.9904963573256111
 51
285.2331078711691816
  0
ARC
  5
C38D
  8
0
 10
4482.8898211137047838
 20
165.5657016253938139
 30
0.0
 40
0.0443489518497891
 50
56.1822207099794184
 51
104.0413835185290026
  0
LINE
  5
C38E
  8
0
 10
4482.9292418377590366
 20
165.599293797171697
 30
0.0
 11
4482.9677018957809196
 21
165.6615371163435952
 31
0.0
  0
LINE
  5
C38F
  8
0
 10
4482.8566334148972601
 20
165.6811214862736108
 30
0.0
 11
4482.8643495654287108
 21
165.6105788533309919
 31
0.0
  0
LINE
  5
C390
  8
0
 10
4483.3190962100961769
 20
165.5208889198684972
 30
0.0
 11
4483.3195439835562865
 21
165.5233651395548975
 31
0.0
  0
LINE
  5
C391
  8
0
 10
4482.4862191602924213
 20
165.6677476153386976
 30
0.0
 11
4482.4872307852692757
 21
165.6736349259296901
 31
0.0
  0
ARC
  5
C392
  8
0
 10
4482.4960747208833709
 20
165.6660541203019932
 30
0.0
 40
0.01
 50
170.2500000100197894
 51
260.0000000007888161
  0
ARC
  5
C393
  8
0
 10
4483.309255803117594
 20
165.5226683553138116
 30
0.0
 40
0.01
 50
260.0000000007891003
 51
349.750000055308476
  0
LINE
  5
C395
  8
0
 10
4492.0158103223975559
 20
161.8988945540241104
 30
0.0
 11
4492.0156526140972346
 21
161.8885885388735062
 31
0.0
  0
LINE
  5
C396
  8
0
 10
4491.9718314771871519
 20
161.9185885388735073
 30
0.0
 11
4491.9718928474057975
 21
161.8885885388735062
 31
0.0
  0
LINE
  5
C397
  8
0
 10
4491.9718839468823717
 20
161.8929394388968888
 30
0.0
 11
4491.9781502742989687
 21
161.9185885388735073
 31
0.0
  0
ARC
  5
C398
  8
0
 10
4492.0358079811294374
 20
161.8985885388736108
 30
0.0
 40
0.02
 50
90.0
 51
179.1232969600673073
  0
ENDSEC
  0
EOF
