  0
SECTION
  2
HEADER
  9
$ACADVER
  1
AC1009
  9
$INSBASE
 10
3273.3548897558371209
 20
149.6436348354187089
 30
0.0
  9
$EXTMIN
 10
3269.7125623368301603
 20
147.3076977616192096
 30
-0.0000000000112498
  9
$EXTMAX
 10
3276.9632516219157878
 20
149.6483435514408029
 30
0.0000000000002956
  9
$LIMMIN
 10
0.0
 20
0.0
  9
$LIMMAX
 10
11.6929133858000007
 20
8.2677165353999982
  9
$ORTHOMODE
 70
     0
  9
$REGENMODE
 70
     1
  9
$FILLMODE
 70
     1
  9
$QTEXTMODE
 70
     0
  9
$MIRRTEXT
 70
     0
  9
$DRAGMODE
 70
     2
  9
$LTSCALE
 40
0.6431102362
  9
$OSMODE
 70
     7
  9
$ATTMODE
 70
     1
  9
$TEXTSIZE
 40
0.2
  9
$TRACEWID
 40
0.05
  9
$TEXTSTYLE
  7
STANDARD
  9
$CLAYER
  8
0
  9
$CELTYPE
  6
BYLAYER
  9
$CECOLOR
 62
   256
  9
$DIMSCALE
 40
1.0
  9
$DIMASZ
 40
0.1875
  9
$DIMEXO
 40
0.0625
  9
$DIMDLI
 40
0.4443307087
  9
$DIMRND
 40
0.0
  9
$DIMDLE
 40
0.0
  9
$DIMEXE
 40
0.125
  9
$DIMTP
 40
0.01
  9
$DIMTM
 40
0.01
  9
$DIMTXT
 40
2.0
  9
$DIMCEN
 40
0.1052362205
  9
$DIMTSZ
 40
0.0
  9
$DIMTOL
 70
     1
  9
$DIMLIM
 70
     0
  9
$DIMTIH
 70
     1
  9
$DIMTOH
 70
     1
  9
$DIMSE1
 70
     0
  9
$DIMSE2
 70
     0
  9
$DIMTAD
 70
     0
  9
$DIMZIN
 70
     0
  9
$DIMBLK
  1

  9
$DIMASO
 70
     1
  9
$DIMSHO
 70
     1
  9
$DIMPOST
  1
\X
  9
$DIMAPOST
  1

  9
$DIMALT
 70
     1
  9
$DIMALTD
 70
     2
  9
$DIMALTF
 40
25.3999999999999986
  9
$DIMLFAC
 40
1.0
  9
$DIMTOFL
 70
     0
  9
$DIMTVP
 40
0.0
  9
$DIMTIX
 70
     0
  9
$DIMSOXD
 70
     0
  9
$DIMSAH
 70
     0
  9
$DIMBLK1
  1

  9
$DIMBLK2
  1

  9
$DIMSTYLE
  2
STANDARD
  9
$DIMCLRD
 70
     0
  9
$DIMCLRE
 70
     0
  9
$DIMCLRT
 70
     0
  9
$DIMTFAC
 40
1.0
  9
$DIMGAP
 40
0.09
  9
$LUNITS
 70
     2
  9
$LUPREC
 70
     4
  9
$SKETCHINC
 40
0.1
  9
$FILLETRAD
 40
0.0
  9
$AUNITS
 70
     0
  9
$AUPREC
 70
     0
  9
$MENU
  1
.
  9
$ELEVATION
 40
0.0
  9
$PELEVATION
 40
0.0
  9
$THICKNESS
 40
0.0
  9
$LIMCHECK
 70
     0
  9
$BLIPMODE
 70
     0
  9
$CHAMFERA
 40
0.0
  9
$CHAMFERB
 40
0.0
  9
$SKPOLY
 70
     0
  9
$TDCREATE
 40
2458060.468368056230247
  9
$TDUPDATE
 40
2459609.3868634258396924
  9
$TDINDWG
 40
2.0611528935000001
  9
$TDUSRTIMER
 40
2.0611528935000001
  9
$USRTIMER
 70
     1
  9
$ANGBASE
 50
0.0
  9
$ANGDIR
 70
     0
  9
$PDMODE
 70
     0
  9
$PDSIZE
 40
0.3125
  9
$PLINEWID
 40
0.0
  9
$COORDS
 70
     1
  9
$SPLFRAME
 70
     0
  9
$SPLINETYPE
 70
     6
  9
$SPLINESEGS
 70
     8
  9
$ATTDIA
 70
     1
  9
$ATTREQ
 70
     1
  9
$HANDLING
 70
     1
  9
$HANDSEED
  5
2D158
  9
$SURFTAB1
 70
     6
  9
$SURFTAB2
 70
     6
  9
$SURFTYPE
 70
     6
  9
$SURFU
 70
     6
  9
$SURFV
 70
     6
  9
$UCSNAME
  2

  9
$UCSORG
 10
0.0
 20
0.0
 30
0.0
  9
$UCSXDIR
 10
1.0
 20
0.0
 30
0.0
  9
$UCSYDIR
 10
0.0
 20
1.0
 30
0.0
  9
$PUCSNAME
  2

  9
$PUCSORG
 10
0.0
 20
0.0
 30
0.0
  9
$PUCSXDIR
 10
1.0
 20
0.0
 30
0.0
  9
$PUCSYDIR
 10
0.0
 20
1.0
 30
0.0
  9
$USERI1
 70
     0
  9
$USERI2
 70
     0
  9
$USERI3
 70
     0
  9
$USERI4
 70
     0
  9
$USERI5
 70
     0
  9
$USERR1
 40
0.0
  9
$USERR2
 40
0.0
  9
$USERR3
 40
0.0
  9
$USERR4
 40
0.0
  9
$USERR5
 40
0.0
  9
$WORLDVIEW
 70
     1
  9
$SHADEDGE
 70
     3
  9
$SHADEDIF
 70
    70
  9
$TILEMODE
 70
     1
  9
$MAXACTVP
 70
    64
  9
$PLIMCHECK
 70
     0
  9
$PEXTMIN
 10
1.0000000000000000E+20
 20
1.0000000000000000E+20
 30
1.0000000000000000E+20
  9
$PEXTMAX
 10
-1.0000000000000000E+20
 20
-1.0000000000000000E+20
 30
-1.0000000000000000E+20
  9
$PLIMMIN
 10
0.0
 20
0.0
  9
$PLIMMAX
 10
12.0
 20
9.0
  9
$UNITMODE
 70
     0
  9
$VISRETAIN
 70
     1
  9
$PLINEGEN
 70
     0
  9
$PSLTSCALE
 70
     1
  0
ENDSEC
  0
SECTION
  2
TABLES
  0
TABLE
  2
VPORT
 70
     1
  0
VPORT
  2
*ACTIVE
 70
     0
 10
0.0
 20
0.0
 11
1.0
 21
1.0
 12
9.9488688934352467
 22
-3.2436819191535728
 13
0.0
 23
0.0
 14
1.0
 24
1.0
 15
0.0
 25
0.0
 16
0.0
 26
0.0
 36
92.3385285193394054
 17
3263.3890380859379547
 27
151.7217025756835938
 37
0.0
 40
3.1856926192234059
 41
2.2831541218637992
 42
50.0
 43
0.0
 44
0.0
 50
0.0
 51
0.0
 71
     0
 72
   100
 73
     1
 74
     1
 75
     0
 76
     0
 77
     0
 78
     0
  0
ENDTAB
  0
TABLE
  2
LTYPE
 70
     2
  0
LTYPE
  2
CONTINUOUS
 70
     0
  3
Solid line
 72
    65
 73
     0
 40
0.0
  0
LTYPE
  2
PHANTOM2
 70
     0
  3
___ _ _ ___ _ _ ___ _ _ ___ _ _
 72
    65
 73
     6
 40
1.25
 49
0.625
 49
-0.125
 49
0.125
 49
-0.125
 49
0.125
 49
-0.125
  0
ENDTAB
  0
TABLE
  2
LAYER
 70
     2
  0
LAYER
  2
0
 70
     0
 62
   255
  6
CONTINUOUS
  0
LAYER
  2
DEFPOINTS
 70
     0
 62
     7
  6
CONTINUOUS
  0
ENDTAB
  0
TABLE
  2
STYLE
 70
     1
  0
STYLE
  2
STANDARD
 70
     0
 40
0.0
 41
0.8
 50
0.0
 71
     0
 42
0.2
  3
txt
  4

  0
ENDTAB
  0
TABLE
  2
VIEW
 70
     0
  0
ENDTAB
  0
TABLE
  2
UCS
 70
     0
  0
ENDTAB
  0
TABLE
  2
APPID
 70
    10
  0
APPID
  2
ACAD
 70
     0
  0
APPID
  2
ACAD_MLEADERVER
 70
     0
  0
APPID
  2
ACAD_EXEMPT_FROM_CAD_STANDARDS
 70
     0
  0
APPID
  2
ACAD_NAV_VCDISPLAY
 70
     0
  0
APPID
  2
ACAECLAYERSTANDARD
 70
     0
  0
APPID
  2
ACCMTRANSPARENCY
 70
     0
  0
APPID
  2
ACAD_DSTYLE_DIMJAG
 70
     0
  0
APPID
  2
ACAD_DSTYLE_DIMTALN
 70
     0
  0
APPID
  2
ACDBATTR
 70
     0
  0
APPID
  2
ACADANNOTATIVE
 70
     0
  0
ENDTAB
  0
TABLE
  2
DIMSTYLE
 70
     1
  0
DIMSTYLE
  2
STANDARD
 70
     0
  3

  4

  5

  6

  7

 40
1.0
 41
0.1875
 42
0.0625
 43
0.38
 44
0.125
 45
0.0
 46
0.0
 47
0.01
 48
0.01
140
0.15625
141
0.09
142
0.0
143
25.3999999999999986
144
1.0
145
0.0
146
1.0
147
0.09
 71
     1
 72
     0
 73
     1
 74
     1
 75
     0
 76
     0
 77
     0
 78
     4
170
     0
171
     2
172
     0
173
     0
174
     0
175
     0
176
     0
177
     0
178
     0
  0
ENDTAB
  0
ENDSEC
  0
SECTION
  2
BLOCKS
  0
BLOCK
  8
0
  2
$MODEL_SPACE
 70
     0
 10
0.0
 20
0.0
 30
0.0
  3
$MODEL_SPACE
  1

  0
ENDBLK
  5
21
  8
0
  0
BLOCK
 67
     1
  8
0
  2
$PAPER_SPACE
 70
     0
 10
0.0
 20
0.0
 30
0.0
  3
$PAPER_SPACE
  1

  0
ENDBLK
  5
1D
 67
     1
  8
0
  0
ENDSEC
  0
SECTION
  2
ENTITIES
  0
ATTDEF
  5
2143C
  8
DEFPOINTS
 10
3273.3550094517017897
 20
149.6470830331716968
 30
0.0
 40
0.001
  1
P25336-ULB
  3

  2
MODELNUMBER
 70
     0
1001
ACDBATTR
1070
     0
1070
     1
  0
ATTDEF
  5
2143D
  8
DEFPOINTS
 10
3273.3550094517017897
 20
149.6454163665050885
 30
0.0
 40
0.001
  1
PINNA PALETTA
  3

  2
TRADENAME
 70
     0
1001
ACDBATTR
1070
     0
1070
     1
  0
ATTDEF
  5
2143E
  8
DEFPOINTS
 10
3273.3550094517017897
 20
149.6437496998383949
 30
0.0
 40
0.001
  1
TOWEL RING
  3

  2
PRODUCT
 70
     0
1001
ACDBATTR
1070
     0
1070
     1
  0
LINE
  5
2CE4E
  8
0
 10
3269.9448897558381759
 20
147.8523475598186963
 30
0.0
 11
3273.0537282411378328
 21
147.8523475598186963
 31
0.0
  0
LINE
  5
2CE4F
  8
0
 10
3273.6560512705368637
 20
147.8523475598186963
 30
0.0
 11
3276.7648897558369754
 21
147.8523475598186963
 31
0.0
  0
LINE
  5
2CE50
  8
0
 10
3269.9448897558381759
 20
147.478331559818713
 30
0.0
 11
3273.0537282411378328
 21
147.478331559818713
 31
0.0
  0
LINE
  5
2CE51
  8
0
 10
3273.6560512705368637
 20
147.478331559818713
 30
0.0
 11
3276.7648897558369754
 21
147.478331559818713
 31
0.0
  0
ARC
  5
2CE52
  8
0
 10
3269.9448897558381759
 20
147.6653395598187046
 30
0.0
 40
0.1870079999999987
 50
90.0
 51
270.0
  0
LINE
  5
2CE53
  8
0
 10
3272.3170551101379715
 20
149.6436348354187089
 30
0.0
 11
3274.3927244015380893
 21
149.6436348354187089
 31
0.0
  0
LINE
  5
2CE54
  8
0
 10
3272.2340236140380512
 20
149.6176348354186985
 30
0.0
 11
3274.4757558976380096
 21
149.6176348354186985
 31
0.0
  0
LINE
  5
2CE55
  8
0
 10
3272.2205701582370239
 20
149.3231086285186962
 30
0.0
 11
3274.4892093534381274
 21
149.3231086285186962
 31
0.0
  0
LINE
  5
2CE56
  8
0
 10
3272.3300234682001246
 20
149.230634835418698
 30
0.0
 11
3274.3797560434859406
 21
149.230634835418698
 31
0.0
  0
LINE
  5
2CE57
  8
0
 10
3272.486247620237009
 20
149.1062809080187037
 30
0.0
 11
3274.2235318914381423
 21
149.1062809080187037
 31
0.0
  0
LINE
  5
2CE58
  8
0
 10
3272.5674141845120175
 20
149.0333986149186956
 30
0.0
 11
3274.1423653271808689
 21
149.0333986149186956
 31
0.0
  0
LINE
  5
2CE59
  8
0
 10
3272.2970551101370802
 20
149.6176348354186985
 30
0.0
 11
3272.2970551101370802
 21
149.6236348354181871
 31
0.0
  0
ARC
  5
2CE5A
  8
0
 10
3272.317055110137062
 20
149.6236348354186987
 30
0.0
 40
0.0200000000000014
 50
89.9999999966128428
 51
180.0
  0
LINE
  5
2CE5B
  8
0
 10
3272.2140236140371599
 20
149.5976348354182903
 30
0.0
 11
3272.2140236140371599
 21
149.337907429790107
 31
0.0
  0
ARC
  5
2CE5C
  8
0
 10
3272.2340236140371417
 20
149.5976348354186882
 30
0.0
 40
0.0200000000000014
 50
89.9999999970557667
 51
180.0
  0
LINE
  5
2CE5D
  8
0
 10
3272.220570157954171
 20
149.3231086287765947
 30
0.0
 11
3272.3165700121157897
 21
149.2358360340296031
 31
0.0
  0
ARC
  5
2CE5E
  8
0
 10
3272.2340236134291445
 20
149.337907429790107
 30
0.0
 40
0.0199999993915885
 50
179.9999996316963973
 51
227.7263120743945137
  0
ARC
  5
2CE5F
  8
0
 10
3272.3300234681892107
 20
149.2506348356953936
 30
0.0
 40
0.0200000002767515
 50
227.7263114370284995
 51
270.0000000329857812
  0
LINE
  5
2CE60
  8
0
 10
3272.4803897558381323
 20
149.2106348354186878
 30
0.0
 11
3272.4803897558381323
 21
149.1204230435747888
 31
0.0
  0
LINE
  5
2CE61
  8
0
 10
3272.486247620148788
 20
149.10628090810701
 30
0.0
 11
3272.5532720490209613
 21
149.0392564792348935
 31
0.0
  0
ARC
  5
2CE62
  8
0
 10
3272.5003897556171069
 20
149.1204230435747888
 30
0.0
 40
0.0199999997795466
 50
179.9999998743851108
 51
225.000000357748803
  0
ARC
  5
2CE63
  8
0
 10
3272.4603897558367862
 20
149.2106348354186878
 30
0.0
 40
0.0200000000000049
 50
0.0
 51
90.0
  0
ARC
  5
2CE64
  8
0
 10
3272.5674141844929181
 20
149.0533986146982102
 30
0.0
 40
0.0199999997795597
 50
224.999999642277686
 51
270.0000000523186259
  0
LINE
  5
2CE66
  8
0
 10
3273.7093897558379467
 20
148.1129840802196895
 30
0.0
 11
3273.7093897558379467
 21
147.8523475598186963
 31
0.0
  0
LINE
  5
2CE67
  8
0
 10
3273.0003897558381141
 20
147.8523475598186963
 30
0.0
 11
3273.0003897558381141
 21
148.1129840802196895
 31
0.0
  0
LINE
  5
2CE68
  8
0
 10
3272.9968804224781707
 20
148.1226258943707137
 30
0.0
 11
3272.9548990891380527
 21
148.172657299118697
 31
0.0
  0
ARC
  5
2CE69
  8
0
 10
3272.9853897558427889
 20
148.1129840802196895
 30
0.0
 40
0.0149999999943802
 50
359.9999999961926846
 51
40.0000002858093424
  0
LINE
  5
2CE6A
  8
0
 10
3272.9513897558372264
 20
148.2408395598187099
 30
0.0
 11
3272.9513897558372264
 21
148.1822991134297069
 31
0.0
  0
ARC
  5
2CE6B
  8
0
 10
3272.9663897558380086
 20
148.2408395598187099
 30
0.0
 40
0.0150000000000006
 50
90.0
 51
180.0000000000065086
  0
ARC
  5
2CE6C
  8
0
 10
3272.9663897564660147
 20
148.1822991134297069
 30
0.0
 40
0.0150000006294899
 50
180.000000423965389
 51
219.9999988086090923
  0
LINE
  5
2CE6D
  8
0
 10
3272.9548990891380527
 20
148.172657299118697
 30
0.0
 11
3273.7548804225370986
 21
148.172657299118697
 31
0.0
  0
LINE
  5
2CE6E
  8
0
 10
3273.0003897558381141
 20
148.1129840802186948
 30
0.0
 11
3273.7093897558379467
 21
148.1129840802186948
 31
0.0
  0
LINE
  5
2CE6F
  8
0
 10
3273.7128990891969806
 20
148.1226258943707137
 30
0.0
 11
3273.7548804225370986
 21
148.172657299118697
 31
0.0
  0
ARC
  5
2CE70
  8
0
 10
3273.7243897558319077
 20
148.1129840802196895
 30
0.0
 40
0.0149999999943802
 50
139.9999997141906078
 51
180.0000000038056953
  0
LINE
  5
2CE71
  8
0
 10
3273.7583897558370154
 20
148.2408395598187099
 30
0.0
 11
3273.7583897558370154
 21
148.1822991134297069
 31
0.0
  0
ARC
  5
2CE72
  8
0
 10
3273.7433897558380522
 20
148.2408395598187099
 30
0.0
 40
0.0150000000000006
 50
359.9999999999935199
 51
90.0
  0
ARC
  5
2CE73
  8
0
 10
3273.7433897552082271
 20
148.1822991134297069
 30
0.0
 40
0.0150000006294899
 50
320.0000011913908224
 51
359.999999576034611
  0
LINE
  5
2CE74
  8
0
 10
3274.4127244015380711
 20
149.6176348354186985
 30
0.0
 11
3274.4127244015380711
 21
149.6236348354181871
 31
0.0
  0
ARC
  5
2CE75
  8
0
 10
3274.3927244015380893
 20
149.6236348354186987
 30
0.0
 40
0.0200000000000014
 50
0.0
 51
90.0000000033871714
  0
LINE
  5
2CE76
  8
0
 10
3274.4957558976379914
 20
149.5976348354182903
 30
0.0
 11
3274.4957558976379914
 21
149.337907429790107
 31
0.0
  0
ARC
  5
2CE77
  8
0
 10
3274.4757558976380096
 20
149.5976348354186882
 30
0.0
 40
0.0200000000000014
 50
0.0
 51
90.0000000029181848
  0
LINE
  5
2CE78
  8
0
 10
3274.4892093537209803
 20
149.3231086287765947
 30
0.0
 11
3274.3932094995589068
 21
149.2358360340296031
 31
0.0
  0
ARC
  5
2CE79
  8
0
 10
3274.4757558982460068
 20
149.337907429790107
 30
0.0
 40
0.0199999993915885
 50
312.2736879256053726
 51
0.0000003683035503
  0
ARC
  5
2CE7A
  8
0
 10
3274.3797560434859406
 20
149.2506348356953936
 30
0.0
 40
0.0200000002767515
 50
269.9999999670142188
 51
312.273688562971472
  0
LINE
  5
2CE7B
  8
0
 10
3274.229389755837019
 20
149.2106348354186878
 30
0.0
 11
3274.229389755837019
 21
149.1204230435747888
 31
0.0
  0
LINE
  5
2CE7C
  8
0
 10
3274.2235318915259086
 20
149.10628090810701
 30
0.0
 11
3274.15650746265419
 21
149.0392564792348935
 31
0.0
  0
ARC
  5
2CE7D
  8
0
 10
3274.2093897560580444
 20
149.1204230435747888
 30
0.0
 40
0.0199999997795466
 50
314.9999996422512822
 51
0.000000125614913
  0
ARC
  5
2CE7E
  8
0
 10
3274.2493897558370008
 20
149.2106348354186878
 30
0.0
 40
0.0200000000000049
 50
90.0
 51
180.0
  0
ARC
  5
2CE7F
  8
0
 10
3274.1423653271808689
 20
149.0533986146982102
 30
0.0
 40
0.0199999997795597
 50
269.9999999476813741
 51
315.0000003577222856
  0
ARC
  5
2CE80
  8
0
 10
3276.7648897558369754
 20
147.6653395598187046
 30
0.0
 40
0.1870079999999987
 50
270.0
 51
90.0
  0
CIRCLE
  5
2CE81
  8
0
 10
3273.3548897558371209
 20
147.6653395598187046
 30
0.0
 40
0.2798933982262248
  0
CIRCLE
  5
2CE82
  8
0
 10
3273.3548897558371209
 20
147.6653395598187046
 30
0.0
 40
0.3544999999999989
  0
LINE
  5
2CE83
  8
0
 10
3273.7583897558370154
 20
148.2558395598186962
 30
0.0
 11
3272.9513897558372264
 21
148.2558395598186962
 31
0.0
  0
LINE
  5
2CE84
  8
0
 10
3273.7583897558370154
 20
149.0333986149186956
 30
0.0
 11
3272.9513897558372264
 21
149.0333986149186956
 31
0.0
  0
LINE
  5
2CE85
  8
0
 10
3272.9513897558372264
 20
149.0333986149186956
 30
0.0
 11
3272.9513897558372264
 21
148.4239916952132035
 31
0.0
  0
LINE
  5
2CE86
  8
0
 10
3272.9513897558372264
 20
148.281015467667487
 30
0.0
 11
3272.9513897558372264
 21
148.2558395598186962
 31
0.0
  0
ARC
  5
2CE87
  8
0
 10
3279.7494744973901106
 20
148.4840384612840012
 30
0.0
 40
6.7983499297583281
 50
180.506074420987801
 51
181.9235977298613989
  0
ARC
  5
2CE88
  8
0
 10
3273.7476168083258017
 20
148.2458417157295969
 30
0.0
 40
0.7970035833926454
 50
175.2798489422523005
 51
177.4705730987029142
  0
ARC
  5
2CE89
  8
0
 10
3279.3345423344208029
 20
148.5784640618367973
 30
0.0
 40
6.3789218942288644
 50
180.4073877856536114
 51
182.8990654688720952
  0
ARC
  5
2CE8A
  8
0
 10
3279.8295861942801821
 20
148.7497507301866904
 30
0.0
 40
6.8772176216113561
 50
180.9617792718194949
 51
184.118440178635808
  0
ARC
  5
2CE8B
  8
0
 10
3288.2166204336258488
 20
148.9120868738501997
 30
0.0
 40
15.2658103204269597
 50
180.4992973208892977
 51
181.0425983711901949
  0
ARC
  5
2CE8C
  8
0
 10
3276.9779653262980901
 20
148.6818243751237105
 30
0.0
 40
4.0156745093512409
 50
184.5681629577827891
 51
186.0894231462386017
  0
ARC
  5
2CE8D
  8
0
 10
3279.3307043800527936
 20
148.8404501599449929
 30
0.0
 40
6.3736405190481813
 50
180.7628934975261927
 51
184.3051104802659097
  0
ARC
  5
2CE8E
  8
0
 10
3233.3497774745910647
 20
148.3433498279449054
 30
0.0
 40
39.6099965908753404
 50
0.5963118966620247
 51
0.9982046628413591
  0
ARC
  5
2CE8F
  8
0
 10
3277.4635239303747767
 20
148.8369263586158127
 30
0.0
 40
4.503768180800475
 50
183.0810696119694967
 51
187.4131018955195032
  0
ARC
  5
2CE90
  8
0
 10
3280.5406364209429739
 20
148.99981745088769
 30
0.0
 40
7.5851883637045558
 50
181.4488265127355078
 51
183.0604046020851001
  0
ARC
  5
2CE91
  8
0
 10
3255.0966637766141503
 20
148.3627299228417087
 30
0.0
 40
17.8667593431639986
 50
1.4281615028510799
 51
1.6158118833642241
  0
ARC
  5
2CE92
  8
0
 10
3278.091854065517964
 20
149.0237814399013985
 30
0.0
 40
5.1316001997965071
 50
179.8926214357240099
 51
188.6066259915949104
  0
ARC
  5
2CE93
  8
0
 10
3278.1762091033770048
 20
149.1798220801219941
 30
0.0
 40
5.2166329780087297
 50
181.6084222526731935
 51
190.2021932025170941
  0
ARC
  5
2CE94
  8
0
 10
3277.9569510462170001
 20
149.2309030909063097
 30
0.0
 40
4.9917635623137109
 50
182.2675608287100033
 51
191.2642632923165991
  0
ARC
  5
2CE95
  8
0
 10
3277.7835705936531667
 20
149.2662170430141941
 30
0.0
 40
4.806121239511234
 50
182.7766124350069106
 51
192.1356664823553047
  0
ARC
  5
2CE96
  8
0
 10
3277.8441445933749492
 20
149.3765551115454002
 30
0.0
 40
4.8637548236306367
 50
184.0457975857129043
 51
193.3219173115332978
  0
ARC
  5
2CE97
  8
0
 10
3277.1114752090338698
 20
149.282274392409505
 30
0.0
 40
4.1080029191633098
 50
183.4732859810837056
 51
194.4693897008388035
  0
ARC
  5
2CE98
  8
0
 10
3277.9508022283039281
 20
149.5091178032155881
 30
0.0
 40
4.9501648106918816
 50
185.5147319593671966
 51
194.6657088284154895
  0
ARC
  5
2CE99
  8
0
 10
3276.7639464898311417
 20
149.2896569596011034
 30
0.0
 40
3.7265772236588091
 50
183.9430600269853073
 51
196.1061332572276967
  0
ARC
  5
2CE9A
  8
0
 10
3277.4294671940820081
 20
149.4722088670810081
 30
0.0
 40
4.3911846288338676
 50
185.7351287264008022
 51
196.0813864282648069
  0
ARC
  5
2CE9B
  8
0
 10
3277.1676117510851327
 20
149.4271120485510096
 30
0.0
 40
4.0981507938208841
 50
185.5129654030768052
 51
196.6069829498285912
  0
ARC
  5
2CE9C
  8
0
 10
3278.1172766302788659
 20
149.6882780249096072
 30
0.0
 40
5.053031067978738
 50
187.4465537512575963
 51
196.4680715510108939
  0
ARC
  5
2CE9D
  8
0
 10
3278.1095504525851538
 20
149.6572536576852883
 30
0.0
 40
5.0099323198887662
 50
187.1532478267461954
 51
196.2439243542403915
  0
ARC
  5
2CE9E
  8
0
 10
3275.9696940415528843
 20
149.3468226963923087
 30
0.0
 40
2.8216683552220712
 50
186.3774368262972985
 51
202.0758204367342046
  0
ARC
  5
2CE9F
  8
0
 10
3276.251375905866098
 20
149.3552685250909065
 30
0.0
 40
3.0662295077907271
 50
186.0255846725058007
 51
199.1538399319738062
  0
ARC
  5
2CEA0
  8
0
 10
3276.350899834223128
 20
149.4264953345551987
 30
0.0
 40
3.1464468534278431
 50
187.1769173740150052
 51
197.7889440301646005
  0
ARC
  5
2CEA1
  8
0
 10
3275.3686853558961047
 20
149.1501435455543003
 30
0.0
 40
2.1051073050006202
 50
183.1791373781921948
 51
196.9373792425857062
  0
ARC
  5
2CEA2
  8
0
 10
3274.9401288570011275
 20
149.1754119832046115
 30
0.0
 40
1.651645963447582
 50
184.9325498691453902
 51
196.3024019761610077
  0
ARC
  5
2CEA3
  8
0
 10
3274.3768596663990138
 20
149.017046969037807
 30
0.0
 40
1.0451557566311731
 50
179.1035608658297065
 51
192.0910704298792098
  0
LINE
  5
2CEA4
  8
0
 10
3273.7583897558370154
 20
149.0333986149186956
 30
0.0
 11
3273.7583897558370154
 21
148.4239916952132035
 31
0.0
  0
LINE
  5
2CEA5
  8
0
 10
3273.7583897558370154
 20
148.281015467667487
 30
0.0
 11
3273.7583897558370154
 21
148.2558395598186962
 31
0.0
  0
ARC
  5
2CEA6
  8
0
 10
3266.9603050142850407
 20
148.4840384612840012
 30
0.0
 40
6.7983499297583281
 50
358.0764022701386011
 51
359.4939255790122274
  0
ARC
  5
2CEA7
  8
0
 10
3272.9621627033479854
 20
148.2458417157295969
 30
0.0
 40
0.7970035833926454
 50
2.5294269012970441
 51
4.7201510577477253
  0
ARC
  5
2CEA8
  8
0
 10
3267.3752371772538936
 20
148.5784640618367973
 30
0.0
 40
6.3789218942288644
 50
357.1009345311279048
 51
359.5926122143463886
  0
ARC
  5
2CEA9
  8
0
 10
3266.8801933173940597
 20
148.7497507301866904
 30
0.0
 40
6.8772176216113561
 50
355.881559821364192
 51
359.0382207281804767
  0
ARC
  5
2CEAA
  8
0
 10
3258.4931590780488477
 20
148.9120868738501997
 30
0.0
 40
15.2658103204269597
 50
358.9574016288096914
 51
359.5007026791107023
  0
ARC
  5
2CEAB
  8
0
 10
3269.7318141853770612
 20
148.6818243751237105
 30
0.0
 40
4.0156745093512409
 50
353.9105768537614267
 51
355.4318370422171824
  0
ARC
  5
2CEAC
  8
0
 10
3267.3790751316228125
 20
148.8404501599449929
 30
0.0
 40
6.3736405190481813
 50
355.6948895197340903
 51
359.2371065024738073
  0
ARC
  5
2CEAD
  8
0
 10
3269.2462555812999199
 20
148.8369263586158127
 30
0.0
 40
4.503768180800475
 50
352.5868981044803832
 51
356.9189303880305033
  0
ARC
  5
2CEAE
  8
0
 10
3266.1691430907321774
 20
148.99981745088769
 30
0.0
 40
7.5851883637045558
 50
356.9395953979148999
 51
358.5511734872645206
  0
ARC
  5
2CEAF
  8
0
 10
3268.6179254461571873
 20
149.0237814399013985
 30
0.0
 40
5.1316001997965071
 50
351.3933740084049759
 51
0.1073785642759616
  0
ARC
  5
2CEB0
  8
0
 10
3268.5335704082981465
 20
149.1798220801219941
 30
0.0
 40
5.2166329780087297
 50
349.7978067974829059
 51
358.3915777473267212
  0
ARC
  5
2CEB1
  8
0
 10
3268.7528284654581512
 20
149.2309030909063097
 30
0.0
 40
4.9917635623137109
 50
348.7357367076833725
 51
357.7324391712900251
  0
ARC
  5
2CEB2
  8
0
 10
3268.9262089180219846
 20
149.2662170430141941
 30
0.0
 40
4.806121239511234
 50
347.8643335176446953
 51
357.2233875649930042
  0
ARC
  5
2CEB3
  8
0
 10
3268.8656349182988379
 20
149.3765551115454002
 30
0.0
 40
4.8637548236306367
 50
346.6780826884665885
 51
355.9542024142871242
  0
ARC
  5
2CEB4
  8
0
 10
3269.5983043026408268
 20
149.282274392409505
 30
0.0
 40
4.1080029191633098
 50
345.5306102991611965
 51
356.5267140189162092
  0
ARC
  5
2CEB5
  8
0
 10
3268.7589772833712232
 20
149.5091178032155881
 30
0.0
 40
4.9501648106918816
 50
345.3342911715844821
 51
354.485268040632775
  0
ARC
  5
2CEB6
  8
0
 10
3269.9458330218440096
 20
149.2896569596011034
 30
0.0
 40
3.7265772236588091
 50
343.8938667427722748
 51
356.0569399730147211
  0
ARC
  5
2CEB7
  8
0
 10
3269.280312317591779
 20
149.4722088670810081
 30
0.0
 40
4.3911846288338676
 50
343.9186135717351931
 51
354.2648712735992262
  0
ARC
  5
2CEB8
  8
0
 10
3269.5421677605891091
 20
149.4271120485510096
 30
0.0
 40
4.0981507938208841
 50
343.3930170501714088
 51
354.4870345969230812
  0
ARC
  5
2CEB9
  8
0
 10
3268.5925028813949211
 20
149.6882780249096072
 30
0.0
 40
5.053031067978738
 50
343.5319284489891061
 51
352.5534462487423752
  0
ARC
  5
2CEBA
  8
0
 10
3268.600229059089088
 20
149.6572536576852883
 30
0.0
 40
5.0099323198887662
 50
343.7560756457596085
 51
352.8467521732537193
  0
ARC
  5
2CEBB
  8
0
 10
3270.7400854701218122
 20
149.3468226963923087
 30
0.0
 40
2.8216683552220712
 50
337.9241795632656817
 51
353.6225631737027015
  0
ARC
  5
2CEBC
  8
0
 10
3270.4584036058090533
 20
149.3552685250909065
 30
0.0
 40
3.0662295077907271
 50
340.8461600680262222
 51
353.9744153274941141
  0
ARC
  5
2CEBD
  8
0
 10
3270.3588796774511138
 20
149.4264953345551987
 30
0.0
 40
3.1464468534278431
 50
342.2110559698353995
 51
352.8230826259850232
  0
ARC
  5
2CEBE
  8
0
 10
3271.3410941557790466
 20
149.1501435455543003
 30
0.0
 40
2.1051073050006202
 50
343.0626207574143223
 51
356.8208626218078052
  0
ARC
  5
2CEBF
  8
0
 10
3271.7696506546740238
 20
149.1754119832046115
 30
0.0
 40
1.651645963447582
 50
343.697598023838907
 51
355.0674501308545246
  0
ARC
  5
2CEC0
  8
0
 10
3272.3329198452761375
 20
149.017046969037807
 30
0.0
 40
1.0451557566311731
 50
347.9089295701207902
 51
0.8964391341702512
  0
ARC
  5
2CEC1
  8
0
 10
3313.3600020370840866
 20
148.3433498279449054
 30
0.0
 40
39.6099965908753404
 50
179.0017953371585975
 51
179.40368810333959
  0
ARC
  5
2CEC2
  8
0
 10
3291.6131157350600915
 20
148.3627299228417087
 30
0.0
 40
17.8667593431639986
 50
178.3841881166358121
 51
178.5718384971488888
  0
ENDSEC
  0
EOF
